  0
SECTION
  2
HEADER
  9
$EXTMIN
 10
-210.0
 20
-148.5
  9
$EXTMAX
 10
210.0
 20
148.5
  9
$PDMODE
 70
    32
  9
$PDSIZE
 40
1.5
  9
$LTSCALE
 40
10.0
  0
ENDSEC
  0
SECTION
  2
TABLES
  0
TABLE
  2
LTYPE
 70
    15
  0
LTYPE
  2
CONTINUOUS
 70
    64
  3
実線
 72
    65
 73
     0
 40
0.0
  0
LTYPE
  2
DASHED
 70
    64
  3
破線A
 72
    65
 73
     2
 40
0.6
 49
0.4
 49
-0.2
  0
LTYPE
  2
DASHEDX2
 70
    64
  3
破線B
 72
    65
 73
     2
 40
1.3
 49
0.9
 49
-0.4
  0
LTYPE
  2
DASHDOT
 70
    64
  3
１点鎖線A
 72
    65
 73
     4
 40
0.5375
 49
0.375
 49
-0.05
 49
0.0625
 49
-0.05
  0
LTYPE
  2
DASHDOTX2
 70
    64
  3
１点鎖線B
 72
    65
 73
     4
 40
1.075
 49
0.75
 49
-0.1
 49
0.125
 49
-0.1
  0
LTYPE
  2
DIVIDE2
 70
    64
  3
２点鎖線A
 72
    65
 73
     6
 40
0.5125
 49
0.3
 49
-0.0375
 49
0.05
 49
-0.0375
 49
0.05
 49
-0.0375
  0
LTYPE
  2
DIVIDE
 70
    64
  3
２点鎖線B
 72
    65
 73
     6
 40
1.05
 49
0.55
 49
-0.1
 49
0.1
 49
-0.1
 49
0.1
 49
-0.1
  0
LTYPE
  2
DOT
 70
    64
  3
点線A
 72
    65
 73
     2
 40
0.1125
 49
0.0625
 49
-0.05
  0
LTYPE
  2
DOTX2
 70
    64
  3
点線B
 72
    65
 73
     2
 40
0.275
 49
0.15
 49
-0.125
  0
LTYPE
  2
CONTINUOUS
 70
    64
  3
実線
 72
    65
 73
     0
 40
0.0
  0
LTYPE
  2
CONTINUOUS
 70
    64
  3
実線
 72
    65
 73
     0
 40
0.0
  0
LTYPE
  2
CONTINUOUS
 70
    64
  3
実線
 72
    65
 73
     0
 40
0.0
  0
LTYPE
  2
CONTINUOUS
 70
    64
  3
実線
 72
    65
 73
     0
 40
0.0
  0
LTYPE
  2
CONTINUOUS
 70
    64
  3
実線
 72
    65
 73
     0
 40
0.0
  0
LTYPE
  2
CONTINUOUS
 70
    64
  3
実線
 72
    65
 73
     0
 40
0.0
  0
ENDTAB
  0
TABLE
  2
LAYER
 70
    34
  0
LAYER
  2
通り芯
 70
     0
 62
    15
  6
CONTINUOUS
  0
LAYER
  2
補助線
 70
     0
 62
    16
  6
DOT
  0
LAYER
  2
躯体
 70
     0
 62
    31
  6
CONTINUOUS
  0
LAYER
  2
型材
 70
     0
 62
    32
  6
CONTINUOUS
  0
LAYER
  2
型材断面
 70
     0
 62
    47
  6
CONTINUOUS
  0
LAYER
  2
ガラス
 70
     0
 62
    48
  6
CONTINUOUS
  0
LAYER
  2
ゴム等
 70
     0
 62
    63
  6
CONTINUOUS
  0
LAYER
  2
ボルト／ビス
 70
     0
 62
    64
  6
CONTINUOUS
  0
LAYER
  2
文字
 70
     0
 62
    79
  6
CONTINUOUS
  0
LAYER
  2
寸法
 70
     0
 62
    80
  6
CONTINUOUS
  0
LAYER
  2
ﾊｯﾁﾝｸﾞ
 70
     0
 62
    95
  6
CONTINUOUS
  0
LAYER
  2
別途部材
 70
     0
 62
    96
  6
CONTINUOUS
  0
LAYER
  2
曲げ物
 70
     0
 62
   111
  6
CONTINUOUS
  0
LAYER
  2
鉄骨等
 70
     0
 62
   112
  6
CONTINUOUS
  0
LAYER
  2
St
 70
     0
 62
   127
  6
CONTINUOUS
  0
LAYER
  2
その他部品等
 70
     0
 62
   128
  6
CONTINUOUS
  0
LAYER
  2
ｶﾞｽｹｯﾄ
 70
     0
 62
   143
  6
CONTINUOUS
  0
LAYER
  2
ｽｹｯﾁ
 70
     0
 62
    14
  6
CONTINUOUS
  0
LAYER
  2
0
 70
     0
 62
    17
  6
CONTINUOUS
  0
LAYER
  2
1
 70
     0
 62
    30
  6
CONTINUOUS
  0
LAYER
  2
4
 70
     0
 62
    33
  6
CONTINUOUS
  0
LAYER
  2
ﾚｲﾔ3
 70
     0
 62
    46
  6
CONTINUOUS
  0
LAYER
  2
外形線
 70
     0
 62
    49
  6
CONTINUOUS
  0
LAYER
  2
部品
 70
     0
 62
    14
  6
CONTINUOUS
  0
LAYER
  2
サッシ芯
 70
     0
 62
    17
  6
DASHDOTX2
  0
LAYER
  2
寸法線
 70
     0
 62
    62
  6
CONTINUOUS
  0
LAYER
  2
姿図外形線
 70
     0
 62
    65
  6
CONTINUOUS
  0
LAYER
  2
姿補助線
 70
     0
 62
    30
  6
CONTINUOUS
  0
LAYER
  2
透視線
 70
     0
 62
    78
  6
DOT
  0
LAYER
  2
用紙
 70
     0
 62
    81
  6
CONTINUOUS
  0
LAYER
  2
実線図枠
 70
     0
 62
    94
  6
CONTINUOUS
  0
LAYER
  2
補助図枠
 70
     0
 62
    97
  6
CONTINUOUS
  0
LAYER
  2
建具記号
 70
     0
 62
   110
  6
CONTINUOUS
  0
LAYER
  2
補助文字
 70
     0
 62
   113
  6
CONTINUOUS
  0
ENDTAB
  0
TABLE
  2
STYLE
 70
    10
  0
STYLE
  2
STANDARD
 70
     0
 40
1.0
 41
1.0
 42
1.0
 50
0.0
 71
     0
  3
TXT
  4
BIGFONT
  0
STYLE
  2
TATE
 70
     4
 40
1.0
 41
1.0
 42
1.0
 50
0.0
 71
     0
  3
TXT
  4
BIGFONT
  0
STYLE
  2
TextStyle03
 70
     0
 40
1.0
 41
1.0
 42
1.0
 50
0.0
 71
     0
  3
MONOTXT
  4
BIGFONT
  0
STYLE
  2
TextStyle04
 70
     0
 40
1.0
 41
1.0
 42
1.0
 50
0.0
 71
     0
  3
MONOTXT
  4
BIGFONT
  0
STYLE
  2
TextStyle05
 70
     0
 40
1.0
 41
1.0
 42
1.0
 50
0.0
 71
     0
  3
MONOTXT
  4
BIGFONT
  0
STYLE
  2
TextStyle06
 70
     0
 40
1.0
 41
1.0
 42
1.0
 50
0.0
 71
     0
  3
MONOTXT
  4
BIGFONT
  0
STYLE
  2
TextStyle07
 70
     0
 40
1.0
 41
1.0
 42
1.0
 50
0.0
 71
     0
  3
MONOTXT
  4
BIGFONT
  0
STYLE
  2
TextStyle08
 70
     0
 40
1.0
 41
1.0
 42
1.0
 50
0.0
 71
     0
  3
MONOTXT
  4
BIGFONT
  0
STYLE
  2
TextStyle09
 70
     0
 40
1.0
 41
1.0
 42
1.0
 50
0.0
 71
     0
  3
MONOTXT
  4
BIGFONT
  0
STYLE
  2
TextStyle10
 70
     0
 40
1.0
 41
1.0
 42
1.0
 50
0.0
 71
     0
  3
MONOTXT
  4
BIGFONT
  0
ENDTAB
  0
ENDSEC
  0
SECTION
  2
BLOCKS
  0
BLOCK
  2
*GRP_0001
 70
    65
 10
0.0
 20
0.0
  0
LINE
  8
型材断面
  6
CONTINUOUS
 10
195.0
 20
133.5
 11
195.0
 21
-133.5
  0
LINE
  8
型材断面
  6
CONTINUOUS
 10
195.0
 20
-133.5
 11
-185.0
 21
-133.5
  0
LINE
  8
型材断面
  6
CONTINUOUS
 10
-185.0
 20
-133.5
 11
-185.0
 21
133.5
  0
LINE
  8
型材断面
  6
CONTINUOUS
 10
195.0
 20
133.5
 11
-185.0
 21
133.5
  0
LINE
  8
型材断面
  6
CONTINUOUS
 10
145.0
 20
-133.5
 11
145.0
 21
-118.5
  0
LINE
  8
型材断面
  6
CONTINUOUS
 10
195.0
 20
-118.5
 11
145.0
 21
-118.5
  0
ENDBLK
  0
BLOCK
  2
*DIM_0002
 70
    65
 10
0.0
 20
0.0
  0
LINE
  8
寸法
  6
BYBLOCK
 62
     0
 10
-94.6517
 20
-33.806682
 11
-94.6517
 21
-33.377287
  0
LINE
  8
寸法
  6
BYBLOCK
 62
     0
 10
-29.6517
 20
-33.806682
 11
-29.6517
 21
-33.377287
  0
LINE
  8
寸法
  6
BYBLOCK
 62
     0
 10
-94.6517
 20
-33.377287
 11
-29.6517
 21
-33.377287
  0
POINT
  8
寸法
 62
     0
 10
-94.6517
 20
-33.377287
  0
POINT
  8
寸法
 62
     0
 10
-29.6517
 20
-33.377287
  0
TEXT
  7
TextStyle03
  8
寸法
  6
CONTINUOUS
 62
     0
 10
-73.89375
 20
-33.0
  1
呼称寸法　1300
 40
3.0
 72
     5
 11
-50.45625
 21
-33.0
  0
ENDBLK
  0
BLOCK
  2
*DIM_0003
 70
    65
 10
0.0
 20
0.0
  0
LINE
  8
寸法
  6
BYBLOCK
 62
     0
 10
-23.7767
 20
-85.813382
 11
-23.7767
 21
-33.377287
  0
LINE
  8
寸法
  6
BYBLOCK
 62
     0
 10
-29.6517
 20
-33.377287
 11
-23.7767
 21
-33.377287
  0
POINT
  8
寸法
 62
     0
 10
-29.6517
 20
-33.377287
  0
POINT
  8
寸法
 62
     0
 10
-23.7767
 20
-33.377287
  0
TEXT
  7
TextStyle03
  8
寸法
  6
CONTINUOUS
 62
     0
 10
-22.425
 20
-33.025
  1
117.5
 40
3.0
 72
     5
 11
-14.175
 21
-33.025
  0
ENDBLK
  0
BLOCK
  2
*DIM_0004
 70
    65
 10
0.0
 20
0.0
  0
LINE
  8
寸法
  6
BYBLOCK
 62
     0
 10
-100.5267
 20
-85.813382
 11
-100.5267
 21
-33.377287
  0
LINE
  8
寸法
  6
BYBLOCK
 62
     0
 10
-94.6517
 20
-33.377287
 11
-100.5267
 21
-33.377287
  0
POINT
  8
寸法
 62
     0
 10
-94.6517
 20
-33.377287
  0
POINT
  8
寸法
 62
     0
 10
-100.5267
 20
-33.377287
  0
TEXT
  7
TextStyle03
  8
寸法
  6
CONTINUOUS
 62
     0
 10
-110.15
 20
-33.025
  1
117.5
 40
3.0
 72
     5
 11
-101.9
 21
-33.025
  0
ENDBLK
  0
BLOCK
  2
*DIM_0005
 70
    65
 10
0.0
 20
0.0
  0
LINE
  8
寸法
  6
BYBLOCK
 62
     0
 10
-79.6517
 20
94.584462
 11
-79.6517
 21
104.94
  0
LINE
  8
寸法
  6
BYBLOCK
 62
     0
 10
-44.6517
 20
94.584462
 11
-44.6517
 21
104.94
  0
LINE
  8
寸法
  6
BYBLOCK
 62
     0
 10
-79.6517
 20
104.94
 11
-44.6517
 21
104.94
  0
POINT
  8
寸法
 62
     0
 10
-79.6517
 20
104.94
  0
POINT
  8
寸法
 62
     0
 10
-44.6517
 20
104.94
  0
TEXT
  7
TextStyle03
  8
寸法
  6
CONTINUOUS
 62
     0
 10
-64.6125
 20
105.3
  1
700
 40
3.0
 72
     5
 11
-59.7375
 21
105.3
  0
ENDBLK
  0
BLOCK
  2
*DIM_0006
 70
    65
 10
0.0
 20
0.0
  0
LINE
  8
寸法
  6
BYBLOCK
 62
     0
 10
-122.800135
 20
56.71603
 11
-133.155673
 21
56.71603
  0
LINE
  8
寸法
  6
BYBLOCK
 62
     0
 10
-122.800137
 20
21.71603
 11
-133.155675
 21
21.71603
  0
LINE
  8
寸法
  6
BYBLOCK
 62
     0
 10
-133.155673
 20
56.71603
 11
-133.155675
 21
21.71603
  0
POINT
  8
寸法
 62
     0
 10
-133.155673
 20
56.71603
  0
POINT
  8
寸法
 62
     0
 10
-133.155675
 20
21.71603
  0
TEXT
  7
TextStyle03
  8
寸法
  6
CONTINUOUS
 62
     0
 10
-133.55
 20
36.7625
  1
700
 40
3.0
 50
90.0
 72
     5
 11
-133.55
 21
41.6375
  0
ENDBLK
  0
BLOCK
  2
*DIM_0007
 70
    65
 10
0.0
 20
0.0
  0
LINE
  8
寸法
  6
CONTINUOUS
 10
-64.401697
 20
42.46603
 11
-64.401697
 21
50.538253
  0
LINE
  8
寸法
  6
CONTINUOUS
 10
-59.901703
 20
42.46603
 11
-59.901703
 21
50.538253
  0
LINE
  8
寸法
  6
CONTINUOUS
 10
-64.401697
 20
50.538253
 11
-59.901703
 21
50.538253
  0
POINT
  8
寸法
 10
-64.401697
 20
50.538253
  0
POINT
  8
寸法
 10
-59.901703
 20
50.538253
  0
TEXT
  7
TextStyle03
  8
寸法
  6
CONTINUOUS
 10
-63.69375
 20
50.925
  1
90
 40
3.0
 72
     5
 11
-60.50625
 21
50.925
  0
ENDBLK
  0
BLOCK
  2
*DIM_0008
 70
    65
 10
0.0
 20
0.0
  0
LINE
  8
寸法
  6
CONTINUOUS
 10
-60.1517
 20
-49.928557
 11
-51.008765
 21
-49.928557
  0
LINE
  8
寸法
  6
CONTINUOUS
 10
-58.901112
 20
-52.178557
 11
-51.008765
 21
-52.178557
  0
LINE
  8
寸法
  6
CONTINUOUS
 10
-51.008765
 20
-49.928557
 11
-51.008765
 21
-52.178557
  0
POINT
  8
寸法
 10
-51.008765
 20
-49.928557
  0
POINT
  8
寸法
 10
-51.008765
 20
-52.178557
  0
TEXT
  7
TextStyle03
  8
寸法
  6
CONTINUOUS
 10
-50.875
 20
-55.84375
  1
45
 40
3.0
 50
90.0
 72
     5
 11
-50.875
 21
-52.65625
  0
ENDBLK
  0
BLOCK
  2
*DIM_0009
 70
    65
 10
0.0
 20
0.0
  0
LINE
  8
寸法
  6
CONTINUOUS
 10
-64.4017
 20
-51.178557
 11
-64.4017
 21
-45.558897
  0
LINE
  8
寸法
  6
CONTINUOUS
 10
-59.901112
 20
-51.178557
 11
-59.901112
 21
-45.558897
  0
LINE
  8
寸法
  6
CONTINUOUS
 10
-64.4017
 20
-45.558897
 11
-59.901112
 21
-45.558897
  0
POINT
  8
寸法
 10
-64.4017
 20
-45.558897
  0
POINT
  8
寸法
 10
-59.901112
 20
-45.558897
  0
TEXT
  7
TextStyle03
  8
寸法
  6
CONTINUOUS
 10
-63.74375
 20
-45.2
  1
90
 40
3.0
 72
     5
 11
-60.55625
 21
-45.2
  0
ENDBLK
  0
BLOCK
  2
*DIM_0010
 70
    65
 10
0.0
 20
0.0
  0
LINE
  8
寸法
  6
CONTINUOUS
 10
-24.7017
 20
-90.01338
 11
-5.49001
 21
-90.01338
  0
LINE
  8
寸法
  6
CONTINUOUS
 10
-24.7017
 20
-86.696185
 11
-5.49001
 21
-86.696185
  0
LINE
  8
寸法
  6
CONTINUOUS
 10
-5.49001
 20
-90.01338
 11
-5.49001
 21
-86.696185
  0
POINT
  8
寸法
 10
-5.49001
 20
-90.01338
  0
POINT
  8
寸法
 10
-5.49001
 20
-86.696185
  0
TEXT
  7
TextStyle03
  8
寸法
  6
CONTINUOUS
 10
-2.5
 20
-91.65625
  1
66.3
 40
3.0
 50
90.0
 72
     5
 11
-2.5
 21
-85.09375
  0
ENDBLK
  0
BLOCK
  2
*DIM_0011
 70
    65
 10
0.0
 20
0.0
  0
LINE
  8
寸法
  6
CONTINUOUS
 10
-61.1517
 20
-49.928557
 11
-5.49001
 21
-49.928557
  0
LINE
  8
寸法
  6
CONTINUOUS
 10
-5.49001
 20
-86.696185
 11
-5.49001
 21
-49.928557
  0
POINT
  8
寸法
 10
-5.49001
 20
-49.928557
  0
TEXT
  7
TextStyle03
  8
寸法
  6
CONTINUOUS
 10
-5.875
 20
-72.45
  1
735.3
 40
3.0
 50
90.0
 72
     5
 11
-5.875
 21
-64.2
  0
ENDBLK
  0
BLOCK
  2
*DIM_0012
 70
    65
 10
0.0
 20
0.0
  0
LINE
  8
寸法
  6
CONTINUOUS
 10
81.230685
 20
-80.370525
 11
81.230685
 21
-91.677675
  0
LINE
  8
寸法
  6
CONTINUOUS
 10
143.95375
 20
-80.370525
 11
143.95375
 21
-91.677675
  0
LINE
  8
寸法
  6
CONTINUOUS
 10
81.230685
 20
-91.677675
 11
143.95375
 21
-91.677675
  0
POINT
  8
寸法
 10
81.230685
 20
-91.677675
  0
POINT
  8
寸法
 10
143.95375
 20
-91.677675
  0
TEXT
  7
TextStyle03
  8
寸法
  6
CONTINUOUS
 10
107.60625
 20
-91.325
  1
1254.5
 40
3.0
 72
     5
 11
117.54375
 21
-91.325
  0
ENDBLK
  0
BLOCK
  2
*DIM_0013
 70
    65
 10
0.0
 20
0.0
  0
LINE
  8
寸法
  6
CONTINUOUS
 10
144.95375
 20
-79.370525
 11
157.185193
 21
-79.370525
  0
LINE
  8
寸法
  6
CONTINUOUS
 10
113.592217
 20
-35.018628
 11
157.185193
 21
-35.018628
  0
LINE
  8
寸法
  6
CONTINUOUS
 10
157.185193
 20
-79.370525
 11
157.185193
 21
-35.018628
  0
POINT
  8
寸法
 10
157.185193
 20
-79.370525
  0
POINT
  8
寸法
 10
157.185193
 20
-35.018628
  0
TEXT
  7
TextStyle03
  8
寸法
  6
CONTINUOUS
 10
156.8
 20
-59.6375
  1
887
 40
3.0
 50
90.0
 72
     5
 11
156.8
 21
-54.7625
  0
ENDBLK
  0
ENDSEC
  0
SECTION
  2
ENTITIES
  0
POLYLINE
  8
通り芯
  6
CONTINUOUS
 66
     1
 70
     1
  0
VERTEX
  8
通り芯
 10
-210.0
 20
-148.5
  0
VERTEX
  8
通り芯
 10
210.0
 20
-148.5
  0
VERTEX
  8
通り芯
 10
210.0
 20
148.5
  0
VERTEX
  8
通り芯
 10
-210.0
 20
148.5
  0
SEQEND
  0
LINE
  8
型材断面
  6
DASHDOT
 10
-94.6517
 20
39.216028
 11
-29.6517
 21
39.216028
  0
LINE
  8
型材断面
  6
DASHDOT
 10
-29.6517
 20
6.716028
 11
-94.6517
 21
6.716028
  0
LINE
  8
型材断面
  6
DASHDOT
 10
-29.6517
 20
71.71603
 11
-94.6517
 21
71.71603
  0
INSERT
  2
*GRP_0001
  8
型材断面
  6
CONTINUOUS
 10
0.0
 20
0.0
  0
LINE
  8
型材断面
  6
CONTINUOUS
 10
-21.627825
 20
39.216028
 11
-17.742065
 21
36.972582
  0
LINE
  8
型材断面
  6
CONTINUOUS
 10
-21.627825
 20
39.216028
 11
-17.742065
 21
41.459473
  0
LINE
  8
型材断面
  6
CONTINUOUS
 10
-17.742065
 20
41.459473
 11
-17.742065
 21
36.972582
  0
LINE
  8
型材断面
  6
CONTINUOUS
 10
-62.1517
 20
79.739903
 11
-64.395145
 21
83.625663
  0
LINE
  8
型材断面
  6
CONTINUOUS
 10
-62.1517
 20
79.739903
 11
-59.908255
 21
83.625663
  0
LINE
  8
型材断面
  6
CONTINUOUS
 10
-59.908255
 20
83.625663
 11
-64.395145
 21
83.625663
  0
LINE
  8
型材断面
  6
CONTINUOUS
 10
-62.1517
 20
-1.307848
 11
-64.395145
 21
-5.193607
  0
LINE
  8
型材断面
  6
CONTINUOUS
 10
-62.1517
 20
-1.307848
 11
-59.908255
 21
-5.193607
  0
LINE
  8
型材断面
  6
CONTINUOUS
 10
-59.908255
 20
-5.193607
 11
-64.395145
 21
-5.193607
  0
LINE
  8
型材断面
  6
CONTINUOUS
 10
-102.675575
 20
39.216028
 11
-106.561335
 21
36.972582
  0
LINE
  8
型材断面
  6
CONTINUOUS
 10
-102.675575
 20
39.216028
 11
-106.561335
 21
41.459473
  0
LINE
  8
型材断面
  6
CONTINUOUS
 10
-106.561335
 20
41.459473
 11
-106.561335
 21
36.972582
  0
LINE
  8
型材断面
  6
CONTINUOUS
 10
-9.511597
 20
0.93023
 11
-11.755043
 21
-2.95553
  0
LINE
  8
型材断面
  6
CONTINUOUS
 10
-9.511597
 20
0.93023
 11
-7.268152
 21
-2.95553
  0
LINE
  8
型材断面
  6
CONTINUOUS
 10
-7.268152
 20
-2.95553
 11
-11.755043
 21
-2.95553
  0
LINE
  8
型材断面
  6
CONTINUOUS
 10
-18.545478
 20
-4.363422
 11
34.111203
 21
-4.363422
  0
LINE
  8
型材断面
  6
CONTINUOUS
 10
-18.545478
 20
-11.036203
 11
34.111203
 21
-11.036203
  0
LINE
  8
型材断面
  6
DASHDOT
 10
-94.6517
 20
71.71603
 11
-94.6517
 21
-90.01338
  0
LINE
  8
型材断面
  6
DASHDOT
 10
-62.1517
 20
71.71603
 11
-62.1517
 21
-90.01338
  0
LINE
  8
型材断面
  6
DASHDOT
 10
-29.6517
 20
72.141022
 11
-29.6517
 21
-90.01338
  0
LINE
  8
型材断面
  6
CONTINUOUS
 10
-98.601695
 20
75.666022
 11
-25.701705
 21
75.666022
  0
LINE
  8
型材断面
  6
CONTINUOUS
 10
-25.701705
 20
75.666022
 11
-25.701705
 21
2.766033
  0
LINE
  8
型材断面
  6
CONTINUOUS
 10
-25.701705
 20
2.766033
 11
-98.601695
 21
2.766033
  0
LINE
  8
型材断面
  6
CONTINUOUS
 10
-98.601695
 20
75.666022
 11
-98.601695
 21
2.766033
  0
LINE
  8
型材断面
  6
CONTINUOUS
 10
-62.1517
 20
39.216028
 11
-98.601695
 21
2.766033
  0
LINE
  8
型材断面
  6
CONTINUOUS
 10
-62.1517
 20
39.216028
 11
-25.701705
 21
75.666022
  0
LINE
  8
型材断面
  6
CONTINUOUS
 10
-98.601695
 20
75.666022
 11
-25.701705
 21
2.766033
  0
LINE
  8
型材断面
  6
CONTINUOUS
 10
-63.55738
 20
39.216028
 11
-64.4017
 21
38.37171
  0
LINE
  8
型材断面
  6
CONTINUOUS
 10
-64.4017
 20
38.37171
 11
-64.4017
 21
36.966028
  0
LINE
  8
型材断面
  6
CONTINUOUS
 10
-64.4017
 20
36.966028
 11
-62.996022
 21
36.966028
  0
LINE
  8
型材断面
  6
CONTINUOUS
 10
-62.1517
 20
37.810347
 11
-62.996022
 21
36.966028
  0
LINE
  8
型材断面
  6
CONTINUOUS
 10
-62.1517
 20
39.216028
 11
-64.401703
 21
36.966028
  0
LINE
  8
型材断面
  6
CONTINUOUS
 10
-59.901703
 20
41.46603
 11
-61.307377
 21
41.466028
  0
LINE
  8
型材断面
  6
CONTINUOUS
 10
-62.1517
 20
40.621708
 11
-61.307377
 21
41.466028
  0
LINE
  8
型材断面
  6
CONTINUOUS
 10
-59.901703
 20
41.46603
 11
-59.9017
 21
40.060345
  0
LINE
  8
型材断面
  6
CONTINUOUS
 10
-60.74602
 20
39.216028
 11
-59.9017
 21
40.060345
  0
LINE
  8
型材断面
  6
CONTINUOUS
 10
-62.1517
 20
39.216028
 11
-59.901695
 21
41.46603
  0
LINE
  8
型材断面
  6
CONTINUOUS
 10
-62.1517
 20
37.810347
 11
-61.307377
 21
36.966028
  0
LINE
  8
型材断面
  6
CONTINUOUS
 10
-59.9017
 20
36.966028
 11
-61.307377
 21
36.966028
  0
LINE
  8
型材断面
  6
CONTINUOUS
 10
-59.9017
 20
36.966028
 11
-59.9017
 21
38.37171
  0
LINE
  8
型材断面
  6
CONTINUOUS
 10
-60.74602
 20
39.216028
 11
-59.9017
 21
38.37171
  0
LINE
  8
型材断面
  6
CONTINUOUS
 10
-64.401697
 20
41.46603
 11
-62.996022
 21
41.466028
  0
LINE
  8
型材断面
  6
CONTINUOUS
 10
-62.1517
 20
40.621708
 11
-62.996022
 21
41.466028
  0
LINE
  8
型材断面
  6
CONTINUOUS
 10
-64.401697
 20
41.46603
 11
-64.4017
 21
40.060345
  0
LINE
  8
型材断面
  6
CONTINUOUS
 10
-63.55738
 20
39.216028
 11
-64.4017
 21
40.060345
  0
LINE
  8
型材断面
  6
CONTINUOUS
 10
-62.1517
 20
39.216028
 11
-64.401697
 21
41.466022
  0
LINE
  8
型材断面
  6
CONTINUOUS
 10
-62.1517
 20
39.216028
 11
-59.901697
 21
36.966028
  0
LINE
  8
型材断面
  6
CONTINUOUS
 10
-25.7017
 20
-86.625453
 11
-25.648668
 21
-86.572418
  0
LINE
  8
型材断面
  6
CONTINUOUS
 10
-25.7017
 20
-86.696185
 11
-25.7017
 21
-90.01338
  0
LINE
  8
型材断面
  6
CONTINUOUS
 10
-26.9517
 20
-90.013363
 11
-26.9517
 21
-90.713363
  0
LINE
  8
型材断面
  6
CONTINUOUS
 10
-98.6017
 20
-86.696185
 11
-98.6017
 21
-90.01338
  0
LINE
  8
型材断面
  6
CONTINUOUS
 10
-97.3517
 20
-90.013363
 11
-97.3517
 21
-90.713363
  0
LINE
  8
型材断面
  6
CONTINUOUS
 10
-25.7017
 20
-86.696185
 11
-98.6017
 21
-86.696185
  0
LINE
  8
型材断面
  6
CONTINUOUS
 10
-25.7017
 20
-90.01338
 11
-98.6017
 21
-90.01338
  0
LINE
  8
型材断面
  6
CONTINUOUS
 10
-26.9517
 20
-90.713363
 11
-97.3517
 21
-90.713363
  0
LINE
  8
型材断面
  6
CONTINUOUS
 10
-98.6017
 20
-86.625453
 11
-62.151697
 21
-50.175455
  0
LINE
  8
型材断面
  6
CONTINUOUS
 10
-25.7017
 20
-86.625453
 11
-62.151697
 21
-50.175455
  0
LINE
  8
型材断面
  6
CONTINUOUS
 10
-25.648668
 20
-86.572418
 11
-62.1517
 21
-50.06939
  0
LINE
  8
型材断面
  6
CONTINUOUS
 10
-98.654732
 20
-86.572418
 11
-62.1517
 21
-50.06939
  0
LINE
  8
型材断面
  6
CONTINUOUS
 10
-62.1517
 20
-51.342772
 11
-62.1517
 21
-49.928557
  0
LINE
  8
型材断面
  6
CONTINUOUS
 10
-62.1517
 20
-51.342772
 11
-62.1517
 21
-49.928557
  0
LINE
  8
型材断面
  6
CONTINUOUS
 10
-64.4017
 20
-52.178557
 11
-64.33099
 21
-52.249268
  0
LINE
  8
型材断面
  6
CONTINUOUS
 10
-64.33099
 20
-52.249268
 11
-63.058198
 21
-52.249268
  0
LINE
  8
型材断面
  6
CONTINUOUS
 10
-62.1517
 20
-49.928557
 11
-64.4017
 21
-52.178557
  0
LINE
  8
型材断面
  6
CONTINUOUS
 10
-62.1517
 20
-51.34277
 11
-63.058198
 21
-52.249268
  0
LINE
  8
型材断面
  6
CONTINUOUS
 10
-59.901112
 20
-52.178557
 11
-59.971822
 21
-52.249268
  0
LINE
  8
型材断面
  6
CONTINUOUS
 10
-59.971822
 20
-52.249268
 11
-61.244615
 21
-52.249268
  0
LINE
  8
型材断面
  6
CONTINUOUS
 10
-62.1517
 20
-51.34277
 11
-61.245202
 21
-52.249268
  0
LINE
  8
型材断面
  6
CONTINUOUS
 10
-62.1517
 20
-49.928557
 11
-59.901405
 21
-52.178852
  0
LINE
  8
型材断面
  6
CONTINUOUS
 10
80.869628
 20
-28.503545
 11
104.80125
 21
-28.503545
  0
LINE
  8
ガラス
  6
CONTINUOUS
 10
-60.338475
 20
64.175742
 11
-64.21111
 21
60.303108
  0
LINE
  8
ガラス
  6
CONTINUOUS
 10
-61.218797
 20
62.577385
 11
-62.612752
 21
61.18343
  0
LINE
  8
ガラス
  6
CONTINUOUS
 10
-61.936833
 20
63.29542
 11
-63.330788
 21
61.901465
  0
LINE
  8
ガラス
  6
CONTINUOUS
 10
-60.338475
 20
20.428475
 11
-64.21111
 21
16.55584
  0
LINE
  8
ガラス
  6
CONTINUOUS
 10
-61.218797
 20
18.830118
 11
-62.612752
 21
17.436162
  0
LINE
  8
ガラス
  6
CONTINUOUS
 10
-61.936833
 20
19.548152
 11
-63.330788
 21
18.154198
  0
LINE
  8
ガラス
  6
CONTINUOUS
 10
-40.187438
 20
41.10373
 11
-44.060073
 21
37.231095
  0
LINE
  8
ガラス
  6
CONTINUOUS
 10
-41.06776
 20
39.505372
 11
-42.461715
 21
38.111418
  0
LINE
  8
ガラス
  6
CONTINUOUS
 10
-41.785795
 20
40.223408
 11
-43.17975
 21
38.829452
  0
LINE
  8
ガラス
  6
CONTINUOUS
 10
-80.04576
 20
41.10373
 11
-83.918395
 21
37.231095
  0
LINE
  8
ガラス
  6
CONTINUOUS
 10
-80.926083
 20
39.505372
 11
-82.320038
 21
38.111418
  0
LINE
  8
ガラス
  6
CONTINUOUS
 10
-81.644117
 20
40.223408
 11
-83.038072
 21
38.829452
  0
LINE
  8
ガラス
  6
CONTINUOUS
 10
-60.338475
 20
-70.46891
 11
-64.21111
 21
-74.341545
  0
LINE
  8
ガラス
  6
CONTINUOUS
 10
-61.218797
 20
-72.067267
 11
-62.612752
 21
-73.461222
  0
LINE
  8
ガラス
  6
CONTINUOUS
 10
-61.936833
 20
-71.349233
 11
-63.330788
 21
-72.743188
  0
LINE
  8
ガラス
  6
CONTINUOUS
 10
81.230685
 20
-79.370525
 11
143.95375
 21
-79.370525
  0
LINE
  8
ガラス
  6
CONTINUOUS
 10
143.95375
 20
-79.370525
 11
112.592217
 21
-35.018628
  0
LINE
  8
ガラス
  6
CONTINUOUS
 10
81.230685
 20
-79.370525
 11
112.592217
 21
-35.018628
  0
LINE
  8
ゴム等
  6
CONTINUOUS
 10
-62.1517
 20
37.618917
 11
-62.1517
 21
36.02675
  0
LINE
  8
ゴム等
  6
CONTINUOUS
 10
-62.1517
 20
40.813138
 11
-62.1517
 21
42.405305
  0
LINE
  8
ゴム等
  6
CONTINUOUS
 10
-60.55459
 20
39.216028
 11
-58.962422
 21
39.216028
  0
LINE
  8
ゴム等
  6
CONTINUOUS
 10
-63.74881
 20
39.216028
 11
-65.340978
 21
39.216028
  0
LINE
  8
ゴム等
  6
CONTINUOUS
 10
-62.1517
 20
43.667878
 11
-91.784965
 21
73.301143
  0
LINE
  8
ゴム等
  6
CONTINUOUS
 10
-62.1517
 20
42.405305
 11
-94.305615
 21
74.55922
  0
LINE
  8
ゴム等
  6
CONTINUOUS
 10
-62.1517
 20
40.813138
 11
-96.817022
 21
75.47846
  0
LINE
  8
ゴム等
  6
CONTINUOUS
 10
-66.60355
 20
39.216028
 11
-96.236815
 21
68.849293
  0
LINE
  8
ゴム等
  6
CONTINUOUS
 10
-65.340978
 20
39.216028
 11
-97.494892
 21
71.369943
  0
LINE
  8
ゴム等
  6
CONTINUOUS
 10
-63.74881
 20
39.216028
 11
-98.414132
 21
73.88135
  0
LINE
  8
ゴム等
  6
CONTINUOUS
 10
-91.784965
 20
73.301143
 11
-32.518435
 21
73.301143
  0
LINE
  8
ゴム等
  6
CONTINUOUS
 10
-62.1517
 20
43.667878
 11
-32.518435
 21
73.301143
  0
LINE
  8
ゴム等
  6
CONTINUOUS
 10
-62.1517
 20
42.405305
 11
-29.997785
 21
74.55922
  0
LINE
  8
ゴム等
  6
CONTINUOUS
 10
-94.305615
 20
74.55922
 11
-29.997785
 21
74.55922
  0
LINE
  8
ゴム等
  6
CONTINUOUS
 10
-96.817022
 20
75.47846
 11
-27.486377
 21
75.47846
  0
LINE
  8
ゴム等
  6
CONTINUOUS
 10
-62.1517
 20
40.813138
 11
-27.486377
 21
75.47846
  0
LINE
  8
ゴム等
  6
CONTINUOUS
 10
-60.55459
 20
39.216028
 11
-25.889268
 21
73.88135
  0
LINE
  8
ゴム等
  6
CONTINUOUS
 10
-58.962422
 20
39.216028
 11
-26.808507
 21
71.369943
  0
LINE
  8
ゴム等
  6
CONTINUOUS
 10
-57.69985
 20
39.216028
 11
-28.066585
 21
68.849293
  0
LINE
  8
ゴム等
  6
CONTINUOUS
 10
-57.69985
 20
39.216028
 11
-28.066585
 21
9.582762
  0
LINE
  8
ゴム等
  6
CONTINUOUS
 10
-28.066585
 20
68.849293
 11
-28.066585
 21
9.582762
  0
LINE
  8
ゴム等
  6
CONTINUOUS
 10
-26.808507
 20
71.369943
 11
-26.808507
 21
7.062112
  0
LINE
  8
ゴム等
  6
CONTINUOUS
 10
-58.962422
 20
39.216028
 11
-26.808507
 21
7.062112
  0
LINE
  8
ゴム等
  6
CONTINUOUS
 10
-60.55459
 20
39.216028
 11
-25.889268
 21
4.550705
  0
LINE
  8
ゴム等
  6
CONTINUOUS
 10
-25.889268
 20
73.88135
 11
-25.889268
 21
4.550705
  0
LINE
  8
ゴム等
  6
CONTINUOUS
 10
-62.1517
 20
37.618917
 11
-27.486377
 21
2.953595
  0
LINE
  8
ゴム等
  6
CONTINUOUS
 10
-62.1517
 20
36.02675
 11
-29.997785
 21
3.872835
  0
LINE
  8
ゴム等
  6
CONTINUOUS
 10
-62.1517
 20
34.764178
 11
-32.518435
 21
5.130912
  0
LINE
  8
ゴム等
  6
CONTINUOUS
 10
-62.1517
 20
34.764178
 11
-91.784965
 21
5.130912
  0
LINE
  8
ゴム等
  6
CONTINUOUS
 10
-32.518435
 20
5.130912
 11
-91.784965
 21
5.130912
  0
LINE
  8
ゴム等
  6
CONTINUOUS
 10
-29.997785
 20
3.872835
 11
-94.305615
 21
3.872835
  0
LINE
  8
ゴム等
  6
CONTINUOUS
 10
-62.1517
 20
36.02675
 11
-94.305615
 21
3.872835
  0
LINE
  8
ゴム等
  6
CONTINUOUS
 10
-62.1517
 20
37.618917
 11
-96.817022
 21
2.953595
  0
LINE
  8
ゴム等
  6
CONTINUOUS
 10
-27.486377
 20
2.953595
 11
-96.817022
 21
2.953595
  0
LINE
  8
ゴム等
  6
CONTINUOUS
 10
-96.236815
 20
68.849293
 11
-96.236815
 21
9.582762
  0
LINE
  8
ゴム等
  6
CONTINUOUS
 10
-66.60355
 20
39.216028
 11
-96.236815
 21
9.582762
  0
LINE
  8
ゴム等
  6
CONTINUOUS
 10
-65.340978
 20
39.216028
 11
-97.494892
 21
7.062112
  0
LINE
  8
ゴム等
  6
CONTINUOUS
 10
-97.494892
 20
71.369943
 11
-97.494892
 21
7.062112
  0
LINE
  8
ゴム等
  6
CONTINUOUS
 10
-63.74881
 20
39.216028
 11
-98.414132
 21
4.550705
  0
LINE
  8
ゴム等
  6
CONTINUOUS
 10
-98.414132
 20
73.88135
 11
-98.414132
 21
4.550705
  0
LINE
  8
ゴム等
  6
CONTINUOUS
 10
-25.889268
 20
73.88135
 11
-26.808507
 21
71.369943
  0
LINE
  8
ゴム等
  6
CONTINUOUS
 10
-26.808507
 20
71.369943
 11
-28.066585
 21
68.849293
  0
LINE
  8
ゴム等
  6
CONTINUOUS
 10
-27.486377
 20
75.47846
 11
-29.997785
 21
74.55922
  0
LINE
  8
ゴム等
  6
CONTINUOUS
 10
-29.997785
 20
74.55922
 11
-32.518435
 21
73.301143
  0
LINE
  8
ゴム等
  6
CONTINUOUS
 10
-25.889268
 20
4.550705
 11
-26.808507
 21
7.062112
  0
LINE
  8
ゴム等
  6
CONTINUOUS
 10
-26.808507
 20
7.062112
 11
-28.066585
 21
9.582762
  0
LINE
  8
ゴム等
  6
CONTINUOUS
 10
-27.486377
 20
2.953595
 11
-29.997785
 21
3.872835
  0
LINE
  8
ゴム等
  6
CONTINUOUS
 10
-29.997785
 20
3.872835
 11
-32.518435
 21
5.130912
  0
LINE
  8
ゴム等
  6
CONTINUOUS
 10
-98.414132
 20
73.88135
 11
-97.494892
 21
71.369943
  0
LINE
  8
ゴム等
  6
CONTINUOUS
 10
-97.494892
 20
71.369943
 11
-96.236815
 21
68.849293
  0
LINE
  8
ゴム等
  6
CONTINUOUS
 10
-96.817022
 20
75.47846
 11
-94.305615
 21
74.55922
  0
LINE
  8
ゴム等
  6
CONTINUOUS
 10
-94.305615
 20
74.55922
 11
-91.784965
 21
73.301143
  0
LINE
  8
ゴム等
  6
CONTINUOUS
 10
-98.414132
 20
4.550705
 11
-97.494892
 21
7.062112
  0
LINE
  8
ゴム等
  6
CONTINUOUS
 10
-97.494892
 20
7.062112
 11
-96.236815
 21
9.582762
  0
LINE
  8
ゴム等
  6
CONTINUOUS
 10
-96.817022
 20
2.953595
 11
-94.305615
 21
3.872835
  0
LINE
  8
ゴム等
  6
CONTINUOUS
 10
-94.305615
 20
3.872835
 11
-91.784965
 21
5.130912
  0
LINE
  8
ゴム等
  6
CONTINUOUS
 10
-62.1517
 20
-44.307768
 11
-62.1517
 21
-47.825717
  0
LINE
  8
ゴム等
  6
CONTINUOUS
 10
-32.515925
 20
-84.961488
 11
-29.997797
 21
-85.55383
  0
LINE
  8
ゴム等
  6
CONTINUOUS
 10
-29.997797
 20
-85.55383
 11
-27.486392
 21
-86.47307
  0
LINE
  8
ゴム等
  6
CONTINUOUS
 10
-96.817008
 20
-86.47307
 11
-94.305602
 21
-85.55383
  0
LINE
  8
ゴム等
  6
CONTINUOUS
 10
-94.305602
 20
-85.55383
 11
-91.787475
 21
-84.961488
  0
LINE
  8
ゴム等
  6
CONTINUOUS
 10
-29.997797
 20
-85.55383
 11
-94.305602
 21
-85.55383
  0
LINE
  8
ゴム等
  6
CONTINUOUS
 10
-32.515925
 20
-84.961488
 11
-91.787475
 21
-84.961488
  0
LINE
  8
ゴム等
  6
CONTINUOUS
 10
-27.486392
 20
-86.47307
 11
-96.817008
 21
-86.47307
  0
LINE
  8
ゴム等
  6
CONTINUOUS
 10
-91.787475
 20
-84.961488
 11
-62.1517
 21
-55.325717
  0
LINE
  8
ゴム等
  6
CONTINUOUS
 10
-32.515925
 20
-84.961488
 11
-62.1517
 21
-55.325717
  0
LINE
  8
ゴム等
  6
CONTINUOUS
 10
-29.997797
 20
-85.55383
 11
-62.1517
 21
-53.399932
  0
LINE
  8
ゴム等
  6
CONTINUOUS
 10
-94.305602
 20
-85.55383
 11
-62.1517
 21
-53.399932
  0
LINE
  8
ゴム等
  6
CONTINUOUS
 10
-96.817008
 20
-86.47307
 11
-62.1517
 21
-51.807768
  0
LINE
  8
ゴム等
  6
CONTINUOUS
 10
-27.486392
 20
-86.47307
 11
-62.1517
 21
-51.807768
  0
LINE
  8
ゴム等
  6
CONTINUOUS
 10
-62.1517
 20
-51.807768
 11
-62.1517
 21
-55.325717
  0
TEXT
  7
TextStyle03
  8
文字
  6
CONTINUOUS
 10
-5.25
 20
-2.625
  1
は排水穴位置を示す
 40
3.0
 72
     5
 11
24.75
 21
-2.625
  0
TEXT
  7
TextStyle03
  8
文字
  6
CONTINUOUS
 10
-10.85
 20
-9.65
  1
アンカー数量　８ヶ所
 40
3.0
 72
     5
 11
22.525
 21
-9.65
  0
TEXT
  7
TextStyle03
  8
文字
  6
CONTINUOUS
 10
-109.15
 20
98.625
  1
アンカーピッチ
 40
3.0
 72
     5
 11
-85.9
 21
98.625
  0
TEXT
  7
TextStyle03
  8
文字
  6
CONTINUOUS
 10
-126.15
 20
-4.175
  1
アンカーピッチ
 40
3.0
 50
90.0
 72
     5
 11
-126.15
 21
19.075
  0
TEXT
  7
TextStyle03
  8
文字
  6
CONTINUOUS
 10
77.625
 20
93.35
  1
ＮＳコード：ＮＳ４ＧＫ
 40
5.0
 72
     5
 11
138.875
 21
93.35
  0
TEXT
  7
TextStyle03
  8
文字
  6
CONTINUOUS
 10
78.1
 20
116.375
  1
シリーズ：ＤＦ４Ｋ
 40
5.0
 72
     5
 11
128.1
 21
116.375
  0
TEXT
  7
TextStyle03
  8
文字
  6
CONTINUOUS
 10
78.1
 20
110.75
  1
　　　　　四角錘（固定）1300×1300タイプ
 40
5.0
 72
     5
 11
189.975
 21
110.75
  0
TEXT
  7
TextStyle03
  8
文字
  6
CONTINUOUS
 10
78.1
 20
105.125
  1
図面名　：外観姿図
 40
5.0
 72
     5
 11
128.1
 21
105.125
  0
TEXT
  7
TextStyle03
  8
文字
  6
CONTINUOUS
 10
78.1
 20
99.5
  1
　　　　　　
 40
5.0
 72
     5
 11
111.225
 21
99.5
  0
TEXT
  7
TextStyle03
  8
文字
  6
CONTINUOUS
 10
124.75
 20
-77.0
  1
×４枚
 40
3.0
 72
     5
 11
134.5
 21
-77.0
  0
TEXT
  7
TextStyle03
  8
文字
  6
CONTINUOUS
 10
84.475
 20
-27.275
  1
ガラス寸法
 40
3.0
 72
     5
 11
100.975
 21
-27.275
  0
INSERT
  2
*DIM_0002
  8
寸法
  6
CONTINUOUS
 10
0.0
 20
0.0
  0
INSERT
  2
*DIM_0003
  8
寸法
  6
CONTINUOUS
 10
0.0
 20
0.0
  0
INSERT
  2
*DIM_0004
  8
寸法
  6
CONTINUOUS
 10
0.0
 20
0.0
  0
INSERT
  2
*DIM_0005
  8
寸法
  6
CONTINUOUS
 10
0.0
 20
0.0
  0
INSERT
  2
*DIM_0006
  8
寸法
  6
CONTINUOUS
 10
0.0
 20
0.0
  0
INSERT
  2
*DIM_0007
  8
寸法
  6
CONTINUOUS
 10
0.0
 20
0.0
  0
INSERT
  2
*DIM_0008
  8
寸法
  6
CONTINUOUS
 10
0.0
 20
0.0
  0
INSERT
  2
*DIM_0009
  8
寸法
  6
CONTINUOUS
 10
0.0
 20
0.0
  0
INSERT
  2
*DIM_0010
  8
寸法
  6
CONTINUOUS
 10
0.0
 20
0.0
  0
INSERT
  2
*DIM_0011
  8
寸法
  6
CONTINUOUS
 10
0.0
 20
0.0
  0
INSERT
  2
*DIM_0012
  8
寸法
  6
CONTINUOUS
 10
0.0
 20
0.0
  0
INSERT
  2
*DIM_0013
  8
寸法
  6
CONTINUOUS
 10
0.0
 20
0.0
  0
ENDSEC
  0
EOF
