  0
SECTION
  2
HEADER
  9
$EXTMIN
 10
-210.0
 20
-148.5
  9
$EXTMAX
 10
210.0
 20
148.5
  9
$PDMODE
 70
    32
  9
$PDSIZE
 40
1.5
  9
$LTSCALE
 40
10.0
  0
ENDSEC
  0
SECTION
  2
TABLES
  0
TABLE
  2
LTYPE
 70
    15
  0
LTYPE
  2
CONTINUOUS
 70
    64
  3
実線
 72
    65
 73
     0
 40
0.0
  0
LTYPE
  2
DASHED
 70
    64
  3
破線A
 72
    65
 73
     2
 40
0.6
 49
0.4
 49
-0.2
  0
LTYPE
  2
DASHEDX2
 70
    64
  3
破線B
 72
    65
 73
     2
 40
1.3
 49
0.9
 49
-0.4
  0
LTYPE
  2
DASHDOT
 70
    64
  3
１点鎖線A
 72
    65
 73
     4
 40
0.5375
 49
0.375
 49
-0.05
 49
0.0625
 49
-0.05
  0
LTYPE
  2
DASHDOTX2
 70
    64
  3
１点鎖線B
 72
    65
 73
     4
 40
1.075
 49
0.75
 49
-0.1
 49
0.125
 49
-0.1
  0
LTYPE
  2
DIVIDE2
 70
    64
  3
２点鎖線A
 72
    65
 73
     6
 40
0.5125
 49
0.3
 49
-0.0375
 49
0.05
 49
-0.0375
 49
0.05
 49
-0.0375
  0
LTYPE
  2
DIVIDE
 70
    64
  3
２点鎖線B
 72
    65
 73
     6
 40
1.05
 49
0.55
 49
-0.1
 49
0.1
 49
-0.1
 49
0.1
 49
-0.1
  0
LTYPE
  2
DOT
 70
    64
  3
点線A
 72
    65
 73
     2
 40
0.1125
 49
0.0625
 49
-0.05
  0
LTYPE
  2
DOTX2
 70
    64
  3
点線B
 72
    65
 73
     2
 40
0.275
 49
0.15
 49
-0.125
  0
LTYPE
  2
CONTINUOUS
 70
    64
  3
実線
 72
    65
 73
     0
 40
0.0
  0
LTYPE
  2
CONTINUOUS
 70
    64
  3
実線
 72
    65
 73
     0
 40
0.0
  0
LTYPE
  2
CONTINUOUS
 70
    64
  3
実線
 72
    65
 73
     0
 40
0.0
  0
LTYPE
  2
CONTINUOUS
 70
    64
  3
実線
 72
    65
 73
     0
 40
0.0
  0
LTYPE
  2
CONTINUOUS
 70
    64
  3
実線
 72
    65
 73
     0
 40
0.0
  0
LTYPE
  2
CONTINUOUS
 70
    64
  3
実線
 72
    65
 73
     0
 40
0.0
  0
ENDTAB
  0
TABLE
  2
LAYER
 70
    34
  0
LAYER
  2
通り芯
 70
     0
 62
    15
  6
CONTINUOUS
  0
LAYER
  2
補助線
 70
     0
 62
    16
  6
DOT
  0
LAYER
  2
躯体
 70
     0
 62
    31
  6
CONTINUOUS
  0
LAYER
  2
型材
 70
     0
 62
    32
  6
CONTINUOUS
  0
LAYER
  2
型材断面
 70
     0
 62
    47
  6
CONTINUOUS
  0
LAYER
  2
ガラス
 70
     0
 62
    48
  6
CONTINUOUS
  0
LAYER
  2
ゴム等
 70
     0
 62
    63
  6
CONTINUOUS
  0
LAYER
  2
ボルト／ビス
 70
     0
 62
    64
  6
CONTINUOUS
  0
LAYER
  2
文字
 70
     0
 62
    79
  6
CONTINUOUS
  0
LAYER
  2
寸法
 70
     0
 62
    80
  6
CONTINUOUS
  0
LAYER
  2
ﾊｯﾁﾝｸﾞ
 70
     0
 62
    95
  6
CONTINUOUS
  0
LAYER
  2
別途部材
 70
     0
 62
    96
  6
CONTINUOUS
  0
LAYER
  2
曲げ物
 70
     0
 62
   111
  6
CONTINUOUS
  0
LAYER
  2
鉄骨等
 70
     0
 62
   112
  6
CONTINUOUS
  0
LAYER
  2
St
 70
     0
 62
   127
  6
CONTINUOUS
  0
LAYER
  2
その他部品等
 70
     0
 62
   128
  6
CONTINUOUS
  0
LAYER
  2
ｶﾞｽｹｯﾄ
 70
     0
 62
   143
  6
CONTINUOUS
  0
LAYER
  2
ｽｹｯﾁ
 70
     0
 62
    14
  6
CONTINUOUS
  0
LAYER
  2
0
 70
     0
 62
    17
  6
CONTINUOUS
  0
LAYER
  2
1
 70
     0
 62
    30
  6
CONTINUOUS
  0
LAYER
  2
4
 70
     0
 62
    33
  6
CONTINUOUS
  0
LAYER
  2
ﾚｲﾔ3
 70
     0
 62
    46
  6
CONTINUOUS
  0
LAYER
  2
外形線
 70
     0
 62
    49
  6
CONTINUOUS
  0
LAYER
  2
部品
 70
     0
 62
    14
  6
CONTINUOUS
  0
LAYER
  2
サッシ芯
 70
     0
 62
    17
  6
DASHDOTX2
  0
LAYER
  2
寸法線
 70
     0
 62
    62
  6
CONTINUOUS
  0
LAYER
  2
姿図外形線
 70
     0
 62
    65
  6
CONTINUOUS
  0
LAYER
  2
姿補助線
 70
     0
 62
    30
  6
CONTINUOUS
  0
LAYER
  2
透視線
 70
     0
 62
    78
  6
DOT
  0
LAYER
  2
用紙
 70
     0
 62
    81
  6
CONTINUOUS
  0
LAYER
  2
実線図枠
 70
     0
 62
    94
  6
CONTINUOUS
  0
LAYER
  2
補助図枠
 70
     0
 62
    97
  6
CONTINUOUS
  0
LAYER
  2
建具記号
 70
     0
 62
   110
  6
CONTINUOUS
  0
LAYER
  2
補助文字
 70
     0
 62
   113
  6
CONTINUOUS
  0
ENDTAB
  0
TABLE
  2
STYLE
 70
    10
  0
STYLE
  2
STANDARD
 70
     0
 40
1.0
 41
1.0
 42
1.0
 50
0.0
 71
     0
  3
TXT
  4
BIGFONT
  0
STYLE
  2
TATE
 70
     4
 40
1.0
 41
1.0
 42
1.0
 50
0.0
 71
     0
  3
TXT
  4
BIGFONT
  0
STYLE
  2
TextStyle03
 70
     0
 40
1.0
 41
1.0
 42
1.0
 50
0.0
 71
     0
  3
MONOTXT
  4
BIGFONT
  0
STYLE
  2
TextStyle04
 70
     0
 40
1.0
 41
1.0
 42
1.0
 50
0.0
 71
     0
  3
MONOTXT
  4
BIGFONT
  0
STYLE
  2
TextStyle05
 70
     0
 40
1.0
 41
1.0
 42
1.0
 50
0.0
 71
     0
  3
MONOTXT
  4
BIGFONT
  0
STYLE
  2
TextStyle06
 70
     0
 40
1.0
 41
1.0
 42
1.0
 50
0.0
 71
     0
  3
MONOTXT
  4
BIGFONT
  0
STYLE
  2
TextStyle07
 70
     0
 40
1.0
 41
1.0
 42
1.0
 50
0.0
 71
     0
  3
MONOTXT
  4
BIGFONT
  0
STYLE
  2
TextStyle08
 70
     0
 40
1.0
 41
1.0
 42
1.0
 50
0.0
 71
     0
  3
MONOTXT
  4
BIGFONT
  0
STYLE
  2
TextStyle09
 70
     0
 40
1.0
 41
1.0
 42
1.0
 50
0.0
 71
     0
  3
MONOTXT
  4
BIGFONT
  0
STYLE
  2
TextStyle10
 70
     0
 40
1.0
 41
1.0
 42
1.0
 50
0.0
 71
     0
  3
MONOTXT
  4
BIGFONT
  0
ENDTAB
  0
ENDSEC
  0
SECTION
  2
BLOCKS
  0
BLOCK
  2
*GRP_0001
 70
    65
 10
0.0
 20
0.0
  0
LINE
  8
型材断面
  6
CONTINUOUS
 10
195.0
 20
133.5
 11
195.0
 21
-133.5
  0
LINE
  8
型材断面
  6
CONTINUOUS
 10
195.0
 20
-133.5
 11
-185.0
 21
-133.5
  0
LINE
  8
型材断面
  6
CONTINUOUS
 10
-185.0
 20
-133.5
 11
-185.0
 21
133.5
  0
LINE
  8
型材断面
  6
CONTINUOUS
 10
195.0
 20
133.5
 11
-185.0
 21
133.5
  0
LINE
  8
型材断面
  6
CONTINUOUS
 10
145.0
 20
-133.5
 11
145.0
 21
-118.5
  0
LINE
  8
型材断面
  6
CONTINUOUS
 10
195.0
 20
-118.5
 11
145.0
 21
-118.5
  0
ENDBLK
  0
BLOCK
  2
*DIM_0002
 70
    65
 10
0.0
 20
0.0
  0
LINE
  8
寸法
  6
BYBLOCK
 62
     0
 10
-94.6517
 20
-33.806682
 11
-94.6517
 21
-33.377287
  0
LINE
  8
寸法
  6
BYBLOCK
 62
     0
 10
-29.6517
 20
-33.806682
 11
-29.6517
 21
-33.377287
  0
LINE
  8
寸法
  6
BYBLOCK
 62
     0
 10
-94.6517
 20
-33.377287
 11
-29.6517
 21
-33.377287
  0
POINT
  8
寸法
 62
     0
 10
-94.6517
 20
-33.377287
  0
POINT
  8
寸法
 62
     0
 10
-29.6517
 20
-33.377287
  0
TEXT
  7
TextStyle03
  8
寸法
  6
CONTINUOUS
 62
     0
 10
-73.89375
 20
-33.0
  1
呼称寸法　1300
 40
3.0
 72
     5
 11
-50.45625
 21
-33.0
  0
ENDBLK
  0
BLOCK
  2
*DIM_0003
 70
    65
 10
0.0
 20
0.0
  0
LINE
  8
寸法
  6
BYBLOCK
 62
     0
 10
-64.6517
 20
-49.301397
 11
-64.6517
 21
-42.688047
  0
LINE
  8
寸法
  6
BYBLOCK
 62
     0
 10
-59.6517
 20
-49.301397
 11
-59.6517
 21
-42.688047
  0
LINE
  8
寸法
  6
BYBLOCK
 62
     0
 10
-64.6517
 20
-42.688047
 11
-59.6517
 21
-42.688047
  0
POINT
  8
寸法
 62
     0
 10
-64.6517
 20
-42.688047
  0
POINT
  8
寸法
 62
     0
 10
-59.6517
 20
-42.688047
  0
TEXT
  7
TextStyle03
  8
寸法
  6
CONTINUOUS
 62
     0
 10
-64.6125
 20
-42.325
  1
100
 40
3.0
 72
     5
 11
-59.7375
 21
-42.325
  0
ENDBLK
  0
BLOCK
  2
*DIM_0004
 70
    65
 10
0.0
 20
0.0
  0
LINE
  8
寸法
  6
BYBLOCK
 62
     0
 10
-64.6517
 20
42.716025
 11
-64.6517
 21
50.38843
  0
LINE
  8
寸法
  6
BYBLOCK
 62
     0
 10
-59.6517
 20
42.716025
 11
-59.6517
 21
50.38843
  0
LINE
  8
寸法
  6
BYBLOCK
 62
     0
 10
-64.6517
 20
50.38843
 11
-59.6517
 21
50.38843
  0
POINT
  8
寸法
 62
     0
 10
-64.6517
 20
50.38843
  0
POINT
  8
寸法
 62
     0
 10
-59.6517
 20
50.38843
  0
TEXT
  7
TextStyle03
  8
寸法
  6
CONTINUOUS
 62
     0
 10
-64.6125
 20
50.75
  1
100
 40
3.0
 72
     5
 11
-59.7375
 21
50.75
  0
ENDBLK
  0
BLOCK
  2
*DIM_0005
 70
    65
 10
0.0
 20
0.0
  0
LINE
  8
寸法
  6
BYBLOCK
 62
     0
 10
-52.174633
 20
-48.226433
 11
-51.45324
 21
-48.226433
  0
LINE
  8
寸法
  6
BYBLOCK
 62
     0
 10
-58.6517
 20
-50.726397
 11
-51.45324
 21
-50.726397
  0
LINE
  8
寸法
  6
BYBLOCK
 62
     0
 10
-51.45324
 20
-48.226433
 11
-51.45324
 21
-50.726397
  0
POINT
  8
寸法
 62
     0
 10
-51.45324
 20
-48.226433
  0
POINT
  8
寸法
 62
     0
 10
-51.45324
 20
-50.726397
  0
TEXT
  7
TextStyle03
  8
寸法
  6
CONTINUOUS
 62
     0
 10
-48.475
 20
-51.06875
  1
50
 40
3.0
 50
90.0
 72
     5
 11
-48.475
 21
-47.88125
  0
ENDBLK
  0
BLOCK
  2
*DIM_0006
 70
    65
 10
0.0
 20
0.0
  0
LINE
  8
寸法
  6
BYBLOCK
 62
     0
 10
-23.7767
 20
-85.813382
 11
-23.7767
 21
-33.377287
  0
LINE
  8
寸法
  6
BYBLOCK
 62
     0
 10
-29.6517
 20
-33.377287
 11
-23.7767
 21
-33.377287
  0
POINT
  8
寸法
 62
     0
 10
-29.6517
 20
-33.377287
  0
POINT
  8
寸法
 62
     0
 10
-23.7767
 20
-33.377287
  0
TEXT
  7
TextStyle03
  8
寸法
  6
CONTINUOUS
 62
     0
 10
-22.425
 20
-33.025
  1
117.5
 40
3.0
 72
     5
 11
-14.175
 21
-33.025
  0
ENDBLK
  0
BLOCK
  2
*DIM_0007
 70
    65
 10
0.0
 20
0.0
  0
LINE
  8
寸法
  6
BYBLOCK
 62
     0
 10
-100.5267
 20
-85.813382
 11
-100.5267
 21
-33.377287
  0
LINE
  8
寸法
  6
BYBLOCK
 62
     0
 10
-94.6517
 20
-33.377287
 11
-100.5267
 21
-33.377287
  0
POINT
  8
寸法
 62
     0
 10
-94.6517
 20
-33.377287
  0
POINT
  8
寸法
 62
     0
 10
-100.5267
 20
-33.377287
  0
TEXT
  7
TextStyle03
  8
寸法
  6
CONTINUOUS
 62
     0
 10
-110.15
 20
-33.025
  1
117.5
 40
3.0
 72
     5
 11
-101.9
 21
-33.025
  0
ENDBLK
  0
BLOCK
  2
*DIM_0008
 70
    65
 10
0.0
 20
0.0
  0
LINE
  8
寸法
  6
BYBLOCK
 62
     0
 10
-22.7767
 20
-90.01338
 11
-5.61829
 21
-90.01338
  0
LINE
  8
寸法
  6
BYBLOCK
 62
     0
 10
-22.7767
 20
-86.813382
 11
-5.61829
 21
-86.813382
  0
LINE
  8
寸法
  6
BYBLOCK
 62
     0
 10
-5.61829
 20
-90.01338
 11
-5.61829
 21
-86.813382
  0
POINT
  8
寸法
 62
     0
 10
-5.61829
 20
-90.01338
  0
POINT
  8
寸法
 62
     0
 10
-5.61829
 20
-86.813382
  0
TEXT
  7
TextStyle03
  8
寸法
  6
CONTINUOUS
 62
     0
 10
-2.625
 20
-90.01875
  1
64
 40
3.0
 50
90.0
 72
     5
 11
-2.625
 21
-86.83125
  0
ENDBLK
  0
BLOCK
  2
*DIM_0009
 70
    65
 10
0.0
 20
0.0
  0
LINE
  8
寸法
  6
BYBLOCK
 62
     0
 10
-61.1517
 20
-48.226433
 11
-5.61829
 21
-48.226433
  0
LINE
  8
寸法
  6
BYBLOCK
 62
     0
 10
-5.61829
 20
-86.813382
 11
-5.61829
 21
-48.226433
  0
POINT
  8
寸法
 62
     0
 10
-5.61829
 20
-48.226433
  0
TEXT
  7
TextStyle03
  8
寸法
  6
CONTINUOUS
 62
     0
 10
-6.0
 20
-71.65
  1
771.7
 40
3.0
 50
90.0
 72
     5
 11
-6.0
 21
-63.4
  0
ENDBLK
  0
BLOCK
  2
*DIM_0010
 70
    65
 10
0.0
 20
0.0
  0
LINE
  8
寸法
  6
BYBLOCK
 62
     0
 10
-79.6517
 20
94.584462
 11
-79.6517
 21
104.94
  0
LINE
  8
寸法
  6
BYBLOCK
 62
     0
 10
-44.6517
 20
94.584462
 11
-44.6517
 21
104.94
  0
LINE
  8
寸法
  6
BYBLOCK
 62
     0
 10
-79.6517
 20
104.94
 11
-44.6517
 21
104.94
  0
POINT
  8
寸法
 62
     0
 10
-79.6517
 20
104.94
  0
POINT
  8
寸法
 62
     0
 10
-44.6517
 20
104.94
  0
TEXT
  7
TextStyle03
  8
寸法
  6
CONTINUOUS
 62
     0
 10
-64.6125
 20
105.3
  1
700
 40
3.0
 72
     5
 11
-59.7375
 21
105.3
  0
ENDBLK
  0
BLOCK
  2
*DIM_0011
 70
    65
 10
0.0
 20
0.0
  0
LINE
  8
寸法
  6
BYBLOCK
 62
     0
 10
-122.800135
 20
56.71603
 11
-133.155673
 21
56.71603
  0
LINE
  8
寸法
  6
BYBLOCK
 62
     0
 10
-122.800137
 20
21.71603
 11
-133.155675
 21
21.71603
  0
LINE
  8
寸法
  6
BYBLOCK
 62
     0
 10
-133.155673
 20
56.71603
 11
-133.155675
 21
21.71603
  0
POINT
  8
寸法
 62
     0
 10
-133.155673
 20
56.71603
  0
POINT
  8
寸法
 62
     0
 10
-133.155675
 20
21.71603
  0
TEXT
  7
TextStyle03
  8
寸法
  6
CONTINUOUS
 62
     0
 10
-133.55
 20
36.7625
  1
700
 40
3.0
 50
90.0
 72
     5
 11
-133.55
 21
41.6375
  0
ENDBLK
  0
BLOCK
  2
*DIM_0012
 70
    65
 10
0.0
 20
0.0
  0
LINE
  8
寸法
  6
BYBLOCK
 62
     0
 10
91.444595
 20
-84.42424
 11
91.444595
 21
-97.982905
  0
LINE
  8
寸法
  6
BYBLOCK
 62
     0
 10
158.939595
 20
-84.42424
 11
158.939595
 21
-97.982905
  0
LINE
  8
寸法
  6
BYBLOCK
 62
     0
 10
91.444595
 20
-97.982905
 11
158.939595
 21
-97.982905
  0
POINT
  8
寸法
 62
     0
 10
91.444595
 20
-97.982905
  0
POINT
  8
寸法
 62
     0
 10
158.939595
 20
-97.982905
  0
TEXT
  7
TextStyle03
  8
寸法
  6
CONTINUOUS
 62
     0
 10
120.20625
 20
-97.625
  1
1349.9
 40
3.0
 72
     5
 11
130.14375
 21
-97.625
  0
ENDBLK
  0
BLOCK
  2
*DIM_0013
 70
    65
 10
0.0
 20
0.0
  0
LINE
  8
寸法
  6
BYBLOCK
 62
     0
 10
161.939595
 20
-81.42424
 11
173.413532
 21
-81.42424
  0
LINE
  8
寸法
  6
BYBLOCK
 62
     0
 10
128.192095
 20
-33.69827
 11
173.413532
 21
-33.69827
  0
LINE
  8
寸法
  6
BYBLOCK
 62
     0
 10
173.413532
 20
-81.42424
 11
173.413532
 21
-33.69827
  0
POINT
  8
寸法
 62
     0
 10
173.413532
 20
-81.42424
  0
POINT
  8
寸法
 62
     0
 10
173.413532
 20
-33.69827
  0
TEXT
  7
TextStyle03
  8
寸法
  6
CONTINUOUS
 62
     0
 10
173.025
 20
-61.7
  1
954.5
 40
3.0
 50
90.0
 72
     5
 11
173.025
 21
-53.45
  0
ENDBLK
  0
ENDSEC
  0
SECTION
  2
ENTITIES
  0
POLYLINE
  8
通り芯
  6
CONTINUOUS
 66
     1
 70
     1
  0
VERTEX
  8
通り芯
 10
-210.0
 20
-148.5
  0
VERTEX
  8
通り芯
 10
210.0
 20
-148.5
  0
VERTEX
  8
通り芯
 10
210.0
 20
148.5
  0
VERTEX
  8
通り芯
 10
-210.0
 20
148.5
  0
SEQEND
  0
LINE
  8
型材断面
  6
CONTINUOUS
 10
-59.842288
 20
41.52544
 11
-62.1517
 21
39.216028
  0
LINE
  8
型材断面
  6
DASHDOT
 10
-94.6517
 20
39.216028
 11
-29.6517
 21
39.216028
  0
LINE
  8
型材断面
  6
DASHDOT
 10
-29.6517
 20
6.716028
 11
-94.6517
 21
6.716028
  0
LINE
  8
型材断面
  6
DASHDOT
 10
-29.6517
 20
71.71603
 11
-94.6517
 21
71.71603
  0
INSERT
  2
*GRP_0001
  8
型材断面
  6
CONTINUOUS
 10
0.0
 20
0.0
  0
LINE
  8
型材断面
  6
CONTINUOUS
 10
-63.55738
 20
39.216028
 11
-64.6517
 21
38.12171
  0
LINE
  8
型材断面
  6
CONTINUOUS
 10
-64.6517
 20
38.12171
 11
-64.6517
 21
36.71603
  0
LINE
  8
型材断面
  6
CONTINUOUS
 10
-63.24602
 20
36.716028
 11
-64.6517
 21
36.71603
  0
LINE
  8
型材断面
  6
CONTINUOUS
 10
-62.1517
 20
37.810347
 11
-63.246022
 21
36.716028
  0
LINE
  8
型材断面
  6
CONTINUOUS
 10
-59.842288
 20
41.525438
 11
-62.1517
 21
39.216028
  0
LINE
  8
型材断面
  6
CONTINUOUS
 10
-60.74602
 20
39.216028
 11
-59.6517
 21
40.310345
  0
LINE
  8
型材断面
  6
CONTINUOUS
 10
-59.6517
 20
40.310345
 11
-59.6517
 21
41.716025
  0
LINE
  8
型材断面
  6
CONTINUOUS
 10
-61.05738
 20
41.716028
 11
-59.6517
 21
41.716025
  0
LINE
  8
型材断面
  6
CONTINUOUS
 10
-62.1517
 20
40.621708
 11
-61.057377
 21
41.716028
  0
LINE
  8
型材断面
  6
CONTINUOUS
 10
-63.55738
 20
39.216028
 11
-64.6517
 21
40.310345
  0
LINE
  8
型材断面
  6
CONTINUOUS
 10
-64.6517
 20
40.310345
 11
-64.6517
 21
41.716025
  0
LINE
  8
型材断面
  6
CONTINUOUS
 10
-63.24602
 20
41.716028
 11
-64.6517
 21
41.716025
  0
LINE
  8
型材断面
  6
CONTINUOUS
 10
-62.1517
 20
40.621708
 11
-63.246022
 21
41.716028
  0
LINE
  8
型材断面
  6
CONTINUOUS
 10
-62.1517
 20
39.216028
 11
-64.6517
 21
41.716025
  0
LINE
  8
型材断面
  6
CONTINUOUS
 10
-62.1517
 20
39.216028
 11
-64.6517
 21
36.71603
  0
LINE
  8
型材断面
  6
CONTINUOUS
 10
-60.74602
 20
39.216028
 11
-59.6517
 21
38.12171
  0
LINE
  8
型材断面
  6
CONTINUOUS
 10
-59.6517
 20
38.12171
 11
-59.6517
 21
36.71603
  0
LINE
  8
型材断面
  6
CONTINUOUS
 10
-61.05738
 20
36.716028
 11
-59.6517
 21
36.71603
  0
LINE
  8
型材断面
  6
CONTINUOUS
 10
-62.1517
 20
37.810347
 11
-61.057377
 21
36.716028
  0
LINE
  8
型材断面
  6
CONTINUOUS
 10
-62.1517
 20
39.216028
 11
-59.6517
 21
36.71603
  0
LINE
  8
型材断面
  6
DASHDOT
 10
-94.6517
 20
71.71603
 11
-94.6517
 21
-96.799225
  0
LINE
  8
型材断面
  6
DASHDOT
 10
-62.1517
 20
71.71603
 11
-62.1517
 21
-96.799225
  0
LINE
  8
型材断面
  6
DASHDOT
 10
-29.6517
 20
72.141022
 11
-29.6517
 21
-96.799225
  0
LINE
  8
型材断面
  6
CONTINUOUS
 10
-21.627825
 20
39.216028
 11
-17.742065
 21
36.972582
  0
LINE
  8
型材断面
  6
CONTINUOUS
 10
-21.627825
 20
39.216028
 11
-17.742065
 21
41.459473
  0
LINE
  8
型材断面
  6
CONTINUOUS
 10
-17.742065
 20
41.459473
 11
-17.742065
 21
36.972582
  0
LINE
  8
型材断面
  6
CONTINUOUS
 10
-62.1517
 20
79.739903
 11
-64.395145
 21
83.625663
  0
LINE
  8
型材断面
  6
CONTINUOUS
 10
-62.1517
 20
79.739903
 11
-59.908255
 21
83.625663
  0
LINE
  8
型材断面
  6
CONTINUOUS
 10
-59.908255
 20
83.625663
 11
-64.395145
 21
83.625663
  0
LINE
  8
型材断面
  6
CONTINUOUS
 10
-62.1517
 20
-1.307848
 11
-64.395145
 21
-5.193607
  0
LINE
  8
型材断面
  6
CONTINUOUS
 10
-62.1517
 20
-1.307848
 11
-59.908255
 21
-5.193607
  0
LINE
  8
型材断面
  6
CONTINUOUS
 10
-59.908255
 20
-5.193607
 11
-64.395145
 21
-5.193607
  0
LINE
  8
型材断面
  6
CONTINUOUS
 10
-102.675575
 20
39.216028
 11
-106.561335
 21
36.972582
  0
LINE
  8
型材断面
  6
CONTINUOUS
 10
-102.675575
 20
39.216028
 11
-106.561335
 21
41.459473
  0
LINE
  8
型材断面
  6
CONTINUOUS
 10
-106.561335
 20
41.459473
 11
-106.561335
 21
36.972582
  0
LINE
  8
型材断面
  6
CONTINUOUS
 10
-9.511597
 20
0.93023
 11
-11.755043
 21
-2.95553
  0
LINE
  8
型材断面
  6
CONTINUOUS
 10
-9.511597
 20
0.93023
 11
-7.268152
 21
-2.95553
  0
LINE
  8
型材断面
  6
CONTINUOUS
 10
-7.268152
 20
-2.95553
 11
-11.755043
 21
-2.95553
  0
LINE
  8
型材断面
  6
CONTINUOUS
 10
-18.545478
 20
-4.363422
 11
34.111203
 21
-4.363422
  0
LINE
  8
型材断面
  6
CONTINUOUS
 10
-18.545478
 20
-11.036203
 11
34.111203
 21
-11.036203
  0
LINE
  8
型材断面
  6
CONTINUOUS
 10
-23.7767
 20
-86.813382
 11
-23.688403
 21
-86.725085
  0
LINE
  8
型材断面
  6
CONTINUOUS
 62
    47
 10
-23.7767
 20
-86.813382
 11
-23.7767
 21
-90.01338
  0
LINE
  8
型材断面
  6
CONTINUOUS
 62
    47
 10
-62.1517
 20
-90.01338
 11
-23.7767
 21
-90.01338
  0
LINE
  8
型材断面
  6
CONTINUOUS
 62
    47
 10
-24.626703
 20
-90.01338
 11
-24.626703
 21
-90.788382
  0
LINE
  8
型材断面
  6
CONTINUOUS
 62
    47
 10
-62.1517
 20
-90.788382
 11
-24.626703
 21
-90.788382
  0
LINE
  8
型材断面
  6
CONTINUOUS
 10
-62.1517
 20
-86.813382
 11
-23.7767
 21
-86.813382
  0
LINE
  8
型材断面
  6
CONTINUOUS
 10
-62.1517
 20
-48.226433
 11
-62.1517
 21
-49.527315
  0
LINE
  8
型材断面
  6
CONTINUOUS
 10
-62.1517
 20
-48.226433
 11
-62.1517
 21
-49.527315
  0
LINE
  8
型材断面
  6
CONTINUOUS
 10
-62.1517
 20
-48.226433
 11
-62.1517
 21
-49.527315
  0
LINE
  8
型材断面
  6
CONTINUOUS
 10
-62.1517
 20
-48.226433
 11
-62.1517
 21
-49.527315
  0
LINE
  8
型材断面
  6
CONTINUOUS
 10
-62.1517
 20
-48.226397
 11
-64.6517
 21
-50.726397
  0
LINE
  8
型材断面
  6
CONTINUOUS
 10
-62.1517
 20
-49.63208
 11
-63.24602
 21
-50.726397
  0
LINE
  8
型材断面
  6
CONTINUOUS
 10
-64.6517
 20
-50.726397
 11
-63.24602
 21
-50.726397
  0
LINE
  8
型材断面
  6
CONTINUOUS
 10
-59.6517
 20
-50.726397
 11
-61.05738
 21
-50.726397
  0
LINE
  8
型材断面
  6
CONTINUOUS
 10
-62.1517
 20
-49.63208
 11
-61.05738
 21
-50.726397
  0
LINE
  8
型材断面
  6
CONTINUOUS
 10
-62.1517
 20
-48.226397
 11
-59.6517
 21
-50.726397
  0
LINE
  8
型材断面
  6
CONTINUOUS
 10
-23.688403
 20
-86.725085
 11
-59.687087
 21
-50.726397
  0
LINE
  8
型材断面
  6
CONTINUOUS
 10
-24.865635
 20
-86.813382
 11
-60.952615
 21
-50.726397
  0
LINE
  8
型材断面
  6
CONTINUOUS
 10
-100.5267
 20
-86.813382
 11
-100.614998
 21
-86.725085
  0
LINE
  8
型材断面
  6
CONTINUOUS
 62
    47
 10
-100.5267
 20
-86.813382
 11
-100.5267
 21
-90.01338
  0
LINE
  8
型材断面
  6
CONTINUOUS
 62
    47
 10
-62.1517
 20
-90.01338
 11
-100.5267
 21
-90.01338
  0
LINE
  8
型材断面
  6
CONTINUOUS
 62
    47
 10
-99.676697
 20
-90.01338
 11
-99.676697
 21
-90.788382
  0
LINE
  8
型材断面
  6
CONTINUOUS
 62
    47
 10
-62.1517
 20
-90.788382
 11
-99.676697
 21
-90.788382
  0
LINE
  8
型材断面
  6
CONTINUOUS
 10
-62.1517
 20
-86.813382
 11
-100.5267
 21
-86.813382
  0
LINE
  8
型材断面
  6
CONTINUOUS
 10
-100.614998
 20
-86.725085
 11
-64.616313
 21
-50.726397
  0
LINE
  8
型材断面
  6
CONTINUOUS
 10
-99.437765
 20
-86.813382
 11
-63.350785
 21
-50.726397
  0
LINE
  8
型材断面
  6
CONTINUOUS
 10
-23.7767
 20
0.841028
 11
-23.7767
 21
39.641028
  0
LINE
  8
型材断面
  6
CONTINUOUS
 10
-23.7767
 20
0.841028
 11
-62.5767
 21
0.841028
  0
LINE
  8
型材断面
  6
CONTINUOUS
 10
-59.6517
 20
37.902465
 11
-23.7767
 21
2.027468
  0
LINE
  8
型材断面
  6
CONTINUOUS
 10
-60.838135
 20
36.716028
 11
-24.96314
 21
0.841028
  0
LINE
  8
型材断面
  6
CONTINUOUS
 10
-59.6517
 20
36.71603
 11
-23.7767
 21
0.841028
  0
LINE
  8
型材断面
  6
CONTINUOUS
 10
-23.7767
 20
77.591028
 11
-23.7767
 21
38.791028
  0
LINE
  8
型材断面
  6
CONTINUOUS
 10
-23.7767
 20
77.591028
 11
-62.5767
 21
77.591028
  0
LINE
  8
型材断面
  6
CONTINUOUS
 10
-59.6517
 20
40.52959
 11
-23.7767
 21
76.404587
  0
LINE
  8
型材断面
  6
CONTINUOUS
 10
-60.838135
 20
41.716028
 11
-24.96314
 21
77.591028
  0
LINE
  8
型材断面
  6
CONTINUOUS
 10
-59.6517
 20
41.716025
 11
-23.7767
 21
77.591028
  0
LINE
  8
型材断面
  6
CONTINUOUS
 10
-100.5267
 20
77.591028
 11
-100.5267
 21
38.791028
  0
LINE
  8
型材断面
  6
CONTINUOUS
 10
-100.5267
 20
77.591028
 11
-61.7267
 21
77.591028
  0
LINE
  8
型材断面
  6
CONTINUOUS
 10
-64.6517
 20
40.52959
 11
-100.5267
 21
76.404587
  0
LINE
  8
型材断面
  6
CONTINUOUS
 10
-63.465265
 20
41.716028
 11
-99.34026
 21
77.591028
  0
LINE
  8
型材断面
  6
CONTINUOUS
 10
-64.6517
 20
41.716025
 11
-100.5267
 21
77.591028
  0
LINE
  8
型材断面
  6
CONTINUOUS
 10
-100.5267
 20
0.841028
 11
-100.5267
 21
39.641028
  0
LINE
  8
型材断面
  6
CONTINUOUS
 10
-100.5267
 20
0.841028
 11
-61.7267
 21
0.841028
  0
LINE
  8
型材断面
  6
CONTINUOUS
 10
-64.6517
 20
37.902465
 11
-100.5267
 21
2.027468
  0
LINE
  8
型材断面
  6
CONTINUOUS
 10
-63.465265
 20
36.716028
 11
-99.34026
 21
0.841028
  0
LINE
  8
型材断面
  6
CONTINUOUS
 10
-64.6517
 20
36.71603
 11
-100.5267
 21
0.841028
  0
LINE
  8
型材断面
  6
CONTINUOUS
 10
93.044505
 20
-29.83484
 11
116.976128
 21
-29.83484
  0
LINE
  8
ガラス
  6
CONTINUOUS
 10
-60.338475
 20
64.175742
 11
-64.21111
 21
60.303108
  0
LINE
  8
ガラス
  6
CONTINUOUS
 10
-61.218797
 20
62.577385
 11
-62.612752
 21
61.18343
  0
LINE
  8
ガラス
  6
CONTINUOUS
 10
-61.936833
 20
63.29542
 11
-63.330788
 21
61.901465
  0
LINE
  8
ガラス
  6
CONTINUOUS
 10
-60.338475
 20
20.428475
 11
-64.21111
 21
16.55584
  0
LINE
  8
ガラス
  6
CONTINUOUS
 10
-61.218797
 20
18.830118
 11
-62.612752
 21
17.436162
  0
LINE
  8
ガラス
  6
CONTINUOUS
 10
-61.936833
 20
19.548152
 11
-63.330788
 21
18.154198
  0
LINE
  8
ガラス
  6
CONTINUOUS
 10
-40.187438
 20
41.10373
 11
-44.060073
 21
37.231095
  0
LINE
  8
ガラス
  6
CONTINUOUS
 10
-41.06776
 20
39.505372
 11
-42.461715
 21
38.111418
  0
LINE
  8
ガラス
  6
CONTINUOUS
 10
-41.785795
 20
40.223408
 11
-43.17975
 21
38.829452
  0
LINE
  8
ガラス
  6
CONTINUOUS
 10
-80.04576
 20
41.10373
 11
-83.918395
 21
37.231095
  0
LINE
  8
ガラス
  6
CONTINUOUS
 10
-80.926083
 20
39.505372
 11
-82.320038
 21
38.111418
  0
LINE
  8
ガラス
  6
CONTINUOUS
 10
-81.644117
 20
40.223408
 11
-83.038072
 21
38.829452
  0
LINE
  8
ガラス
  6
CONTINUOUS
 10
-60.338475
 20
-70.46891
 11
-64.21111
 21
-74.341545
  0
LINE
  8
ガラス
  6
CONTINUOUS
 10
-61.218797
 20
-72.067267
 11
-62.612752
 21
-73.461222
  0
LINE
  8
ガラス
  6
CONTINUOUS
 10
-61.936833
 20
-71.349233
 11
-63.330788
 21
-72.743188
  0
LINE
  8
ゴム等
  6
CONTINUOUS
 10
-62.1517
 20
-49.102315
 11
-62.1517
 21
-52.47692
  0
LINE
  8
ゴム等
  6
CONTINUOUS
 10
-62.1517
 20
-49.102315
 11
-62.1517
 21
-52.47692
  0
LINE
  8
ゴム等
  6
CONTINUOUS
 10
-62.1517
 20
-49.102315
 11
-62.1517
 21
-52.47692
  0
LINE
  8
ゴム等
  6
CONTINUOUS
 10
-62.1517
 20
-49.102315
 11
-62.1517
 21
-52.47692
  0
LINE
  8
ゴム等
  6
CONTINUOUS
 10
-29.9
 20
-85.153625
 11
-27.939253
 21
-85.65747
  0
LINE
  8
ゴム等
  6
CONTINUOUS
 10
-27.939253
 20
-85.65747
 11
-27.580477
 21
-85.73505
  0
LINE
  8
ゴム等
  6
CONTINUOUS
 10
-27.580477
 20
-85.73505
 11
-24.865635
 21
-86.813382
  0
LINE
  8
ゴム等
  6
CONTINUOUS
 10
-62.1517
 20
-85.153625
 11
-29.9
 21
-85.153625
  0
LINE
  8
ゴム等
  6
CONTINUOUS
 10
-62.1517
 20
-85.65747
 11
-27.939253
 21
-85.65747
  0
LINE
  8
ゴム等
  6
CONTINUOUS
 10
-62.1517
 20
-85.73505
 11
-27.637345
 21
-85.73505
  0
LINE
  8
ゴム等
  6
CONTINUOUS
 10
-27.939253
 20
-85.65747
 11
-62.1517
 21
-51.445017
  0
LINE
  8
ゴム等
  6
CONTINUOUS
 10
-27.580477
 20
-85.73505
 11
-62.1517
 21
-51.163825
  0
LINE
  8
ゴム等
  6
CONTINUOUS
 10
-29.9
 20
-85.153625
 11
-62.1517
 21
-52.90192
  0
LINE
  8
ゴム等
  6
CONTINUOUS
 10
-94.4034
 20
-85.153625
 11
-96.364148
 21
-85.65747
  0
LINE
  8
ゴム等
  6
CONTINUOUS
 10
-96.364148
 20
-85.65747
 11
-96.722923
 21
-85.73505
  0
LINE
  8
ゴム等
  6
CONTINUOUS
 10
-96.722923
 20
-85.73505
 11
-99.437765
 21
-86.813382
  0
LINE
  8
ゴム等
  6
CONTINUOUS
 10
-62.1517
 20
-85.153625
 11
-94.4034
 21
-85.153625
  0
LINE
  8
ゴム等
  6
CONTINUOUS
 10
-62.1517
 20
-85.65747
 11
-96.364148
 21
-85.65747
  0
LINE
  8
ゴム等
  6
CONTINUOUS
 10
-62.1517
 20
-85.73505
 11
-96.666055
 21
-85.73505
  0
LINE
  8
ゴム等
  6
CONTINUOUS
 10
-96.364148
 20
-85.65747
 11
-62.1517
 21
-51.445017
  0
LINE
  8
ゴム等
  6
CONTINUOUS
 10
-96.722923
 20
-85.73505
 11
-62.1517
 21
-51.163825
  0
LINE
  8
ゴム等
  6
CONTINUOUS
 10
-94.4034
 20
-85.153625
 11
-62.1517
 21
-52.90192
  0
LINE
  8
ゴム等
  6
CONTINUOUS
 10
-29.848085
 20
3.03235
 11
-27.939102
 21
2.071808
  0
LINE
  8
ゴム等
  6
CONTINUOUS
 10
-27.939102
 20
2.071808
 11
-27.660875
 21
1.898148
  0
LINE
  8
ゴム等
  6
CONTINUOUS
 10
-27.580347
 20
1.884013
 11
-24.96314
 21
0.841028
  0
LINE
  8
ゴム等
  6
CONTINUOUS
 10
-25.96802
 20
6.912413
 11
-25.00748
 21
5.00343
  0
LINE
  8
ゴム等
  6
CONTINUOUS
 10
-25.00748
 20
5.00343
 11
-24.833817
 21
4.725202
  0
LINE
  8
ゴム等
  6
CONTINUOUS
 10
-24.819682
 20
4.644675
 11
-23.7767
 21
2.027468
  0
LINE
  8
ゴム等
  6
CONTINUOUS
 10
-29.848085
 20
3.03235
 11
-62.5767
 21
3.03235
  0
LINE
  8
ゴム等
  6
CONTINUOUS
 10
-27.939102
 20
2.071808
 11
-62.5767
 21
2.071808
  0
LINE
  8
ゴム等
  6
CONTINUOUS
 10
-27.580347
 20
1.884013
 11
-62.5767
 21
1.884013
  0
LINE
  8
ゴム等
  6
CONTINUOUS
 10
-25.96802
 20
6.912413
 11
-25.96802
 21
39.641028
  0
LINE
  8
ゴム等
  6
CONTINUOUS
 10
-24.819682
 20
4.644675
 11
-24.819682
 21
39.641028
  0
LINE
  8
ゴム等
  6
CONTINUOUS
 10
-25.00748
 20
5.00343
 11
-25.00748
 21
39.641028
  0
LINE
  8
ゴム等
  6
CONTINUOUS
 10
-58.271635
 20
39.216028
 11
-25.96802
 21
6.912413
  0
LINE
  8
ゴム等
  6
CONTINUOUS
 10
-59.220078
 20
39.216028
 11
-25.00748
 21
5.00343
  0
LINE
  8
ゴム等
  6
CONTINUOUS
 10
-59.391038
 20
39.216028
 11
-24.834343
 21
4.659335
  0
LINE
  8
ゴム等
  6
CONTINUOUS
 10
-62.1517
 20
35.335962
 11
-29.848085
 21
3.03235
  0
LINE
  8
ゴム等
  6
CONTINUOUS
 10
-62.1517
 20
36.284405
 11
-27.939102
 21
2.071808
  0
LINE
  8
ゴム等
  6
CONTINUOUS
 10
-62.1517
 20
36.455365
 11
-27.595
 21
1.898665
  0
LINE
  8
ゴム等
  6
CONTINUOUS
 10
-29.848085
 20
75.399705
 11
-27.939102
 21
76.360247
  0
LINE
  8
ゴム等
  6
CONTINUOUS
 10
-27.939102
 20
76.360247
 11
-27.660875
 21
76.533907
  0
LINE
  8
ゴム等
  6
CONTINUOUS
 10
-27.580347
 20
76.548042
 11
-24.96314
 21
77.591028
  0
LINE
  8
ゴム等
  6
CONTINUOUS
 10
-25.96802
 20
71.519643
 11
-25.00748
 21
73.428625
  0
LINE
  8
ゴム等
  6
CONTINUOUS
 10
-25.00748
 20
73.428625
 11
-24.833817
 21
73.706853
  0
LINE
  8
ゴム等
  6
CONTINUOUS
 10
-24.819682
 20
73.78738
 11
-23.7767
 21
76.404587
  0
LINE
  8
ゴム等
  6
CONTINUOUS
 10
-29.848085
 20
75.399705
 11
-62.5767
 21
75.399705
  0
LINE
  8
ゴム等
  6
CONTINUOUS
 10
-27.939102
 20
76.360247
 11
-62.5767
 21
76.360247
  0
LINE
  8
ゴム等
  6
CONTINUOUS
 10
-27.580347
 20
76.548042
 11
-62.5767
 21
76.548042
  0
LINE
  8
ゴム等
  6
CONTINUOUS
 10
-25.96802
 20
71.519643
 11
-25.96802
 21
38.791028
  0
LINE
  8
ゴム等
  6
CONTINUOUS
 10
-24.819682
 20
73.78738
 11
-24.819682
 21
38.791028
  0
LINE
  8
ゴム等
  6
CONTINUOUS
 10
-25.00748
 20
73.428625
 11
-25.00748
 21
38.791028
  0
LINE
  8
ゴム等
  6
CONTINUOUS
 10
-58.271635
 20
39.216028
 11
-25.96802
 21
71.519643
  0
LINE
  8
ゴム等
  6
CONTINUOUS
 10
-59.220078
 20
39.216028
 11
-25.00748
 21
73.428625
  0
LINE
  8
ゴム等
  6
CONTINUOUS
 10
-59.391038
 20
39.216028
 11
-24.834343
 21
73.77272
  0
LINE
  8
ゴム等
  6
CONTINUOUS
 10
-62.1517
 20
43.096092
 11
-29.848085
 21
75.399705
  0
LINE
  8
ゴム等
  6
CONTINUOUS
 10
-62.1517
 20
42.14765
 11
-27.939102
 21
76.360247
  0
LINE
  8
ゴム等
  6
CONTINUOUS
 10
-62.1517
 20
41.97669
 11
-27.595
 21
76.53339
  0
LINE
  8
ゴム等
  6
CONTINUOUS
 10
-94.455315
 20
75.399705
 11
-96.364297
 21
76.360247
  0
LINE
  8
ゴム等
  6
CONTINUOUS
 10
-96.364297
 20
76.360247
 11
-96.642525
 21
76.533907
  0
LINE
  8
ゴム等
  6
CONTINUOUS
 10
-96.723052
 20
76.548042
 11
-99.34026
 21
77.591028
  0
LINE
  8
ゴム等
  6
CONTINUOUS
 10
-98.33538
 20
71.519643
 11
-99.29592
 21
73.428625
  0
LINE
  8
ゴム等
  6
CONTINUOUS
 10
-99.29592
 20
73.428625
 11
-99.469582
 21
73.706853
  0
LINE
  8
ゴム等
  6
CONTINUOUS
 10
-99.483717
 20
73.78738
 11
-100.5267
 21
76.404587
  0
LINE
  8
ゴム等
  6
CONTINUOUS
 10
-94.455315
 20
75.399705
 11
-61.7267
 21
75.399705
  0
LINE
  8
ゴム等
  6
CONTINUOUS
 10
-96.364297
 20
76.360247
 11
-61.7267
 21
76.360247
  0
LINE
  8
ゴム等
  6
CONTINUOUS
 10
-96.723052
 20
76.548042
 11
-61.7267
 21
76.548042
  0
LINE
  8
ゴム等
  6
CONTINUOUS
 10
-98.33538
 20
71.519643
 11
-98.33538
 21
38.791028
  0
LINE
  8
ゴム等
  6
CONTINUOUS
 10
-99.483717
 20
73.78738
 11
-99.483717
 21
38.791028
  0
LINE
  8
ゴム等
  6
CONTINUOUS
 10
-99.29592
 20
73.428625
 11
-99.29592
 21
38.791028
  0
LINE
  8
ゴム等
  6
CONTINUOUS
 10
-66.031765
 20
39.216028
 11
-98.33538
 21
71.519643
  0
LINE
  8
ゴム等
  6
CONTINUOUS
 10
-65.083323
 20
39.216028
 11
-99.29592
 21
73.428625
  0
LINE
  8
ゴム等
  6
CONTINUOUS
 10
-64.912363
 20
39.216028
 11
-99.469057
 21
73.77272
  0
LINE
  8
ゴム等
  6
CONTINUOUS
 10
-62.1517
 20
43.096092
 11
-94.455315
 21
75.399705
  0
LINE
  8
ゴム等
  6
CONTINUOUS
 10
-62.1517
 20
42.14765
 11
-96.364297
 21
76.360247
  0
LINE
  8
ゴム等
  6
CONTINUOUS
 10
-62.1517
 20
41.97669
 11
-96.7084
 21
76.53339
  0
LINE
  8
ゴム等
  6
CONTINUOUS
 10
-94.455315
 20
3.03235
 11
-96.364297
 21
2.071808
  0
LINE
  8
ゴム等
  6
CONTINUOUS
 10
-96.364297
 20
2.071808
 11
-96.642525
 21
1.898148
  0
LINE
  8
ゴム等
  6
CONTINUOUS
 10
-96.723052
 20
1.884013
 11
-99.34026
 21
0.841028
  0
LINE
  8
ゴム等
  6
CONTINUOUS
 10
-98.33538
 20
6.912413
 11
-99.29592
 21
5.00343
  0
LINE
  8
ゴム等
  6
CONTINUOUS
 10
-99.29592
 20
5.00343
 11
-99.469582
 21
4.725202
  0
LINE
  8
ゴム等
  6
CONTINUOUS
 10
-99.483717
 20
4.644675
 11
-100.5267
 21
2.027468
  0
LINE
  8
ゴム等
  6
CONTINUOUS
 10
-94.455315
 20
3.03235
 11
-61.7267
 21
3.03235
  0
LINE
  8
ゴム等
  6
CONTINUOUS
 10
-96.364297
 20
2.071808
 11
-61.7267
 21
2.071808
  0
LINE
  8
ゴム等
  6
CONTINUOUS
 10
-96.723052
 20
1.884013
 11
-61.7267
 21
1.884013
  0
LINE
  8
ゴム等
  6
CONTINUOUS
 10
-98.33538
 20
6.912413
 11
-98.33538
 21
39.641028
  0
LINE
  8
ゴム等
  6
CONTINUOUS
 10
-99.483717
 20
4.644675
 11
-99.483717
 21
39.641028
  0
LINE
  8
ゴム等
  6
CONTINUOUS
 10
-99.29592
 20
5.00343
 11
-99.29592
 21
39.641028
  0
LINE
  8
ゴム等
  6
CONTINUOUS
 10
-66.031765
 20
39.216028
 11
-98.33538
 21
6.912413
  0
LINE
  8
ゴム等
  6
CONTINUOUS
 10
-65.083323
 20
39.216028
 11
-99.29592
 21
5.00343
  0
LINE
  8
ゴム等
  6
CONTINUOUS
 10
-64.912363
 20
39.216028
 11
-99.469057
 21
4.659335
  0
LINE
  8
ゴム等
  6
CONTINUOUS
 10
-62.1517
 20
35.335962
 11
-94.455315
 21
3.03235
  0
LINE
  8
ゴム等
  6
CONTINUOUS
 10
-62.1517
 20
36.284405
 11
-96.364297
 21
2.071808
  0
LINE
  8
ゴム等
  6
CONTINUOUS
 10
-62.1517
 20
36.455365
 11
-96.7084
 21
1.898665
  0
TEXT
  7
TextStyle03
  8
文字
  6
CONTINUOUS
 10
-5.25
 20
-2.625
  1
は排水穴位置を示す
 40
3.0
 72
     5
 11
24.75
 21
-2.625
  0
TEXT
  7
TextStyle03
  8
文字
  6
CONTINUOUS
 10
-10.85
 20
-9.65
  1
アンカー数量　８ヶ所
 40
3.0
 72
     5
 11
22.525
 21
-9.65
  0
TEXT
  7
TextStyle03
  8
文字
  6
CONTINUOUS
 10
-109.15
 20
98.625
  1
アンカーピッチ
 40
3.0
 72
     5
 11
-85.9
 21
98.625
  0
TEXT
  7
TextStyle03
  8
文字
  6
CONTINUOUS
 10
-126.15
 20
-4.175
  1
アンカーピッチ
 40
3.0
 50
90.0
 72
     5
 11
-126.15
 21
19.075
  0
TEXT
  7
TextStyle03
  8
文字
  6
CONTINUOUS
 10
136.9
 20
-78.35
  1
×４枚
 40
3.0
 72
     5
 11
146.65
 21
-78.35
  0
TEXT
  7
TextStyle03
  8
文字
  6
CONTINUOUS
 10
96.625
 20
-28.625
  1
ガラス寸法
 40
3.0
 72
     5
 11
113.125
 21
-28.625
  0
TEXT
  7
TextStyle03
  8
文字
  6
CONTINUOUS
 10
77.625
 20
93.35
  1
ＮＳコード：ＮＳ４ＧＫ
 40
5.0
 72
     5
 11
138.875
 21
93.35
  0
TEXT
  7
TextStyle03
  8
文字
  6
CONTINUOUS
 10
78.1
 20
116.375
  1
シリーズ：ＤＦ４Ｋ
 40
5.0
 72
     5
 11
128.1
 21
116.375
  0
TEXT
  7
TextStyle03
  8
文字
  6
CONTINUOUS
 10
78.1
 20
110.75
  1
　　　　　四角錘（固定）1300×1300タイプ
 40
5.0
 72
     5
 11
189.975
 21
110.75
  0
TEXT
  7
TextStyle03
  8
文字
  6
CONTINUOUS
 10
78.1
 20
105.125
  1
図面名　：外観姿図
 40
5.0
 72
     5
 11
128.1
 21
105.125
  0
TEXT
  7
TextStyle03
  8
文字
  6
CONTINUOUS
 10
78.1
 20
99.5
  1
　　　　　　
 40
5.0
 72
     5
 11
111.225
 21
99.5
  0
INSERT
  2
*DIM_0002
  8
寸法
  6
CONTINUOUS
 10
0.0
 20
0.0
  0
INSERT
  2
*DIM_0003
  8
寸法
  6
CONTINUOUS
 10
0.0
 20
0.0
  0
INSERT
  2
*DIM_0004
  8
寸法
  6
CONTINUOUS
 10
0.0
 20
0.0
  0
INSERT
  2
*DIM_0005
  8
寸法
  6
CONTINUOUS
 10
0.0
 20
0.0
  0
INSERT
  2
*DIM_0006
  8
寸法
  6
CONTINUOUS
 10
0.0
 20
0.0
  0
INSERT
  2
*DIM_0007
  8
寸法
  6
CONTINUOUS
 10
0.0
 20
0.0
  0
INSERT
  2
*DIM_0008
  8
寸法
  6
CONTINUOUS
 10
0.0
 20
0.0
  0
INSERT
  2
*DIM_0009
  8
寸法
  6
CONTINUOUS
 10
0.0
 20
0.0
  0
INSERT
  2
*DIM_0010
  8
寸法
  6
CONTINUOUS
 10
0.0
 20
0.0
  0
INSERT
  2
*DIM_0011
  8
寸法
  6
CONTINUOUS
 10
0.0
 20
0.0
  0
INSERT
  2
*DIM_0012
  8
寸法
  6
CONTINUOUS
 10
0.0
 20
0.0
  0
INSERT
  2
*DIM_0013
  8
寸法
  6
CONTINUOUS
 10
0.0
 20
0.0
  0
LINE
  8
曲げ物
  6
CONTINUOUS
 10
158.939595
 20
-81.42424
 11
91.444595
 21
-81.42424
  0
LINE
  8
曲げ物
  6
CONTINUOUS
 10
91.444595
 20
-81.42424
 11
125.192095
 21
-33.69827
  0
LINE
  8
曲げ物
  6
CONTINUOUS
 10
158.939595
 20
-81.42424
 11
125.192095
 21
-33.69827
  0
ENDSEC
  0
EOF
