  0
SECTION
  2
HEADER
  9
$EXTMIN
 10
-210.0
 20
-148.5
  9
$EXTMAX
 10
210.0
 20
148.5
  9
$PDMODE
 70
    32
  9
$PDSIZE
 40
1.5
  9
$LTSCALE
 40
10.0
  0
ENDSEC
  0
SECTION
  2
TABLES
  0
TABLE
  2
LTYPE
 70
    15
  0
LTYPE
  2
CONTINUOUS
 70
    64
  3
実線
 72
    65
 73
     0
 40
0.0
  0
LTYPE
  2
DASHED
 70
    64
  3
破線A
 72
    65
 73
     2
 40
0.6
 49
0.4
 49
-0.2
  0
LTYPE
  2
DASHEDX2
 70
    64
  3
破線B
 72
    65
 73
     2
 40
1.3
 49
0.9
 49
-0.4
  0
LTYPE
  2
DASHDOT
 70
    64
  3
１点鎖線A
 72
    65
 73
     4
 40
0.5375
 49
0.375
 49
-0.05
 49
0.0625
 49
-0.05
  0
LTYPE
  2
DASHDOTX2
 70
    64
  3
１点鎖線B
 72
    65
 73
     4
 40
1.075
 49
0.75
 49
-0.1
 49
0.125
 49
-0.1
  0
LTYPE
  2
DIVIDE2
 70
    64
  3
２点鎖線A
 72
    65
 73
     6
 40
0.5125
 49
0.3
 49
-0.0375
 49
0.05
 49
-0.0375
 49
0.05
 49
-0.0375
  0
LTYPE
  2
DIVIDE
 70
    64
  3
２点鎖線B
 72
    65
 73
     6
 40
1.05
 49
0.55
 49
-0.1
 49
0.1
 49
-0.1
 49
0.1
 49
-0.1
  0
LTYPE
  2
DOT
 70
    64
  3
点線A
 72
    65
 73
     2
 40
0.1125
 49
0.0625
 49
-0.05
  0
LTYPE
  2
DOTX2
 70
    64
  3
点線B
 72
    65
 73
     2
 40
0.275
 49
0.15
 49
-0.125
  0
LTYPE
  2
CONTINUOUS
 70
    64
  3
実線
 72
    65
 73
     0
 40
0.0
  0
LTYPE
  2
CONTINUOUS
 70
    64
  3
実線
 72
    65
 73
     0
 40
0.0
  0
LTYPE
  2
CONTINUOUS
 70
    64
  3
実線
 72
    65
 73
     0
 40
0.0
  0
LTYPE
  2
CONTINUOUS
 70
    64
  3
実線
 72
    65
 73
     0
 40
0.0
  0
LTYPE
  2
CONTINUOUS
 70
    64
  3
実線
 72
    65
 73
     0
 40
0.0
  0
LTYPE
  2
CONTINUOUS
 70
    64
  3
実線
 72
    65
 73
     0
 40
0.0
  0
ENDTAB
  0
TABLE
  2
LAYER
 70
    34
  0
LAYER
  2
通り芯
 70
     0
 62
    15
  6
CONTINUOUS
  0
LAYER
  2
補助線
 70
     0
 62
    16
  6
DOT
  0
LAYER
  2
躯体
 70
     0
 62
    31
  6
CONTINUOUS
  0
LAYER
  2
型材
 70
     0
 62
    32
  6
CONTINUOUS
  0
LAYER
  2
型材断面
 70
     0
 62
    47
  6
CONTINUOUS
  0
LAYER
  2
ガラス
 70
     0
 62
    48
  6
CONTINUOUS
  0
LAYER
  2
ゴム等
 70
     0
 62
    63
  6
CONTINUOUS
  0
LAYER
  2
ボルト／ビス
 70
     0
 62
    64
  6
CONTINUOUS
  0
LAYER
  2
文字
 70
     0
 62
    79
  6
CONTINUOUS
  0
LAYER
  2
寸法
 70
     0
 62
    80
  6
CONTINUOUS
  0
LAYER
  2
ﾊｯﾁﾝｸﾞ
 70
     0
 62
    95
  6
CONTINUOUS
  0
LAYER
  2
別途部材
 70
     0
 62
    96
  6
CONTINUOUS
  0
LAYER
  2
曲げ物
 70
     0
 62
   111
  6
CONTINUOUS
  0
LAYER
  2
鉄骨等
 70
     0
 62
   112
  6
CONTINUOUS
  0
LAYER
  2
St
 70
     0
 62
   127
  6
CONTINUOUS
  0
LAYER
  2
その他部品等
 70
     0
 62
   128
  6
CONTINUOUS
  0
LAYER
  2
ｶﾞｽｹｯﾄ
 70
     0
 62
   143
  6
CONTINUOUS
  0
LAYER
  2
ｽｹｯﾁ
 70
     0
 62
    14
  6
CONTINUOUS
  0
LAYER
  2
0
 70
     0
 62
    17
  6
CONTINUOUS
  0
LAYER
  2
1
 70
     0
 62
    30
  6
CONTINUOUS
  0
LAYER
  2
4
 70
     0
 62
    33
  6
CONTINUOUS
  0
LAYER
  2
ﾚｲﾔ3
 70
     0
 62
    46
  6
CONTINUOUS
  0
LAYER
  2
外形線
 70
     0
 62
    49
  6
CONTINUOUS
  0
LAYER
  2
部品
 70
     0
 62
    14
  6
CONTINUOUS
  0
LAYER
  2
サッシ芯
 70
     0
 62
    17
  6
DASHDOTX2
  0
LAYER
  2
寸法線
 70
     0
 62
    62
  6
CONTINUOUS
  0
LAYER
  2
姿図外形線
 70
     0
 62
    65
  6
CONTINUOUS
  0
LAYER
  2
姿補助線
 70
     0
 62
    30
  6
CONTINUOUS
  0
LAYER
  2
透視線
 70
     0
 62
    78
  6
DOT
  0
LAYER
  2
用紙
 70
     0
 62
    81
  6
CONTINUOUS
  0
LAYER
  2
実線図枠
 70
     0
 62
    94
  6
CONTINUOUS
  0
LAYER
  2
補助図枠
 70
     0
 62
    97
  6
CONTINUOUS
  0
LAYER
  2
建具記号
 70
     0
 62
   110
  6
CONTINUOUS
  0
LAYER
  2
補助文字
 70
     0
 62
   113
  6
CONTINUOUS
  0
ENDTAB
  0
TABLE
  2
STYLE
 70
    10
  0
STYLE
  2
STANDARD
 70
     0
 40
1.0
 41
1.0
 42
1.0
 50
0.0
 71
     0
  3
TXT
  4
BIGFONT
  0
STYLE
  2
TATE
 70
     4
 40
1.0
 41
1.0
 42
1.0
 50
0.0
 71
     0
  3
TXT
  4
BIGFONT
  0
STYLE
  2
TextStyle03
 70
     0
 40
1.0
 41
1.0
 42
1.0
 50
0.0
 71
     0
  3
MONOTXT
  4
BIGFONT
  0
STYLE
  2
TextStyle04
 70
     0
 40
1.0
 41
1.0
 42
1.0
 50
0.0
 71
     0
  3
MONOTXT
  4
BIGFONT
  0
STYLE
  2
TextStyle05
 70
     0
 40
1.0
 41
1.0
 42
1.0
 50
0.0
 71
     0
  3
MONOTXT
  4
BIGFONT
  0
STYLE
  2
TextStyle06
 70
     0
 40
1.0
 41
1.0
 42
1.0
 50
0.0
 71
     0
  3
MONOTXT
  4
BIGFONT
  0
STYLE
  2
TextStyle07
 70
     0
 40
1.0
 41
1.0
 42
1.0
 50
0.0
 71
     0
  3
MONOTXT
  4
BIGFONT
  0
STYLE
  2
TextStyle08
 70
     0
 40
1.0
 41
1.0
 42
1.0
 50
0.0
 71
     0
  3
MONOTXT
  4
BIGFONT
  0
STYLE
  2
TextStyle09
 70
     0
 40
1.0
 41
1.0
 42
1.0
 50
0.0
 71
     0
  3
MONOTXT
  4
BIGFONT
  0
STYLE
  2
TextStyle10
 70
     0
 40
1.0
 41
1.0
 42
1.0
 50
0.0
 71
     0
  3
MONOTXT
  4
BIGFONT
  0
ENDTAB
  0
ENDSEC
  0
SECTION
  2
BLOCKS
  0
BLOCK
  2
*GRP_0001
 70
    65
 10
0.0
 20
0.0
  0
LINE
  8
型材断面
  6
CONTINUOUS
 10
195.0
 20
133.5
 11
195.0
 21
-133.5
  0
LINE
  8
型材断面
  6
CONTINUOUS
 10
195.0
 20
-133.5
 11
-185.0
 21
-133.5
  0
LINE
  8
型材断面
  6
CONTINUOUS
 10
-185.0
 20
-133.5
 11
-185.0
 21
133.5
  0
LINE
  8
型材断面
  6
CONTINUOUS
 10
195.0
 20
133.5
 11
-185.0
 21
133.5
  0
LINE
  8
型材断面
  6
CONTINUOUS
 10
145.0
 20
-133.5
 11
145.0
 21
-118.5
  0
LINE
  8
型材断面
  6
CONTINUOUS
 10
195.0
 20
-118.5
 11
145.0
 21
-118.5
  0
ENDBLK
  0
BLOCK
  2
*DIM_0002
 70
    65
 10
0.0
 20
0.0
  0
LINE
  8
寸法
  6
CONTINUOUS
 62
     0
 10
-94.6517
 20
-28.204485
 11
-94.6517
 21
-28.702992
  0
LINE
  8
寸法
  6
CONTINUOUS
 62
     0
 10
-14.6517
 20
-28.204485
 11
-14.6517
 21
-28.702992
  0
LINE
  8
寸法
  6
CONTINUOUS
 62
     0
 10
-94.6517
 20
-28.702992
 11
-14.6517
 21
-28.702992
  0
POINT
  8
寸法
 62
     0
 10
-94.6517
 20
-28.702992
  0
POINT
  8
寸法
 62
     0
 10
-14.6517
 20
-28.702992
  0
TEXT
  7
TextStyle03
  8
寸法
  6
CONTINUOUS
 62
     0
 10
-66.39375
 20
-28.35
  1
呼称寸法　1600
 40
3.0
 72
     5
 11
-42.95625
 21
-28.35
  0
ENDBLK
  0
BLOCK
  2
*DIM_0003
 70
    65
 10
0.0
 20
0.0
  0
LINE
  8
寸法
  6
BYBLOCK
 62
     0
 10
-119.2467
 20
64.21603
 11
-130.07
 21
64.21603
  0
LINE
  8
寸法
  6
BYBLOCK
 62
     0
 10
-119.2467
 20
29.21603
 11
-130.07
 21
29.21603
  0
LINE
  8
寸法
  6
BYBLOCK
 62
     0
 10
-130.07
 20
64.21603
 11
-130.07
 21
29.21603
  0
POINT
  8
寸法
 62
     0
 10
-130.07
 20
64.21603
  0
POINT
  8
寸法
 62
     0
 10
-130.07
 20
29.21603
  0
TEXT
  7
TextStyle03
  8
寸法
  6
CONTINUOUS
 62
     0
 10
-130.425
 20
44.2625
  1
700
 40
3.0
 50
90.0
 72
     5
 11
-130.425
 21
49.1375
  0
ENDBLK
  0
BLOCK
  2
*DIM_0004
 70
    65
 10
0.0
 20
0.0
  0
LINE
  8
寸法
  6
BYBLOCK
 62
     0
 10
-84.6517
 20
115.817857
 11
-84.6517
 21
123.593368
  0
LINE
  8
寸法
  6
BYBLOCK
 62
     0
 10
-54.6517
 20
115.817857
 11
-54.6517
 21
123.593368
  0
LINE
  8
寸法
  6
BYBLOCK
 62
     0
 10
-84.6517
 20
123.593368
 11
-54.6517
 21
123.593368
  0
POINT
  8
寸法
 62
     0
 10
-84.6517
 20
123.593368
  0
POINT
  8
寸法
 62
     0
 10
-54.6517
 20
123.593368
  0
TEXT
  7
TextStyle03
  8
寸法
  6
CONTINUOUS
 62
     0
 10
-72.1125
 20
123.95
  1
600
 40
3.0
 72
     5
 11
-67.2375
 21
123.95
  0
ENDBLK
  0
BLOCK
  2
*DIM_0005
 70
    65
 10
0.0
 20
0.0
  0
LINE
  8
寸法
  6
BYBLOCK
 62
     0
 10
-24.6517
 20
115.817857
 11
-24.6517
 21
123.593368
  0
LINE
  8
寸法
  6
BYBLOCK
 62
     0
 10
-54.6517
 20
123.593368
 11
-24.6517
 21
123.593368
  0
POINT
  8
寸法
 62
     0
 10
-24.6517
 20
123.593368
  0
TEXT
  7
TextStyle03
  8
寸法
  6
CONTINUOUS
 62
     0
 10
-42.1125
 20
123.95
  1
600
 40
3.0
 72
     5
 11
-37.2375
 21
123.95
  0
ENDBLK
  0
BLOCK
  2
*DIM_0006
 70
    65
 10
0.0
 20
0.0
  0
LINE
  8
寸法
  6
CONTINUOUS
 10
-56.901697
 20
49.966033
 11
-56.901697
 21
58.038255
  0
LINE
  8
寸法
  6
CONTINUOUS
 10
-52.401703
 20
49.966033
 11
-52.401703
 21
58.038255
  0
LINE
  8
寸法
  6
CONTINUOUS
 10
-56.901697
 20
58.038255
 11
-52.401703
 21
58.038255
  0
POINT
  8
寸法
 10
-56.901697
 20
58.038255
  0
POINT
  8
寸法
 10
-52.401703
 20
58.038255
  0
TEXT
  7
TextStyle03
  8
寸法
  6
CONTINUOUS
 10
-56.16875
 20
58.425
  1
90
 40
3.0
 72
     5
 11
-52.98125
 21
58.425
  0
ENDBLK
  0
BLOCK
  2
*DIM_0007
 70
    65
 10
0.0
 20
0.0
  0
LINE
  8
寸法
  6
CONTINUOUS
 10
-52.6517
 20
-42.42797
 11
-43.508765
 21
-42.42797
  0
LINE
  8
寸法
  6
CONTINUOUS
 10
-51.401112
 20
-44.67797
 11
-43.508765
 21
-44.67797
  0
LINE
  8
寸法
  6
CONTINUOUS
 10
-43.508765
 20
-42.42797
 11
-43.508765
 21
-44.67797
  0
POINT
  8
寸法
 10
-43.508765
 20
-42.42797
  0
POINT
  8
寸法
 10
-43.508765
 20
-44.67797
  0
TEXT
  7
TextStyle03
  8
寸法
  6
CONTINUOUS
 10
-43.35
 20
-48.34375
  1
45
 40
3.0
 50
90.0
 72
     5
 11
-43.35
 21
-45.15625
  0
ENDBLK
  0
BLOCK
  2
*DIM_0008
 70
    65
 10
0.0
 20
0.0
  0
LINE
  8
寸法
  6
CONTINUOUS
 10
-56.9017
 20
-43.67797
 11
-56.9017
 21
-38.05831
  0
LINE
  8
寸法
  6
CONTINUOUS
 10
-52.401112
 20
-43.67797
 11
-52.401112
 21
-38.05831
  0
LINE
  8
寸法
  6
CONTINUOUS
 10
-56.9017
 20
-38.05831
 11
-52.401112
 21
-38.05831
  0
POINT
  8
寸法
 10
-56.9017
 20
-38.05831
  0
POINT
  8
寸法
 10
-52.401112
 20
-38.05831
  0
TEXT
  7
TextStyle03
  8
寸法
  6
CONTINUOUS
 10
-56.21875
 20
-37.7
  1
90
 40
3.0
 72
     5
 11
-53.03125
 21
-37.7
  0
ENDBLK
  0
BLOCK
  2
*DIM_0009
 70
    65
 10
0.0
 20
0.0
  0
LINE
  8
寸法
  6
CONTINUOUS
 10
-9.7017
 20
-90.01338
 11
10.268457
 21
-90.01338
  0
LINE
  8
寸法
  6
CONTINUOUS
 10
-9.7017
 20
-86.696185
 11
10.268457
 21
-86.696185
  0
LINE
  8
寸法
  6
CONTINUOUS
 10
10.268457
 20
-90.01338
 11
10.268457
 21
-86.696185
  0
POINT
  8
寸法
 10
10.268457
 20
-90.01338
  0
POINT
  8
寸法
 10
10.268457
 20
-86.696185
  0
TEXT
  7
TextStyle03
  8
寸法
  6
CONTINUOUS
 10
13.25
 20
-91.65625
  1
66.3
 40
3.0
 50
90.0
 72
     5
 11
13.25
 21
-85.09375
  0
ENDBLK
  0
BLOCK
  2
*DIM_0010
 70
    65
 10
0.0
 20
0.0
  0
LINE
  8
寸法
  6
CONTINUOUS
 10
-53.6517
 20
-42.42797
 11
10.268457
 21
-42.42797
  0
LINE
  8
寸法
  6
CONTINUOUS
 10
10.268457
 20
-86.696185
 11
10.268457
 21
-42.42797
  0
POINT
  8
寸法
 10
10.268457
 20
-42.42797
  0
TEXT
  7
TextStyle03
  8
寸法
  6
CONTINUOUS
 10
9.875
 20
-68.7
  1
885.3
 40
3.0
 50
90.0
 72
     5
 11
9.875
 21
-60.45
  0
ENDBLK
  0
BLOCK
  2
*DIM_0011
 70
    65
 10
0.0
 20
0.0
  0
LINE
  8
寸法
  6
CONTINUOUS
 10
-10.7017
 20
-85.696185
 11
-10.7017
 21
-28.702992
  0
LINE
  8
寸法
  6
CONTINUOUS
 10
-14.6517
 20
-28.702992
 11
-10.7017
 21
-28.702992
  0
POINT
  8
寸法
 10
-14.6517
 20
-28.702992
  0
POINT
  8
寸法
 10
-10.7017
 20
-28.702992
  0
TEXT
  7
TextStyle03
  8
寸法
  6
CONTINUOUS
 10
-14.29375
 20
-28.35
  1
79
 40
3.0
 72
     5
 11
-11.10625
 21
-28.35
  0
ENDBLK
  0
BLOCK
  2
*DIM_0012
 70
    65
 10
0.0
 20
0.0
  0
LINE
  8
寸法
  6
CONTINUOUS
 10
-98.6017
 20
-85.696185
 11
-98.6017
 21
-28.702992
  0
LINE
  8
寸法
  6
CONTINUOUS
 10
-94.6517
 20
-28.702992
 11
-98.6017
 21
-28.702992
  0
POINT
  8
寸法
 10
-94.6517
 20
-28.702992
  0
POINT
  8
寸法
 10
-98.6017
 20
-28.702992
  0
TEXT
  7
TextStyle03
  8
寸法
  6
CONTINUOUS
 10
-98.24375
 20
-28.35
  1
79
 40
3.0
 72
     5
 11
-95.05625
 21
-28.35
  0
ENDBLK
  0
BLOCK
  2
*DIM_0013
 70
    65
 10
0.0
 20
0.0
  0
LINE
  8
寸法
  6
CONTINUOUS
 10
75.04625
 20
-79.97814
 11
75.04625
 21
-89.886325
  0
LINE
  8
寸法
  6
CONTINUOUS
 10
152.769315
 20
-79.97814
 11
152.769315
 21
-89.886325
  0
LINE
  8
寸法
  6
CONTINUOUS
 10
75.04625
 20
-89.886325
 11
152.769315
 21
-89.886325
  0
POINT
  8
寸法
 10
75.04625
 20
-89.886325
  0
POINT
  8
寸法
 10
152.769315
 20
-89.886325
  0
TEXT
  7
TextStyle03
  8
寸法
  6
CONTINUOUS
 10
108.93125
 20
-89.525
  1
1554.5
 40
3.0
 72
     5
 11
118.86875
 21
-89.525
  0
ENDBLK
  0
BLOCK
  2
*DIM_0014
 70
    65
 10
0.0
 20
0.0
  0
LINE
  8
寸法
  6
CONTINUOUS
 10
153.769315
 20
-78.97814
 11
163.566418
 21
-78.97814
  0
LINE
  8
寸法
  6
CONTINUOUS
 10
114.907783
 20
-24.019643
 11
163.566418
 21
-24.019643
  0
LINE
  8
寸法
  6
CONTINUOUS
 10
163.566418
 20
-78.97814
 11
163.566418
 21
-24.019643
  0
POINT
  8
寸法
 10
163.566418
 20
-78.97814
  0
POINT
  8
寸法
 10
163.566418
 20
-24.019643
  0
TEXT
  7
TextStyle03
  8
寸法
  6
CONTINUOUS
 10
163.175
 20
-56.46875
  1
1099.1
 40
3.0
 50
90.0
 72
     5
 11
163.175
 21
-46.53125
  0
ENDBLK
  0
ENDSEC
  0
SECTION
  2
ENTITIES
  0
POLYLINE
  8
通り芯
  6
CONTINUOUS
 66
     1
 70
     1
  0
VERTEX
  8
通り芯
 10
-210.0
 20
-148.5
  0
VERTEX
  8
通り芯
 10
210.0
 20
-148.5
  0
VERTEX
  8
通り芯
 10
210.0
 20
148.5
  0
VERTEX
  8
通り芯
 10
-210.0
 20
148.5
  0
SEQEND
  0
INSERT
  2
*GRP_0001
  8
型材断面
  6
CONTINUOUS
 10
0.0
 20
0.0
  0
LINE
  8
型材断面
  6
DASHDOT
 10
-94.6517
 20
46.71603
 11
-14.6517
 21
46.71603
  0
LINE
  8
型材断面
  6
DASHDOT
 10
-94.6517
 20
6.716028
 11
-14.6517
 21
6.716028
  0
LINE
  8
型材断面
  6
DASHDOT
 10
-94.6517
 20
86.716033
 11
-14.6517
 21
86.716033
  0
LINE
  8
型材断面
  6
CONTINUOUS
 10
-54.6517
 20
-1.307848
 11
-56.895145
 21
-5.193607
  0
LINE
  8
型材断面
  6
CONTINUOUS
 10
-54.6517
 20
-1.307848
 11
-52.408255
 21
-5.193607
  0
LINE
  8
型材断面
  6
CONTINUOUS
 10
-52.408255
 20
-5.193607
 11
-56.895145
 21
-5.193607
  0
LINE
  8
型材断面
  6
CONTINUOUS
 10
-6.627823
 20
46.716033
 11
-2.742062
 21
44.472588
  0
LINE
  8
型材断面
  6
CONTINUOUS
 10
-6.627823
 20
46.716033
 11
-2.742062
 21
48.959477
  0
LINE
  8
型材断面
  6
CONTINUOUS
 10
-2.742062
 20
48.959477
 11
-2.742062
 21
44.472588
  0
LINE
  8
型材断面
  6
CONTINUOUS
 10
-102.675577
 20
46.716033
 11
-106.561337
 21
44.472588
  0
LINE
  8
型材断面
  6
CONTINUOUS
 10
-102.675577
 20
46.716033
 11
-106.561337
 21
48.959477
  0
LINE
  8
型材断面
  6
CONTINUOUS
 10
-106.561337
 20
48.959477
 11
-106.561337
 21
44.472588
  0
LINE
  8
型材断面
  6
CONTINUOUS
 10
19.08162
 20
0.93023
 11
16.838175
 21
-2.95553
  0
LINE
  8
型材断面
  6
CONTINUOUS
 10
19.08162
 20
0.93023
 11
21.325065
 21
-2.95553
  0
LINE
  8
型材断面
  6
CONTINUOUS
 10
21.325065
 20
-2.95553
 11
16.838175
 21
-2.95553
  0
LINE
  8
型材断面
  6
CONTINUOUS
 10
10.04774
 20
-4.363422
 11
62.70442
 21
-4.363422
  0
LINE
  8
型材断面
  6
CONTINUOUS
 10
-54.6517
 20
94.739907
 11
-56.895145
 21
98.625668
  0
LINE
  8
型材断面
  6
CONTINUOUS
 10
-54.6517
 20
94.739907
 11
-52.408255
 21
98.625668
  0
LINE
  8
型材断面
  6
CONTINUOUS
 10
-52.408255
 20
98.625668
 11
-56.895145
 21
98.625668
  0
LINE
  8
型材断面
  6
CONTINUOUS
 10
10.04774
 20
-12.54068
 11
62.70442
 21
-12.54068
  0
LINE
  8
型材断面
  6
DASHDOT
 10
-94.6517
 20
86.716033
 11
-94.6517
 21
-90.01338
  0
LINE
  8
型材断面
  6
DASHDOT
 10
-54.6517
 20
86.716033
 11
-54.6517
 21
-90.01338
  0
LINE
  8
型材断面
  6
DASHDOT
 10
-14.6517
 20
86.716033
 11
-14.6517
 21
-90.01338
  0
LINE
  8
型材断面
  6
CONTINUOUS
 10
-98.601695
 20
90.666025
 11
-10.701705
 21
90.666025
  0
LINE
  8
型材断面
  6
CONTINUOUS
 10
-10.701705
 20
90.666025
 11
-10.701705
 21
2.766035
  0
LINE
  8
型材断面
  6
CONTINUOUS
 10
-10.701705
 20
2.766035
 11
-98.601695
 21
2.766035
  0
LINE
  8
型材断面
  6
CONTINUOUS
 10
-98.601695
 20
90.666025
 11
-98.601695
 21
2.766035
  0
LINE
  8
型材断面
  6
CONTINUOUS
 10
-54.6517
 20
46.71603
 11
-98.601695
 21
2.766035
  0
LINE
  8
型材断面
  6
CONTINUOUS
 10
-54.6517
 20
46.71603
 11
-10.701705
 21
90.666025
  0
LINE
  8
型材断面
  6
CONTINUOUS
 10
-98.601695
 20
90.666025
 11
-10.701705
 21
2.766035
  0
LINE
  8
型材断面
  6
CONTINUOUS
 10
-56.05738
 20
46.71603
 11
-56.9017
 21
45.871712
  0
LINE
  8
型材断面
  6
CONTINUOUS
 10
-56.9017
 20
45.871712
 11
-56.9017
 21
44.46603
  0
LINE
  8
型材断面
  6
CONTINUOUS
 10
-56.9017
 20
44.46603
 11
-55.496022
 21
44.46603
  0
LINE
  8
型材断面
  6
CONTINUOUS
 10
-54.6517
 20
45.31035
 11
-55.496022
 21
44.46603
  0
LINE
  8
型材断面
  6
CONTINUOUS
 10
-54.6517
 20
46.71603
 11
-56.901703
 21
44.46603
  0
LINE
  8
型材断面
  6
CONTINUOUS
 10
-52.401703
 20
48.966033
 11
-53.807377
 21
48.96603
  0
LINE
  8
型材断面
  6
CONTINUOUS
 10
-54.6517
 20
48.12171
 11
-53.807377
 21
48.96603
  0
LINE
  8
型材断面
  6
CONTINUOUS
 10
-52.401703
 20
48.966033
 11
-52.4017
 21
47.560347
  0
LINE
  8
型材断面
  6
CONTINUOUS
 10
-53.24602
 20
46.71603
 11
-52.4017
 21
47.560347
  0
LINE
  8
型材断面
  6
CONTINUOUS
 10
-54.6517
 20
46.71603
 11
-52.401695
 21
48.966033
  0
LINE
  8
型材断面
  6
CONTINUOUS
 10
-54.6517
 20
45.31035
 11
-53.807377
 21
44.46603
  0
LINE
  8
型材断面
  6
CONTINUOUS
 10
-52.4017
 20
44.46603
 11
-53.807377
 21
44.46603
  0
LINE
  8
型材断面
  6
CONTINUOUS
 10
-52.4017
 20
44.46603
 11
-52.4017
 21
45.871712
  0
LINE
  8
型材断面
  6
CONTINUOUS
 10
-53.24602
 20
46.71603
 11
-52.4017
 21
45.871712
  0
LINE
  8
型材断面
  6
CONTINUOUS
 10
-56.901697
 20
48.966033
 11
-55.496022
 21
48.96603
  0
LINE
  8
型材断面
  6
CONTINUOUS
 10
-54.6517
 20
48.12171
 11
-55.496022
 21
48.96603
  0
LINE
  8
型材断面
  6
CONTINUOUS
 10
-56.901697
 20
48.966033
 11
-56.9017
 21
47.560347
  0
LINE
  8
型材断面
  6
CONTINUOUS
 10
-56.05738
 20
46.71603
 11
-56.9017
 21
47.560347
  0
LINE
  8
型材断面
  6
CONTINUOUS
 10
-54.6517
 20
46.71603
 11
-56.901697
 21
48.966025
  0
LINE
  8
型材断面
  6
CONTINUOUS
 10
-54.6517
 20
46.71603
 11
-52.401697
 21
44.46603
  0
LINE
  8
型材断面
  6
CONTINUOUS
 10
-10.7017
 20
-86.625453
 11
-10.648668
 21
-86.572418
  0
LINE
  8
型材断面
  6
CONTINUOUS
 10
-10.7017
 20
-86.696185
 11
-10.7017
 21
-90.01338
  0
LINE
  8
型材断面
  6
CONTINUOUS
 10
-11.9517
 20
-90.013363
 11
-11.9517
 21
-90.713363
  0
LINE
  8
型材断面
  6
CONTINUOUS
 10
-98.6017
 20
-86.696185
 11
-98.6017
 21
-90.01338
  0
LINE
  8
型材断面
  6
CONTINUOUS
 10
-97.3517
 20
-90.013363
 11
-97.3517
 21
-90.713363
  0
LINE
  8
型材断面
  6
CONTINUOUS
 10
-10.7017
 20
-86.696185
 11
-98.6017
 21
-86.696185
  0
LINE
  8
型材断面
  6
CONTINUOUS
 10
-10.7017
 20
-90.01338
 11
-98.6017
 21
-90.01338
  0
LINE
  8
型材断面
  6
CONTINUOUS
 10
-11.9517
 20
-90.713363
 11
-97.3517
 21
-90.713363
  0
LINE
  8
型材断面
  6
CONTINUOUS
 10
-98.6017
 20
-86.625453
 11
-54.651697
 21
-42.675455
  0
LINE
  8
型材断面
  6
CONTINUOUS
 10
-10.7017
 20
-86.625453
 11
-54.651697
 21
-42.675455
  0
LINE
  8
型材断面
  6
CONTINUOUS
 10
-10.648668
 20
-86.572418
 11
-54.6517
 21
-42.569392
  0
LINE
  8
型材断面
  6
CONTINUOUS
 10
-98.654732
 20
-86.572418
 11
-54.6517
 21
-42.569392
  0
LINE
  8
型材断面
  6
CONTINUOUS
 10
-54.6517
 20
-43.842185
 11
-54.6517
 21
-42.42797
  0
LINE
  8
型材断面
  6
CONTINUOUS
 10
-54.6517
 20
-43.842185
 11
-54.6517
 21
-42.42797
  0
LINE
  8
型材断面
  6
CONTINUOUS
 10
-56.9017
 20
-44.67797
 11
-56.83099
 21
-44.74868
  0
LINE
  8
型材断面
  6
CONTINUOUS
 10
-56.83099
 20
-44.74868
 11
-55.558198
 21
-44.74868
  0
LINE
  8
型材断面
  6
CONTINUOUS
 10
-54.6517
 20
-42.42797
 11
-56.9017
 21
-44.67797
  0
LINE
  8
型材断面
  6
CONTINUOUS
 10
-54.6517
 20
-43.842183
 11
-55.558198
 21
-44.74868
  0
LINE
  8
型材断面
  6
CONTINUOUS
 10
-52.401112
 20
-44.67797
 11
-52.471822
 21
-44.74868
  0
LINE
  8
型材断面
  6
CONTINUOUS
 10
-52.471822
 20
-44.74868
 11
-53.744615
 21
-44.74868
  0
LINE
  8
型材断面
  6
CONTINUOUS
 10
-54.6517
 20
-43.842183
 11
-53.745202
 21
-44.74868
  0
LINE
  8
型材断面
  6
CONTINUOUS
 10
-54.6517
 20
-42.42797
 11
-52.401405
 21
-44.678265
  0
LINE
  8
型材断面
  6
CONTINUOUS
 10
79.318035
 20
-28.111117
 11
103.249657
 21
-28.111117
  0
LINE
  8
ガラス
  6
CONTINUOUS
 10
-52.838475
 20
-70.46891
 11
-56.71111
 21
-74.341545
  0
LINE
  8
ガラス
  6
CONTINUOUS
 10
-53.718797
 20
-72.067267
 11
-55.112752
 21
-73.461222
  0
LINE
  8
ガラス
  6
CONTINUOUS
 10
-54.436833
 20
-71.349233
 11
-55.830788
 21
-72.743188
  0
LINE
  8
ガラス
  6
CONTINUOUS
 10
-52.3146
 20
20.428475
 11
-56.187235
 21
16.55584
  0
LINE
  8
ガラス
  6
CONTINUOUS
 10
-53.912957
 20
19.548152
 11
-55.306912
 21
18.154198
  0
LINE
  8
ガラス
  6
CONTINUOUS
 10
-52.3146
 20
75.444505
 11
-56.187235
 21
71.57187
  0
LINE
  8
ガラス
  6
CONTINUOUS
 10
-53.912957
 20
74.564183
 11
-55.306912
 21
73.170227
  0
LINE
  8
ガラス
  6
CONTINUOUS
 10
-25.56519
 20
48.53109
 11
-29.437825
 21
44.658455
  0
LINE
  8
ガラス
  6
CONTINUOUS
 10
-27.163548
 20
47.650768
 11
-28.557503
 21
46.256812
  0
LINE
  8
ガラス
  6
CONTINUOUS
 10
-78.890528
 20
48.53109
 11
-82.763162
 21
44.658455
  0
LINE
  8
ガラス
  6
CONTINUOUS
 10
-53.194923
 20
73.846148
 11
-54.588878
 21
72.452192
  0
LINE
  8
ガラス
  6
CONTINUOUS
 10
-26.445513
 20
46.932733
 11
-27.839467
 21
45.538777
  0
LINE
  8
ガラス
  6
CONTINUOUS
 10
-79.77085
 20
46.932733
 11
-81.164805
 21
45.538777
  0
LINE
  8
ガラス
  6
CONTINUOUS
 10
-80.488885
 20
47.650768
 11
-81.88284
 21
46.256812
  0
LINE
  8
ガラス
  6
CONTINUOUS
 10
-53.194923
 20
18.830118
 11
-54.588878
 21
17.436162
  0
LINE
  8
ガラス
  6
CONTINUOUS
 10
75.04625
 20
-78.97814
 11
152.769315
 21
-78.97814
  0
LINE
  8
ガラス
  6
CONTINUOUS
 10
152.769315
 20
-78.97814
 11
113.907783
 21
-24.019643
  0
LINE
  8
ガラス
  6
CONTINUOUS
 10
75.04625
 20
-78.97814
 11
113.907783
 21
-24.019643
  0
LINE
  8
ゴム等
  6
CONTINUOUS
 10
-54.6517
 20
45.11892
 11
-54.6517
 21
43.526752
  0
LINE
  8
ゴム等
  6
CONTINUOUS
 10
-54.6517
 20
48.31314
 11
-54.6517
 21
49.905307
  0
LINE
  8
ゴム等
  6
CONTINUOUS
 10
-53.05459
 20
46.71603
 11
-51.462422
 21
46.71603
  0
LINE
  8
ゴム等
  6
CONTINUOUS
 10
-56.24881
 20
46.71603
 11
-57.840978
 21
46.71603
  0
LINE
  8
ゴム等
  6
CONTINUOUS
 10
-54.6517
 20
51.16788
 11
-91.784965
 21
88.301145
  0
LINE
  8
ゴム等
  6
CONTINUOUS
 10
-54.6517
 20
49.905307
 11
-94.305615
 21
89.559223
  0
LINE
  8
ゴム等
  6
CONTINUOUS
 10
-54.6517
 20
48.31314
 11
-96.817022
 21
90.478463
  0
LINE
  8
ゴム等
  6
CONTINUOUS
 10
-59.10355
 20
46.71603
 11
-96.236815
 21
83.849295
  0
LINE
  8
ゴム等
  6
CONTINUOUS
 10
-57.840978
 20
46.71603
 11
-97.494892
 21
86.369945
  0
LINE
  8
ゴム等
  6
CONTINUOUS
 10
-56.24881
 20
46.71603
 11
-98.414132
 21
88.881352
  0
LINE
  8
ゴム等
  6
CONTINUOUS
 10
-91.784965
 20
88.301145
 11
-17.518435
 21
88.301145
  0
LINE
  8
ゴム等
  6
CONTINUOUS
 10
-54.6517
 20
51.16788
 11
-17.518435
 21
88.301145
  0
LINE
  8
ゴム等
  6
CONTINUOUS
 10
-54.6517
 20
49.905307
 11
-14.997785
 21
89.559223
  0
LINE
  8
ゴム等
  6
CONTINUOUS
 10
-94.305615
 20
89.559223
 11
-14.997785
 21
89.559223
  0
LINE
  8
ゴム等
  6
CONTINUOUS
 10
-96.817022
 20
90.478463
 11
-12.486377
 21
90.478463
  0
LINE
  8
ゴム等
  6
CONTINUOUS
 10
-54.6517
 20
48.31314
 11
-12.486377
 21
90.478463
  0
LINE
  8
ゴム等
  6
CONTINUOUS
 10
-50.19985
 20
46.71603
 11
-13.066585
 21
83.849295
  0
LINE
  8
ゴム等
  6
CONTINUOUS
 10
-51.462422
 20
46.71603
 11
-11.808507
 21
86.369945
  0
LINE
  8
ゴム等
  6
CONTINUOUS
 10
-53.05459
 20
46.71603
 11
-10.889268
 21
88.881352
  0
LINE
  8
ゴム等
  6
CONTINUOUS
 10
-50.19985
 20
46.71603
 11
-13.066585
 21
9.582765
  0
LINE
  8
ゴム等
  6
CONTINUOUS
 10
-13.066585
 20
83.849295
 11
-13.066585
 21
9.582765
  0
LINE
  8
ゴム等
  6
CONTINUOUS
 10
-11.808507
 20
86.369945
 11
-11.808507
 21
7.062115
  0
LINE
  8
ゴム等
  6
CONTINUOUS
 10
-51.462422
 20
46.71603
 11
-11.808507
 21
7.062115
  0
LINE
  8
ゴム等
  6
CONTINUOUS
 10
-53.05459
 20
46.71603
 11
-10.889268
 21
4.550707
  0
LINE
  8
ゴム等
  6
CONTINUOUS
 10
-10.889268
 20
88.881352
 11
-10.889268
 21
4.550707
  0
LINE
  8
ゴム等
  6
CONTINUOUS
 10
-54.6517
 20
45.11892
 11
-12.486377
 21
2.953598
  0
LINE
  8
ゴム等
  6
CONTINUOUS
 10
-54.6517
 20
43.526752
 11
-14.997785
 21
3.872838
  0
LINE
  8
ゴム等
  6
CONTINUOUS
 10
-54.6517
 20
42.26418
 11
-17.518435
 21
5.130915
  0
LINE
  8
ゴム等
  6
CONTINUOUS
 10
-54.6517
 20
42.26418
 11
-91.784965
 21
5.130915
  0
LINE
  8
ゴム等
  6
CONTINUOUS
 10
-17.518435
 20
5.130915
 11
-91.784965
 21
5.130915
  0
LINE
  8
ゴム等
  6
CONTINUOUS
 10
-14.997785
 20
3.872838
 11
-94.305615
 21
3.872838
  0
LINE
  8
ゴム等
  6
CONTINUOUS
 10
-54.6517
 20
43.526752
 11
-94.305615
 21
3.872838
  0
LINE
  8
ゴム等
  6
CONTINUOUS
 10
-54.6517
 20
45.11892
 11
-96.817022
 21
2.953598
  0
LINE
  8
ゴム等
  6
CONTINUOUS
 10
-12.486377
 20
2.953598
 11
-96.817022
 21
2.953598
  0
LINE
  8
ゴム等
  6
CONTINUOUS
 10
-96.236815
 20
83.849295
 11
-96.236815
 21
9.582765
  0
LINE
  8
ゴム等
  6
CONTINUOUS
 10
-59.10355
 20
46.71603
 11
-96.236815
 21
9.582765
  0
LINE
  8
ゴム等
  6
CONTINUOUS
 10
-57.840978
 20
46.71603
 11
-97.494892
 21
7.062115
  0
LINE
  8
ゴム等
  6
CONTINUOUS
 10
-97.494892
 20
86.369945
 11
-97.494892
 21
7.062115
  0
LINE
  8
ゴム等
  6
CONTINUOUS
 10
-98.414132
 20
88.881352
 11
-98.414132
 21
4.550707
  0
LINE
  8
ゴム等
  6
CONTINUOUS
 10
-56.24881
 20
46.71603
 11
-98.414132
 21
4.550707
  0
LINE
  8
ゴム等
  6
CONTINUOUS
 10
-10.889268
 20
88.881352
 11
-11.808507
 21
86.369945
  0
LINE
  8
ゴム等
  6
CONTINUOUS
 10
-11.808507
 20
86.369945
 11
-13.066585
 21
83.849295
  0
LINE
  8
ゴム等
  6
CONTINUOUS
 10
-12.486377
 20
90.478463
 11
-14.997785
 21
89.559223
  0
LINE
  8
ゴム等
  6
CONTINUOUS
 10
-14.997785
 20
89.559223
 11
-17.518435
 21
88.301145
  0
LINE
  8
ゴム等
  6
CONTINUOUS
 10
-10.889268
 20
4.550707
 11
-11.808507
 21
7.062115
  0
LINE
  8
ゴム等
  6
CONTINUOUS
 10
-11.808507
 20
7.062115
 11
-13.066585
 21
9.582765
  0
LINE
  8
ゴム等
  6
CONTINUOUS
 10
-12.486377
 20
2.953598
 11
-14.997785
 21
3.872838
  0
LINE
  8
ゴム等
  6
CONTINUOUS
 10
-14.997785
 20
3.872838
 11
-17.518435
 21
5.130915
  0
LINE
  8
ゴム等
  6
CONTINUOUS
 10
-98.414132
 20
88.881352
 11
-97.494892
 21
86.369945
  0
LINE
  8
ゴム等
  6
CONTINUOUS
 10
-97.494892
 20
86.369945
 11
-96.236815
 21
83.849295
  0
LINE
  8
ゴム等
  6
CONTINUOUS
 10
-96.817022
 20
90.478463
 11
-94.305615
 21
89.559223
  0
LINE
  8
ゴム等
  6
CONTINUOUS
 10
-94.305615
 20
89.559223
 11
-91.784965
 21
88.301145
  0
LINE
  8
ゴム等
  6
CONTINUOUS
 10
-98.414132
 20
4.550707
 11
-97.494892
 21
7.062115
  0
LINE
  8
ゴム等
  6
CONTINUOUS
 10
-97.494892
 20
7.062115
 11
-96.236815
 21
9.582765
  0
LINE
  8
ゴム等
  6
CONTINUOUS
 10
-96.817022
 20
2.953598
 11
-94.305615
 21
3.872838
  0
LINE
  8
ゴム等
  6
CONTINUOUS
 10
-94.305615
 20
3.872838
 11
-91.784965
 21
5.130915
  0
LINE
  8
ゴム等
  6
CONTINUOUS
 10
-17.515925
 20
-84.961488
 11
-14.997797
 21
-85.55383
  0
LINE
  8
ゴム等
  6
CONTINUOUS
 10
-14.997797
 20
-85.55383
 11
-12.486392
 21
-86.47307
  0
LINE
  8
ゴム等
  6
CONTINUOUS
 10
-96.817008
 20
-86.47307
 11
-94.305602
 21
-85.55383
  0
LINE
  8
ゴム等
  6
CONTINUOUS
 10
-94.305602
 20
-85.55383
 11
-91.787475
 21
-84.961488
  0
LINE
  8
ゴム等
  6
CONTINUOUS
 10
-14.997797
 20
-85.55383
 11
-94.305602
 21
-85.55383
  0
LINE
  8
ゴム等
  6
CONTINUOUS
 10
-12.486392
 20
-86.47307
 11
-96.817008
 21
-86.47307
  0
LINE
  8
ゴム等
  6
CONTINUOUS
 10
-94.305602
 20
-85.55383
 11
-54.6517
 21
-45.899932
  0
LINE
  8
ゴム等
  6
CONTINUOUS
 10
-14.997797
 20
-85.55383
 11
-54.6517
 21
-45.899932
  0
LINE
  8
ゴム等
  6
CONTINUOUS
 10
-12.486392
 20
-86.47307
 11
-54.6517
 21
-44.307768
  0
LINE
  8
ゴム等
  6
CONTINUOUS
 10
-96.817008
 20
-86.47307
 11
-54.6517
 21
-44.307768
  0
LINE
  8
ゴム等
  6
CONTINUOUS
 10
-91.787475
 20
-84.961488
 11
-54.6517
 21
-47.825717
  0
LINE
  8
ゴム等
  6
CONTINUOUS
 10
-17.515925
 20
-84.961488
 11
-54.6517
 21
-47.825717
  0
LINE
  8
ゴム等
  6
CONTINUOUS
 10
-91.787475
 20
-84.961488
 11
-17.515925
 21
-84.961488
  0
LINE
  8
ゴム等
  6
CONTINUOUS
 10
-54.6517
 20
-44.307768
 11
-54.6517
 21
-47.825717
  0
TEXT
  7
TextStyle03
  8
文字
  6
CONTINUOUS
 10
23.35
 20
-2.625
  1
は排水穴位置を示す
 40
3.0
 72
     5
 11
53.35
 21
-2.625
  0
TEXT
  7
TextStyle03
  8
文字
  6
CONTINUOUS
 10
17.75
 20
-11.15
  1
アンカー数量　１０ヶ所
 40
3.0
 72
     5
 11
54.5
 21
-11.15
  0
TEXT
  7
TextStyle03
  8
文字
  6
CONTINUOUS
 10
-126.925
 20
3.625
  1
アンカーピッチ
 40
3.0
 50
90.0
 72
     5
 11
-126.925
 21
26.875
  0
TEXT
  7
TextStyle03
  8
文字
  6
CONTINUOUS
 10
-114.9
 20
119.65
  1
アンカーピッチ
 40
3.0
 72
     5
 11
-91.65
 21
119.65
  0
TEXT
  7
TextStyle03
  8
文字
  6
CONTINUOUS
 10
75.525
 20
94.725
  1
ＮＳコード：ＮＳ４ＧＫ
 40
5.0
 72
     5
 11
136.775
 21
94.725
  0
TEXT
  7
TextStyle03
  8
文字
  6
CONTINUOUS
 10
75.575
 20
116.725
  1
シリーズ：ＤＦ４Ｋ
 40
5.0
 72
     5
 11
125.575
 21
116.725
  0
TEXT
  7
TextStyle03
  8
文字
  6
CONTINUOUS
 10
75.575
 20
111.1
  1
　　　　　四角錘（固定）1600×1600タイプ
 40
5.0
 72
     5
 11
187.45
 21
111.1
  0
TEXT
  7
TextStyle03
  8
文字
  6
CONTINUOUS
 10
75.575
 20
105.475
  1
図面名　：外観姿図
 40
5.0
 72
     5
 11
125.575
 21
105.475
  0
TEXT
  7
TextStyle03
  8
文字
  6
CONTINUOUS
 10
75.575
 20
99.85
  1
　　　　　　
 40
5.0
 72
     5
 11
108.7
 21
99.85
  0
TEXT
  7
TextStyle03
  8
文字
  6
CONTINUOUS
 10
134.6
 20
-76.625
  1
×４枚
 40
3.0
 72
     5
 11
144.35
 21
-76.625
  0
TEXT
  7
TextStyle03
  8
文字
  6
CONTINUOUS
 10
82.975
 20
-26.9
  1
ガラス寸法
 40
3.0
 72
     5
 11
99.475
 21
-26.9
  0
INSERT
  2
*DIM_0002
  8
寸法
  6
CONTINUOUS
 10
0.0
 20
0.0
  0
INSERT
  2
*DIM_0003
  8
寸法
  6
CONTINUOUS
 10
0.0
 20
0.0
  0
INSERT
  2
*DIM_0004
  8
寸法
  6
CONTINUOUS
 10
0.0
 20
0.0
  0
INSERT
  2
*DIM_0005
  8
寸法
  6
CONTINUOUS
 10
0.0
 20
0.0
  0
INSERT
  2
*DIM_0006
  8
寸法
  6
CONTINUOUS
 10
0.0
 20
0.0
  0
INSERT
  2
*DIM_0007
  8
寸法
  6
CONTINUOUS
 10
0.0
 20
0.0
  0
INSERT
  2
*DIM_0008
  8
寸法
  6
CONTINUOUS
 10
0.0
 20
0.0
  0
INSERT
  2
*DIM_0009
  8
寸法
  6
CONTINUOUS
 10
0.0
 20
0.0
  0
INSERT
  2
*DIM_0010
  8
寸法
  6
CONTINUOUS
 10
0.0
 20
0.0
  0
INSERT
  2
*DIM_0011
  8
寸法
  6
CONTINUOUS
 10
0.0
 20
0.0
  0
INSERT
  2
*DIM_0012
  8
寸法
  6
CONTINUOUS
 10
0.0
 20
0.0
  0
INSERT
  2
*DIM_0013
  8
寸法
  6
CONTINUOUS
 10
0.0
 20
0.0
  0
INSERT
  2
*DIM_0014
  8
寸法
  6
CONTINUOUS
 10
0.0
 20
0.0
  0
ENDSEC
  0
EOF
