  0
SECTION
  2
HEADER
  9
$EXTMIN
 10
-210.0
 20
-148.5
  9
$EXTMAX
 10
210.0
 20
148.5
  9
$PDMODE
 70
    32
  9
$PDSIZE
 40
1.5
  9
$LTSCALE
 40
10.0
  0
ENDSEC
  0
SECTION
  2
TABLES
  0
TABLE
  2
LTYPE
 70
    15
  0
LTYPE
  2
CONTINUOUS
 70
    64
  3
実線
 72
    65
 73
     0
 40
0.0
  0
LTYPE
  2
DASHED
 70
    64
  3
破線A
 72
    65
 73
     2
 40
0.6
 49
0.4
 49
-0.2
  0
LTYPE
  2
DASHEDX2
 70
    64
  3
破線B
 72
    65
 73
     2
 40
1.3
 49
0.9
 49
-0.4
  0
LTYPE
  2
DASHDOT
 70
    64
  3
１点鎖線A
 72
    65
 73
     4
 40
0.5375
 49
0.375
 49
-0.05
 49
0.0625
 49
-0.05
  0
LTYPE
  2
DASHDOTX2
 70
    64
  3
１点鎖線B
 72
    65
 73
     4
 40
1.075
 49
0.75
 49
-0.1
 49
0.125
 49
-0.1
  0
LTYPE
  2
DIVIDE2
 70
    64
  3
２点鎖線A
 72
    65
 73
     6
 40
0.5125
 49
0.3
 49
-0.0375
 49
0.05
 49
-0.0375
 49
0.05
 49
-0.0375
  0
LTYPE
  2
DIVIDE
 70
    64
  3
２点鎖線B
 72
    65
 73
     6
 40
1.05
 49
0.55
 49
-0.1
 49
0.1
 49
-0.1
 49
0.1
 49
-0.1
  0
LTYPE
  2
DOT
 70
    64
  3
点線A
 72
    65
 73
     2
 40
0.1125
 49
0.0625
 49
-0.05
  0
LTYPE
  2
DOTX2
 70
    64
  3
点線B
 72
    65
 73
     2
 40
0.275
 49
0.15
 49
-0.125
  0
LTYPE
  2
CONTINUOUS
 70
    64
  3
実線
 72
    65
 73
     0
 40
0.0
  0
LTYPE
  2
CONTINUOUS
 70
    64
  3
実線
 72
    65
 73
     0
 40
0.0
  0
LTYPE
  2
CONTINUOUS
 70
    64
  3
実線
 72
    65
 73
     0
 40
0.0
  0
LTYPE
  2
CONTINUOUS
 70
    64
  3
実線
 72
    65
 73
     0
 40
0.0
  0
LTYPE
  2
CONTINUOUS
 70
    64
  3
実線
 72
    65
 73
     0
 40
0.0
  0
LTYPE
  2
CONTINUOUS
 70
    64
  3
実線
 72
    65
 73
     0
 40
0.0
  0
ENDTAB
  0
TABLE
  2
LAYER
 70
    34
  0
LAYER
  2
通り芯
 70
     0
 62
    15
  6
CONTINUOUS
  0
LAYER
  2
補助線
 70
     0
 62
    16
  6
DOT
  0
LAYER
  2
躯体
 70
     0
 62
    31
  6
CONTINUOUS
  0
LAYER
  2
型材
 70
     0
 62
    32
  6
CONTINUOUS
  0
LAYER
  2
型材断面
 70
     0
 62
    47
  6
CONTINUOUS
  0
LAYER
  2
ガラス
 70
     0
 62
    48
  6
CONTINUOUS
  0
LAYER
  2
ゴム等
 70
     0
 62
    63
  6
CONTINUOUS
  0
LAYER
  2
ボルト／ビス
 70
     0
 62
    64
  6
CONTINUOUS
  0
LAYER
  2
文字
 70
     0
 62
    79
  6
CONTINUOUS
  0
LAYER
  2
寸法
 70
     0
 62
    80
  6
CONTINUOUS
  0
LAYER
  2
ﾊｯﾁﾝｸﾞ
 70
     0
 62
    95
  6
CONTINUOUS
  0
LAYER
  2
別途部材
 70
     0
 62
    96
  6
CONTINUOUS
  0
LAYER
  2
曲げ物
 70
     0
 62
   111
  6
CONTINUOUS
  0
LAYER
  2
鉄骨等
 70
     0
 62
   112
  6
CONTINUOUS
  0
LAYER
  2
St
 70
     0
 62
   127
  6
CONTINUOUS
  0
LAYER
  2
その他部品等
 70
     0
 62
   128
  6
CONTINUOUS
  0
LAYER
  2
ｶﾞｽｹｯﾄ
 70
     0
 62
   143
  6
CONTINUOUS
  0
LAYER
  2
ｽｹｯﾁ
 70
     0
 62
    14
  6
CONTINUOUS
  0
LAYER
  2
0
 70
     0
 62
    17
  6
CONTINUOUS
  0
LAYER
  2
1
 70
     0
 62
    30
  6
CONTINUOUS
  0
LAYER
  2
4
 70
     0
 62
    33
  6
CONTINUOUS
  0
LAYER
  2
ﾚｲﾔ3
 70
     0
 62
    46
  6
CONTINUOUS
  0
LAYER
  2
外形線
 70
     0
 62
    49
  6
CONTINUOUS
  0
LAYER
  2
部品
 70
     0
 62
    14
  6
CONTINUOUS
  0
LAYER
  2
サッシ芯
 70
     0
 62
    17
  6
DASHDOTX2
  0
LAYER
  2
寸法線
 70
     0
 62
    62
  6
CONTINUOUS
  0
LAYER
  2
姿図外形線
 70
     0
 62
    65
  6
CONTINUOUS
  0
LAYER
  2
姿補助線
 70
     0
 62
    30
  6
CONTINUOUS
  0
LAYER
  2
透視線
 70
     0
 62
    78
  6
DOT
  0
LAYER
  2
用紙
 70
     0
 62
    81
  6
CONTINUOUS
  0
LAYER
  2
実線図枠
 70
     0
 62
    94
  6
CONTINUOUS
  0
LAYER
  2
補助図枠
 70
     0
 62
    97
  6
CONTINUOUS
  0
LAYER
  2
建具記号
 70
     0
 62
   110
  6
CONTINUOUS
  0
LAYER
  2
補助文字
 70
     0
 62
   113
  6
CONTINUOUS
  0
ENDTAB
  0
TABLE
  2
STYLE
 70
    10
  0
STYLE
  2
STANDARD
 70
     0
 40
1.0
 41
1.0
 42
1.0
 50
0.0
 71
     0
  3
TXT
  4
BIGFONT
  0
STYLE
  2
TATE
 70
     4
 40
1.0
 41
1.0
 42
1.0
 50
0.0
 71
     0
  3
TXT
  4
BIGFONT
  0
STYLE
  2
TextStyle03
 70
     0
 40
1.0
 41
1.0
 42
1.0
 50
0.0
 71
     0
  3
MONOTXT
  4
BIGFONT
  0
STYLE
  2
TextStyle04
 70
     0
 40
1.0
 41
1.0
 42
1.0
 50
0.0
 71
     0
  3
MONOTXT
  4
BIGFONT
  0
STYLE
  2
TextStyle05
 70
     0
 40
1.0
 41
1.0
 42
1.0
 50
0.0
 71
     0
  3
MONOTXT
  4
BIGFONT
  0
STYLE
  2
TextStyle06
 70
     0
 40
1.0
 41
1.0
 42
1.0
 50
0.0
 71
     0
  3
MONOTXT
  4
BIGFONT
  0
STYLE
  2
TextStyle07
 70
     0
 40
1.0
 41
1.0
 42
1.0
 50
0.0
 71
     0
  3
MONOTXT
  4
BIGFONT
  0
STYLE
  2
TextStyle08
 70
     0
 40
1.0
 41
1.0
 42
1.0
 50
0.0
 71
     0
  3
MONOTXT
  4
BIGFONT
  0
STYLE
  2
TextStyle09
 70
     0
 40
1.0
 41
1.0
 42
1.0
 50
0.0
 71
     0
  3
MONOTXT
  4
BIGFONT
  0
STYLE
  2
TextStyle10
 70
     0
 40
1.0
 41
1.0
 42
1.0
 50
0.0
 71
     0
  3
MONOTXT
  4
BIGFONT
  0
ENDTAB
  0
ENDSEC
  0
SECTION
  2
BLOCKS
  0
BLOCK
  2
*GRP_0001
 70
    65
 10
0.0
 20
0.0
  0
LINE
  8
型材断面
  6
CONTINUOUS
 10
195.0
 20
133.5
 11
195.0
 21
-133.5
  0
LINE
  8
型材断面
  6
CONTINUOUS
 10
195.0
 20
-133.5
 11
-185.0
 21
-133.5
  0
LINE
  8
型材断面
  6
CONTINUOUS
 10
-185.0
 20
-133.5
 11
-185.0
 21
133.5
  0
LINE
  8
型材断面
  6
CONTINUOUS
 10
195.0
 20
133.5
 11
-185.0
 21
133.5
  0
LINE
  8
型材断面
  6
CONTINUOUS
 10
145.0
 20
-133.5
 11
145.0
 21
-118.5
  0
LINE
  8
型材断面
  6
CONTINUOUS
 10
195.0
 20
-118.5
 11
145.0
 21
-118.5
  0
ENDBLK
  0
BLOCK
  2
*DIM_0002
 70
    65
 10
0.0
 20
0.0
  0
LINE
  8
寸法
  6
CONTINUOUS
 10
-25.450185
 20
-100.855165
 11
-7.166423
 21
-100.855165
  0
LINE
  8
寸法
  6
CONTINUOUS
 10
-25.465185
 20
-104.055163
 11
-7.166423
 21
-104.055163
  0
LINE
  8
寸法
  6
CONTINUOUS
 10
-7.166423
 20
-100.855165
 11
-7.166423
 21
-104.055163
  0
POINT
  8
寸法
 10
-7.166423
 20
-100.855165
  0
POINT
  8
寸法
 10
-7.166423
 20
-104.055163
  0
TEXT
  7
TextStyle03
  8
寸法
  6
CONTINUOUS
 10
-4.175
 20
-104.06875
  1
64
 40
3.0
 50
90.0
 72
     5
 11
-4.175
 21
-100.88125
  0
ENDBLK
  0
BLOCK
  2
*DIM_0003
 70
    65
 10
0.0
 20
0.0
  0
LINE
  8
寸法
  6
CONTINUOUS
 10
-80.250185
 20
-50.84318
 11
-80.250185
 21
-44.22983
  0
LINE
  8
寸法
  6
CONTINUOUS
 10
-75.250185
 20
-50.84318
 11
-75.250185
 21
-44.22983
  0
LINE
  8
寸法
  6
CONTINUOUS
 10
-80.250185
 20
-44.22983
 11
-75.250185
 21
-44.22983
  0
POINT
  8
寸法
 10
-80.250185
 20
-44.22983
  0
POINT
  8
寸法
 10
-75.250185
 20
-44.22983
  0
TEXT
  7
TextStyle03
  8
寸法
  6
CONTINUOUS
 10
-80.2125
 20
-43.875
  1
100
 40
3.0
 72
     5
 11
-75.3375
 21
-43.875
  0
ENDBLK
  0
BLOCK
  2
*DIM_0004
 70
    65
 10
0.0
 20
0.0
  0
LINE
  8
寸法
  6
CONTINUOUS
 10
-67.773117
 20
-49.768215
 11
-67.051725
 21
-49.768215
  0
LINE
  8
寸法
  6
CONTINUOUS
 10
-74.250185
 20
-52.26818
 11
-67.051725
 21
-52.26818
  0
LINE
  8
寸法
  6
CONTINUOUS
 10
-67.051725
 20
-49.768215
 11
-67.051725
 21
-52.26818
  0
POINT
  8
寸法
 10
-67.051725
 20
-49.768215
  0
POINT
  8
寸法
 10
-67.051725
 20
-52.26818
  0
TEXT
  7
TextStyle03
  8
寸法
  6
CONTINUOUS
 10
-64.075
 20
-52.61875
  1
50
 40
3.0
 50
90.0
 72
     5
 11
-64.075
 21
-49.43125
  0
ENDBLK
  0
BLOCK
  2
*DIM_0005
 70
    65
 10
0.0
 20
0.0
  0
LINE
  8
寸法
  6
CONTINUOUS
 10
-26.875185
 20
-99.855165
 11
-26.875185
 21
-36.493875
  0
LINE
  8
寸法
  6
CONTINUOUS
 10
-32.750185
 20
-36.493875
 11
-26.875185
 21
-36.493875
  0
POINT
  8
寸法
 10
-32.750185
 20
-36.493875
  0
POINT
  8
寸法
 10
-26.875185
 20
-36.493875
  0
TEXT
  7
TextStyle03
  8
寸法
  6
CONTINUOUS
 10
-25.525
 20
-36.125
  1
117.5
 40
3.0
 72
     5
 11
-17.275
 21
-36.125
  0
ENDBLK
  0
BLOCK
  2
*DIM_0006
 70
    65
 10
0.0
 20
0.0
  0
LINE
  8
寸法
  6
CONTINUOUS
 10
-128.625185
 20
-99.855165
 11
-128.625185
 21
-36.493875
  0
LINE
  8
寸法
  6
CONTINUOUS
 10
-122.750185
 20
-36.493875
 11
-128.625185
 21
-36.493875
  0
POINT
  8
寸法
 10
-122.750185
 20
-36.493875
  0
POINT
  8
寸法
 10
-128.625185
 20
-36.493875
  0
TEXT
  7
TextStyle03
  8
寸法
  6
CONTINUOUS
 10
-138.25
 20
-36.125
  1
117.5
 40
3.0
 72
     5
 11
-130.0
 21
-36.125
  0
ENDBLK
  0
BLOCK
  2
*DIM_0007
 70
    65
 10
0.0
 20
0.0
  0
LINE
  8
寸法
  6
CONTINUOUS
 10
-112.750185
 20
104.222405
 11
-112.750185
 21
115.15316
  0
LINE
  8
寸法
  6
CONTINUOUS
 10
-77.750185
 20
104.222405
 11
-77.750185
 21
115.15316
  0
LINE
  8
寸法
  6
CONTINUOUS
 10
-112.750185
 20
115.15316
 11
-77.750185
 21
115.15316
  0
POINT
  8
寸法
 10
-112.750185
 20
115.15316
  0
POINT
  8
寸法
 10
-77.750185
 20
115.15316
  0
TEXT
  7
TextStyle03
  8
寸法
  6
CONTINUOUS
 10
-97.7125
 20
115.525
  1
700
 40
3.0
 72
     5
 11
-92.8375
 21
115.525
  0
ENDBLK
  0
BLOCK
  2
*DIM_0008
 70
    65
 10
0.0
 20
0.0
  0
LINE
  8
寸法
  6
CONTINUOUS
 10
-77.750185
 20
104.222405
 11
-77.750185
 21
115.15316
  0
LINE
  8
寸法
  6
CONTINUOUS
 10
-42.750185
 20
104.222405
 11
-42.750185
 21
115.15316
  0
LINE
  8
寸法
  6
CONTINUOUS
 10
-77.750185
 20
115.15316
 11
-42.750185
 21
115.15316
  0
POINT
  8
寸法
 10
-42.750185
 20
115.15316
  0
TEXT
  7
TextStyle03
  8
寸法
  6
CONTINUOUS
 10
-62.7125
 20
115.525
  1
700
 40
3.0
 72
     5
 11
-57.8375
 21
115.525
  0
ENDBLK
  0
BLOCK
  2
*DIM_0009
 70
    65
 10
0.0
 20
0.0
  0
LINE
  8
寸法
  6
CONTINUOUS
 10
-141.394435
 20
77.674245
 11
-152.32519
 21
77.67425
  0
LINE
  8
寸法
  6
CONTINUOUS
 10
-141.394438
 20
42.674245
 11
-152.325192
 21
42.67425
  0
LINE
  8
寸法
  6
CONTINUOUS
 10
-152.32519
 20
77.67425
 11
-152.325192
 21
42.67425
  0
POINT
  8
寸法
 10
-152.32519
 20
77.67425
  0
POINT
  8
寸法
 10
-152.325192
 20
42.67425
  0
TEXT
  7
TextStyle03
  8
寸法
  6
CONTINUOUS
 10
-152.725
 20
57.7125
  1
700
 40
3.0
 50
90.0
 72
     5
 11
-152.725
 21
62.5875
  0
ENDBLK
  0
BLOCK
  2
*DIM_0010
 70
    65
 10
0.0
 20
0.0
  0
LINE
  8
寸法
  6
CONTINUOUS
 10
-141.394438
 20
42.674245
 11
-152.325192
 21
42.67425
  0
LINE
  8
寸法
  6
CONTINUOUS
 10
-141.39444
 20
7.674245
 11
-152.325195
 21
7.67425
  0
LINE
  8
寸法
  6
CONTINUOUS
 10
-152.325192
 20
42.67425
 11
-152.325195
 21
7.67425
  0
POINT
  8
寸法
 10
-152.325195
 20
7.67425
  0
TEXT
  7
TextStyle03
  8
寸法
  6
CONTINUOUS
 10
-152.725
 20
22.7125
  1
700
 40
3.0
 50
90.0
 72
     5
 11
-152.725
 21
27.5875
  0
ENDBLK
  0
BLOCK
  2
*DIM_0011
 70
    65
 10
0.0
 20
0.0
  0
LINE
  8
寸法
  6
CONTINUOUS
 10
-76.750185
 20
-49.768215
 11
-7.166423
 21
-49.768215
  0
LINE
  8
寸法
  6
CONTINUOUS
 10
-7.166423
 20
-100.855165
 11
-7.166423
 21
-49.768215
  0
POINT
  8
寸法
 10
-7.166423
 20
-100.855165
  0
POINT
  8
寸法
 10
-7.166423
 20
-49.768215
  0
TEXT
  7
TextStyle03
  8
寸法
  6
CONTINUOUS
 10
-7.55
 20
-80.29375
  1
1021.7
 40
3.0
 50
90.0
 72
     5
 11
-7.55
 21
-70.35625
  0
ENDBLK
  0
BLOCK
  2
*DIM_0012
 70
    65
 10
0.0
 20
0.0
  0
LINE
  8
寸法
  6
CONTINUOUS
 10
-122.750185
 20
-39.773415
 11
-122.750185
 21
-36.493875
  0
LINE
  8
寸法
  6
CONTINUOUS
 10
-32.750185
 20
-39.773415
 11
-32.750185
 21
-36.493875
  0
LINE
  8
寸法
  6
CONTINUOUS
 10
-122.750185
 20
-36.493875
 11
-32.750185
 21
-36.493875
  0
POINT
  8
寸法
 10
-122.750185
 20
-36.493875
  0
POINT
  8
寸法
 10
-32.750185
 20
-36.493875
  0
TEXT
  7
TextStyle03
  8
寸法
  6
CONTINUOUS
 10
-89.49375
 20
-36.125
  1
呼称寸法　1800
 40
3.0
 72
     5
 11
-66.05625
 21
-36.125
  0
ENDBLK
  0
BLOCK
  2
*DIM_0013
 70
    65
 10
0.0
 20
0.0
  0
LINE
  8
寸法
  6
CONTINUOUS
 10
123.991675
 20
-87.88521
 11
123.991675
 21
-95.660448
  0
LINE
  8
寸法
  6
CONTINUOUS
 10
78.896675
 20
-87.88521
 11
78.896675
 21
-95.660448
  0
LINE
  8
寸法
  6
CONTINUOUS
 10
123.991675
 20
-95.660448
 11
78.896675
 21
-95.660448
  0
POINT
  8
寸法
 10
123.991675
 20
-95.660448
  0
POINT
  8
寸法
 10
78.896675
 20
-95.660448
  0
TEXT
  7
TextStyle03
  8
寸法
  6
CONTINUOUS
 10
97.325
 20
-95.3
  1
901.9
 40
3.0
 72
     5
 11
105.575
 21
-95.3
  0
ENDBLK
  0
BLOCK
  2
*DIM_0014
 70
    65
 10
0.0
 20
0.0
  0
LINE
  8
寸法
  6
CONTINUOUS
 10
128.991675
 20
-82.88521
 11
138.58757
 21
-82.88521
  0
LINE
  8
寸法
  6
CONTINUOUS
 10
128.991675
 20
-19.111525
 11
138.58757
 21
-19.111525
  0
LINE
  8
寸法
  6
CONTINUOUS
 10
138.58757
 20
-82.88521
 11
138.58757
 21
-19.111525
  0
POINT
  8
寸法
 10
138.58757
 20
-82.88521
  0
POINT
  8
寸法
 10
138.58757
 20
-19.111525
  0
TEXT
  7
TextStyle03
  8
寸法
  6
CONTINUOUS
 10
138.225
 20
-55.96875
  1
1275.5
 40
3.0
 50
90.0
 72
     5
 11
138.225
 21
-46.03125
  0
ENDBLK
  0
ENDSEC
  0
SECTION
  2
ENTITIES
  0
POLYLINE
  8
通り芯
  6
CONTINUOUS
 66
     1
 70
     1
  0
VERTEX
  8
通り芯
 10
-210.0
 20
-148.5
  0
VERTEX
  8
通り芯
 10
210.0
 20
-148.5
  0
VERTEX
  8
通り芯
 10
210.0
 20
148.5
  0
VERTEX
  8
通り芯
 10
-210.0
 20
148.5
  0
SEQEND
  0
INSERT
  2
*GRP_0001
  8
型材断面
  6
CONTINUOUS
 10
0.0
 20
0.0
  0
LINE
  8
型材断面
  6
CONTINUOUS
 10
10.516347
 20
-1.556797
 11
8.272903
 21
-5.442558
  0
LINE
  8
型材断面
  6
CONTINUOUS
 10
10.516347
 20
-1.556797
 11
12.759793
 21
-5.442558
  0
LINE
  8
型材断面
  6
CONTINUOUS
 10
12.759793
 20
-5.442558
 11
8.272903
 21
-5.442558
  0
LINE
  8
型材断面
  6
CONTINUOUS
 10
1.482467
 20
-6.85045
 11
54.139148
 21
-6.85045
  0
LINE
  8
型材断面
  6
CONTINUOUS
 10
-76.344505
 20
42.674245
 11
-75.250185
 21
41.579927
  0
LINE
  8
型材断面
  6
CONTINUOUS
 10
-75.250185
 20
41.579927
 11
-75.250185
 21
40.174247
  0
LINE
  8
型材断面
  6
CONTINUOUS
 10
-76.655865
 20
40.174245
 11
-75.250185
 21
40.174247
  0
LINE
  8
型材断面
  6
CONTINUOUS
 10
-77.750185
 20
41.268565
 11
-76.655862
 21
40.174245
  0
LINE
  8
型材断面
  6
CONTINUOUS
 10
-77.750185
 20
42.674245
 11
-75.250185
 21
40.174247
  0
LINE
  8
型材断面
  6
CONTINUOUS
 10
-76.344505
 20
42.674245
 11
-75.250185
 21
43.768563
  0
LINE
  8
型材断面
  6
CONTINUOUS
 10
-75.250185
 20
43.768563
 11
-75.250185
 21
45.174243
  0
LINE
  8
型材断面
  6
CONTINUOUS
 10
-76.655865
 20
45.174245
 11
-75.250185
 21
45.174243
  0
LINE
  8
型材断面
  6
CONTINUOUS
 10
-77.750185
 20
44.079925
 11
-76.655862
 21
45.174245
  0
LINE
  8
型材断面
  6
CONTINUOUS
 10
-77.750185
 20
42.674245
 11
-75.250185
 21
45.174243
  0
LINE
  8
型材断面
  6
CONTINUOUS
 10
-79.155865
 20
42.674245
 11
-80.250185
 21
43.768563
  0
LINE
  8
型材断面
  6
CONTINUOUS
 10
-80.250185
 20
43.768563
 11
-80.250185
 21
45.174243
  0
LINE
  8
型材断面
  6
CONTINUOUS
 10
-78.844505
 20
45.174245
 11
-80.250185
 21
45.174243
  0
LINE
  8
型材断面
  6
CONTINUOUS
 10
-77.750185
 20
44.079925
 11
-78.844507
 21
45.174245
  0
LINE
  8
型材断面
  6
CONTINUOUS
 10
-77.750185
 20
42.674245
 11
-80.250185
 21
45.174243
  0
LINE
  8
型材断面
  6
CONTINUOUS
 10
-79.155865
 20
42.674245
 11
-80.250185
 21
41.579927
  0
LINE
  8
型材断面
  6
CONTINUOUS
 10
-80.250185
 20
41.579927
 11
-80.250185
 21
40.174247
  0
LINE
  8
型材断面
  6
CONTINUOUS
 10
-78.844505
 20
40.174245
 11
-80.250185
 21
40.174247
  0
LINE
  8
型材断面
  6
CONTINUOUS
 10
-77.750185
 20
41.268565
 11
-78.844507
 21
40.174245
  0
LINE
  8
型材断面
  6
CONTINUOUS
 10
-77.750185
 20
42.674245
 11
-80.250185
 21
40.174247
  0
LINE
  8
型材断面
  6
CONTINUOUS
 10
1.482467
 20
-13.906238
 11
54.139148
 21
-13.906238
  0
LINE
  8
型材断面
  6
CONTINUOUS
 10
-24.726307
 20
42.674245
 11
-20.840547
 21
40.4308
  0
LINE
  8
型材断面
  6
CONTINUOUS
 10
-24.726307
 20
42.674245
 11
-20.840547
 21
44.91769
  0
LINE
  8
型材断面
  6
CONTINUOUS
 10
-20.840547
 20
44.91769
 11
-20.840547
 21
40.4308
  0
LINE
  8
型材断面
  6
CONTINUOUS
 10
-26.875185
 20
-100.855165
 11
-26.786888
 21
-100.766867
  0
LINE
  8
型材断面
  6
CONTINUOUS
 10
-77.750185
 20
-100.855165
 11
-26.875185
 21
-100.855165
  0
LINE
  8
型材断面
  6
CONTINUOUS
 62
    47
 10
-27.725187
 20
-104.055163
 11
-27.725187
 21
-104.830165
  0
LINE
  8
型材断面
  6
CONTINUOUS
 62
    47
 10
-77.750185
 20
-104.830165
 11
-27.725187
 21
-104.830165
  0
LINE
  8
型材断面
  6
CONTINUOUS
 62
    47
 10
-26.875185
 20
-100.855165
 11
-26.875185
 21
-104.055163
  0
LINE
  8
型材断面
  6
CONTINUOUS
 62
    47
 10
-77.750185
 20
-104.055163
 11
-26.875185
 21
-104.055163
  0
LINE
  8
型材断面
  6
CONTINUOUS
 10
-128.625185
 20
-100.855165
 11
-128.713483
 21
-100.766867
  0
LINE
  8
型材断面
  6
CONTINUOUS
 10
-77.750185
 20
-100.855165
 11
-128.625185
 21
-100.855165
  0
LINE
  8
型材断面
  6
CONTINUOUS
 62
    47
 10
-127.775183
 20
-104.055163
 11
-127.775183
 21
-104.830165
  0
LINE
  8
型材断面
  6
CONTINUOUS
 62
    47
 10
-77.750185
 20
-104.830165
 11
-127.775183
 21
-104.830165
  0
LINE
  8
型材断面
  6
CONTINUOUS
 62
    47
 10
-128.625185
 20
-100.855165
 11
-128.625185
 21
-104.055163
  0
LINE
  8
型材断面
  6
CONTINUOUS
 62
    47
 10
-77.750185
 20
-104.055163
 11
-128.625185
 21
-104.055163
  0
LINE
  8
型材断面
  6
CONTINUOUS
 10
-130.774063
 20
42.674245
 11
-134.659822
 21
40.4308
  0
LINE
  8
型材断面
  6
CONTINUOUS
 10
-130.774063
 20
42.674245
 11
-134.659822
 21
44.91769
  0
LINE
  8
型材断面
  6
CONTINUOUS
 10
-134.659822
 20
44.91769
 11
-134.659822
 21
40.4308
  0
LINE
  8
型材断面
  6
DASHDOT
 10
-122.750185
 20
42.674245
 11
-32.750185
 21
42.674245
  0
LINE
  8
型材断面
  6
DASHDOT
 10
-77.750185
 20
-110.841007
 11
-77.750185
 21
87.674245
  0
LINE
  8
型材断面
  6
CONTINUOUS
 10
-77.750185
 20
95.69812
 11
-79.99363
 21
99.58388
  0
LINE
  8
型材断面
  6
CONTINUOUS
 10
-77.750185
 20
95.69812
 11
-75.50674
 21
99.58388
  0
LINE
  8
型材断面
  6
CONTINUOUS
 10
-75.50674
 20
99.58388
 11
-79.99363
 21
99.58388
  0
LINE
  8
型材断面
  6
DASHDOT
 10
-32.750185
 20
-110.841007
 11
-32.750185
 21
87.674245
  0
LINE
  8
型材断面
  6
CONTINUOUS
 10
-26.875185
 20
93.549245
 11
-26.875185
 21
42.249245
  0
LINE
  8
型材断面
  6
CONTINUOUS
 10
-26.875185
 20
93.549245
 11
-75.675185
 21
44.749243
  0
LINE
  8
型材断面
  6
CONTINUOUS
 10
-26.875185
 20
92.362805
 11
-75.250185
 21
43.987808
  0
LINE
  8
型材断面
  6
CONTINUOUS
 10
-28.061622
 20
93.549245
 11
-76.43662
 21
45.174245
  0
LINE
  8
型材断面
  6
CONTINUOUS
 10
-26.875185
 20
93.549245
 11
-77.750185
 21
93.549245
  0
LINE
  8
型材断面
  6
DASHDOT
 10
-122.750185
 20
-110.841007
 11
-122.750185
 21
87.674245
  0
LINE
  8
型材断面
  6
CONTINUOUS
 10
-128.625185
 20
93.549245
 11
-128.625185
 21
42.249245
  0
LINE
  8
型材断面
  6
CONTINUOUS
 10
-128.625185
 20
93.549245
 11
-79.825185
 21
44.749243
  0
LINE
  8
型材断面
  6
CONTINUOUS
 10
-128.625185
 20
92.362805
 11
-80.250185
 21
43.987808
  0
LINE
  8
型材断面
  6
CONTINUOUS
 10
-127.438748
 20
93.549245
 11
-79.06375
 21
45.174245
  0
LINE
  8
型材断面
  6
CONTINUOUS
 10
-128.625185
 20
93.549245
 11
-77.750185
 21
93.549245
  0
LINE
  8
型材断面
  6
DASHDOT
 10
-122.750185
 20
87.674245
 11
-32.750185
 21
87.674245
  0
LINE
  8
型材断面
  6
CONTINUOUS
 10
-77.750185
 20
-10.34963
 11
-79.99363
 21
-14.23539
  0
LINE
  8
型材断面
  6
CONTINUOUS
 10
-77.750185
 20
-10.34963
 11
-75.50674
 21
-14.23539
  0
LINE
  8
型材断面
  6
CONTINUOUS
 10
-75.50674
 20
-14.23539
 11
-79.99363
 21
-14.23539
  0
LINE
  8
型材断面
  6
CONTINUOUS
 10
-26.875185
 20
-8.200755
 11
-26.875185
 21
43.099245
  0
LINE
  8
型材断面
  6
CONTINUOUS
 10
-26.875185
 20
-8.200755
 11
-75.675185
 21
40.599247
  0
LINE
  8
型材断面
  6
CONTINUOUS
 10
-26.875185
 20
-7.014315
 11
-75.250185
 21
41.360683
  0
LINE
  8
型材断面
  6
CONTINUOUS
 10
-28.061622
 20
-8.200755
 11
-76.43662
 21
40.174245
  0
LINE
  8
型材断面
  6
CONTINUOUS
 10
-26.875185
 20
-8.200755
 11
-77.750185
 21
-8.200755
  0
LINE
  8
型材断面
  6
CONTINUOUS
 10
-128.625185
 20
-8.200755
 11
-128.625185
 21
43.099245
  0
LINE
  8
型材断面
  6
CONTINUOUS
 10
-128.625185
 20
-8.200755
 11
-79.825185
 21
40.599247
  0
LINE
  8
型材断面
  6
CONTINUOUS
 10
-128.625185
 20
-7.014315
 11
-80.250185
 21
41.360683
  0
LINE
  8
型材断面
  6
CONTINUOUS
 10
-127.438748
 20
-8.200755
 11
-79.06375
 21
40.174245
  0
LINE
  8
型材断面
  6
CONTINUOUS
 10
-128.625185
 20
-8.200755
 11
-77.750185
 21
-8.200755
  0
LINE
  8
型材断面
  6
DASHDOT
 10
-122.750185
 20
-2.325755
 11
-32.750185
 21
-2.325755
  0
LINE
  8
型材断面
  6
CONTINUOUS
 10
-77.750185
 20
-49.768215
 11
-77.750185
 21
-51.069098
  0
LINE
  8
型材断面
  6
CONTINUOUS
 10
-77.750185
 20
-49.768215
 11
-77.750185
 21
-51.069098
  0
LINE
  8
型材断面
  6
CONTINUOUS
 10
-77.750185
 20
-49.768215
 11
-77.750185
 21
-51.069098
  0
LINE
  8
型材断面
  6
CONTINUOUS
 10
-77.750185
 20
-49.768215
 11
-77.750185
 21
-51.069098
  0
LINE
  8
型材断面
  6
CONTINUOUS
 10
-77.750185
 20
-49.76818
 11
-80.250185
 21
-52.26818
  0
LINE
  8
型材断面
  6
CONTINUOUS
 10
-77.750185
 20
-51.173862
 11
-78.844505
 21
-52.26818
  0
LINE
  8
型材断面
  6
CONTINUOUS
 10
-80.250185
 20
-52.26818
 11
-78.844505
 21
-52.26818
  0
LINE
  8
型材断面
  6
CONTINUOUS
 10
-75.250185
 20
-52.26818
 11
-76.655865
 21
-52.26818
  0
LINE
  8
型材断面
  6
CONTINUOUS
 10
-77.750185
 20
-51.173862
 11
-76.655865
 21
-52.26818
  0
LINE
  8
型材断面
  6
CONTINUOUS
 10
-77.750185
 20
-49.76818
 11
-75.250185
 21
-52.26818
  0
LINE
  8
型材断面
  6
CONTINUOUS
 10
-27.96412
 20
-100.855165
 11
-76.5511
 21
-52.26818
  0
LINE
  8
型材断面
  6
CONTINUOUS
 10
-26.786888
 20
-100.766867
 11
-75.285573
 21
-52.26818
  0
LINE
  8
型材断面
  6
CONTINUOUS
 10
-127.53625
 20
-100.855165
 11
-78.94927
 21
-52.26818
  0
LINE
  8
型材断面
  6
CONTINUOUS
 10
-128.713483
 20
-100.766867
 11
-80.214797
 21
-52.26818
  0
LINE
  8
型材断面
  6
CONTINUOUS
 10
80.341033
 20
-25.770593
 11
104.272655
 21
-25.770593
  0
LINE
  8
ガラス
  6
CONTINUOUS
 10
-65.101722
 20
14.050007
 11
-68.974358
 21
10.177372
  0
LINE
  8
ガラス
  6
CONTINUOUS
 10
-66.70008
 20
13.169685
 11
-68.094035
 21
11.77573
  0
LINE
  8
ガラス
  6
CONTINUOUS
 10
-45.068925
 20
32.603015
 11
-48.94156
 21
28.73038
  0
LINE
  8
ガラス
  6
CONTINUOUS
 10
-46.667282
 20
31.722693
 11
-48.061237
 21
30.328737
  0
LINE
  8
ガラス
  6
CONTINUOUS
 10
-45.068925
 20
55.149863
 11
-48.94156
 21
51.277227
  0
LINE
  8
ガラス
  6
CONTINUOUS
 10
-46.667282
 20
54.26954
 11
-48.061237
 21
52.875585
  0
LINE
  8
ガラス
  6
CONTINUOUS
 10
-107.94214
 20
32.603015
 11
-111.814775
 21
28.73038
  0
LINE
  8
ガラス
  6
CONTINUOUS
 10
-109.540498
 20
31.722693
 11
-110.934453
 21
30.328737
  0
LINE
  8
ガラス
  6
CONTINUOUS
 10
-107.94214
 20
55.149863
 11
-111.814775
 21
51.277227
  0
LINE
  8
ガラス
  6
CONTINUOUS
 10
-87.278885
 20
14.050007
 11
-91.15152
 21
10.177372
  0
LINE
  8
ガラス
  6
CONTINUOUS
 10
-88.877243
 20
13.169685
 11
-90.271198
 21
11.77573
  0
LINE
  8
ガラス
  6
CONTINUOUS
 10
-65.101722
 20
74.278032
 11
-68.974358
 21
70.405398
  0
LINE
  8
ガラス
  6
CONTINUOUS
 10
-66.70008
 20
73.39771
 11
-68.094035
 21
72.003755
  0
LINE
  8
ガラス
  6
CONTINUOUS
 10
-87.278885
 20
74.278032
 11
-91.15152
 21
70.405398
  0
LINE
  8
ガラス
  6
CONTINUOUS
 10
-92.77787
 20
-79.662935
 11
-96.650505
 21
-83.53557
  0
LINE
  8
ガラス
  6
CONTINUOUS
 10
-93.658193
 20
-81.261293
 11
-95.052147
 21
-82.655248
  0
LINE
  8
ガラス
  6
CONTINUOUS
 10
-94.376227
 20
-80.543257
 11
-95.770183
 21
-81.937212
  0
LINE
  8
ガラス
  6
CONTINUOUS
 10
-60.68237
 20
-79.662935
 11
-64.555005
 21
-83.53557
  0
LINE
  8
ガラス
  6
CONTINUOUS
 10
-61.562692
 20
-81.261293
 11
-62.956647
 21
-82.655248
  0
LINE
  8
ガラス
  6
CONTINUOUS
 10
-62.280728
 20
-80.543257
 11
-63.674683
 21
-81.937212
  0
LINE
  8
ガラス
  6
CONTINUOUS
 10
-65.982045
 20
72.679675
 11
-67.376
 21
71.28572
  0
LINE
  8
ガラス
  6
CONTINUOUS
 10
-88.159207
 20
72.679675
 11
-89.553162
 21
71.28572
  0
LINE
  8
ガラス
  6
CONTINUOUS
 10
-88.877243
 20
73.39771
 11
-90.271198
 21
72.003755
  0
LINE
  8
ガラス
  6
CONTINUOUS
 10
-108.822462
 20
53.551505
 11
-110.216417
 21
52.15755
  0
LINE
  8
ガラス
  6
CONTINUOUS
 10
-109.540498
 20
54.26954
 11
-110.934453
 21
52.875585
  0
LINE
  8
ガラス
  6
CONTINUOUS
 10
-45.949247
 20
53.551505
 11
-47.343203
 21
52.15755
  0
LINE
  8
ガラス
  6
CONTINUOUS
 10
-45.949247
 20
31.004658
 11
-47.343203
 21
29.610702
  0
LINE
  8
ガラス
  6
CONTINUOUS
 10
-108.822462
 20
31.004658
 11
-110.216417
 21
29.610702
  0
LINE
  8
ガラス
  6
CONTINUOUS
 10
-88.159207
 20
12.45165
 11
-89.553162
 21
11.057695
  0
LINE
  8
ガラス
  6
CONTINUOUS
 10
-65.982045
 20
12.45165
 11
-67.376
 21
11.057695
  0
LINE
  8
ゴム等
  6
CONTINUOUS
 10
-30.612735
 20
-99.699252
 11
-77.750185
 21
-99.699252
  0
LINE
  8
ゴム等
  6
CONTINUOUS
 10
-30.253963
 20
-99.776832
 11
-77.750185
 21
-99.776832
  0
LINE
  8
ゴム等
  6
CONTINUOUS
 10
-32.998482
 20
-99.195407
 11
-31.037735
 21
-99.699252
  0
LINE
  8
ゴム等
  6
CONTINUOUS
 10
-31.037735
 20
-99.699252
 11
-30.678963
 21
-99.776832
  0
LINE
  8
ゴム等
  6
CONTINUOUS
 10
-30.678963
 20
-99.776832
 11
-27.96412
 21
-100.855165
  0
LINE
  8
ゴム等
  6
CONTINUOUS
 10
-73.993563
 20
41.849245
 11
-28.105962
 21
41.849245
  0
LINE
  8
ゴム等
  6
CONTINUOUS
 10
-71.92012
 20
40.724245
 11
-29.066505
 21
40.724245
  0
LINE
  8
ゴム等
  6
CONTINUOUS
 10
-73.993563
 20
43.499245
 11
-28.105962
 21
43.499245
  0
LINE
  8
ゴム等
  6
CONTINUOUS
 10
-71.92012
 20
44.624245
 11
-29.066505
 21
44.624245
  0
LINE
  8
ゴム等
  6
CONTINUOUS
 10
-32.573482
 20
-99.195407
 11
-75.800185
 21
-99.195407
  0
LINE
  8
ゴム等
  6
CONTINUOUS
 10
-124.887635
 20
-99.699252
 11
-77.750185
 21
-99.699252
  0
LINE
  8
ゴム等
  6
CONTINUOUS
 10
-125.246407
 20
-99.776832
 11
-77.750185
 21
-99.776832
  0
LINE
  8
ゴム等
  6
CONTINUOUS
 10
-122.501887
 20
-99.195407
 11
-124.462635
 21
-99.699252
  0
LINE
  8
ゴム等
  6
CONTINUOUS
 10
-124.462635
 20
-99.699252
 11
-124.821407
 21
-99.776832
  0
LINE
  8
ゴム等
  6
CONTINUOUS
 10
-124.821407
 20
-99.776832
 11
-127.53625
 21
-100.855165
  0
LINE
  8
ゴム等
  6
CONTINUOUS
 10
-81.506808
 20
43.499245
 11
-127.394408
 21
43.499245
  0
LINE
  8
ゴム等
  6
CONTINUOUS
 10
-83.58025
 20
44.624245
 11
-126.433865
 21
44.624245
  0
LINE
  8
ゴム等
  6
CONTINUOUS
 10
-81.506808
 20
41.849245
 11
-127.394408
 21
41.849245
  0
LINE
  8
ゴム等
  6
CONTINUOUS
 10
-83.58025
 20
40.724245
 11
-126.433865
 21
40.724245
  0
LINE
  8
ゴム等
  6
CONTINUOUS
 10
-122.926887
 20
-99.195407
 11
-79.700185
 21
-99.195407
  0
LINE
  8
ゴム等
  6
CONTINUOUS
 10
-75.800185
 20
48.50431
 11
-75.800185
 21
91.357922
  0
LINE
  8
ゴム等
  6
CONTINUOUS
 10
-76.925185
 20
46.430868
 11
-76.925185
 21
92.318465
  0
LINE
  8
ゴム等
  6
CONTINUOUS
 10
-79.700185
 20
48.50431
 11
-79.700185
 21
91.357922
  0
LINE
  8
ゴム等
  6
CONTINUOUS
 10
-78.575185
 20
46.430868
 11
-78.575185
 21
92.318465
  0
LINE
  8
ゴム等
  6
CONTINUOUS
 10
-32.94657
 20
91.357922
 11
-31.037585
 21
92.318465
  0
LINE
  8
ゴム等
  6
CONTINUOUS
 10
-31.037585
 20
92.318465
 11
-30.759357
 21
92.492125
  0
LINE
  8
ゴム等
  6
CONTINUOUS
 10
-30.67883
 20
92.50626
 11
-28.061622
 21
93.549245
  0
LINE
  8
ゴム等
  6
CONTINUOUS
 10
-29.066505
 20
87.47786
 11
-28.105962
 21
89.386843
  0
LINE
  8
ゴム等
  6
CONTINUOUS
 10
-28.105962
 20
89.386843
 11
-27.932302
 21
89.66507
  0
LINE
  8
ゴム等
  6
CONTINUOUS
 10
-27.918167
 20
89.745598
 11
-26.875185
 21
92.362805
  0
LINE
  8
ゴム等
  6
CONTINUOUS
 10
-28.105962
 20
89.386843
 11
-28.105962
 21
42.249245
  0
LINE
  8
ゴム等
  6
CONTINUOUS
 10
-27.918167
 20
89.745598
 11
-27.918167
 21
42.249245
  0
LINE
  8
ゴム等
  6
CONTINUOUS
 10
-31.037585
 20
92.318465
 11
-77.750185
 21
45.605868
  0
LINE
  8
ゴム等
  6
CONTINUOUS
 10
-30.67883
 20
92.50626
 11
-77.750185
 21
45.434908
  0
LINE
  8
ゴム等
  6
CONTINUOUS
 10
-28.105962
 20
89.386843
 11
-74.818563
 21
42.674245
  0
LINE
  8
ゴム等
  6
CONTINUOUS
 10
-27.918167
 20
89.745598
 11
-74.989523
 21
42.674245
  0
LINE
  8
ゴム等
  6
CONTINUOUS
 10
-29.066505
 20
87.47786
 11
-71.92012
 21
44.624245
  0
LINE
  8
ゴム等
  6
CONTINUOUS
 10
-32.94657
 20
91.357922
 11
-75.800185
 21
48.50431
  0
LINE
  8
ゴム等
  6
CONTINUOUS
 10
-32.94657
 20
91.357922
 11
-75.800185
 21
91.357922
  0
LINE
  8
ゴム等
  6
CONTINUOUS
 10
-31.037585
 20
92.318465
 11
-77.750185
 21
92.318465
  0
LINE
  8
ゴム等
  6
CONTINUOUS
 10
-30.67883
 20
92.50626
 11
-77.750185
 21
92.50626
  0
LINE
  8
ゴム等
  6
CONTINUOUS
 10
-29.066505
 20
87.47786
 11
-29.066505
 21
44.624245
  0
LINE
  8
ゴム等
  6
CONTINUOUS
 10
-122.5538
 20
91.357922
 11
-124.462785
 21
92.318465
  0
LINE
  8
ゴム等
  6
CONTINUOUS
 10
-124.462785
 20
92.318465
 11
-124.741013
 21
92.492125
  0
LINE
  8
ゴム等
  6
CONTINUOUS
 10
-124.82154
 20
92.50626
 11
-127.438748
 21
93.549245
  0
LINE
  8
ゴム等
  6
CONTINUOUS
 10
-126.433865
 20
87.47786
 11
-127.394408
 21
89.386843
  0
LINE
  8
ゴム等
  6
CONTINUOUS
 10
-127.394408
 20
89.386843
 11
-127.568067
 21
89.66507
  0
LINE
  8
ゴム等
  6
CONTINUOUS
 10
-127.582203
 20
89.745598
 11
-128.625185
 21
92.362805
  0
LINE
  8
ゴム等
  6
CONTINUOUS
 10
-127.394408
 20
89.386843
 11
-127.394408
 21
42.249245
  0
LINE
  8
ゴム等
  6
CONTINUOUS
 10
-127.582203
 20
89.745598
 11
-127.582203
 21
42.249245
  0
LINE
  8
ゴム等
  6
CONTINUOUS
 10
-124.462785
 20
92.318465
 11
-77.750185
 21
45.605868
  0
LINE
  8
ゴム等
  6
CONTINUOUS
 10
-124.82154
 20
92.50626
 11
-77.750185
 21
45.434908
  0
LINE
  8
ゴム等
  6
CONTINUOUS
 10
-127.394408
 20
89.386843
 11
-80.681808
 21
42.674245
  0
LINE
  8
ゴム等
  6
CONTINUOUS
 10
-127.582203
 20
89.745598
 11
-80.510847
 21
42.674245
  0
LINE
  8
ゴム等
  6
CONTINUOUS
 10
-126.433865
 20
87.47786
 11
-83.58025
 21
44.624245
  0
LINE
  8
ゴム等
  6
CONTINUOUS
 10
-122.5538
 20
91.357922
 11
-79.700185
 21
48.50431
  0
LINE
  8
ゴム等
  6
CONTINUOUS
 10
-122.5538
 20
91.357922
 11
-79.700185
 21
91.357922
  0
LINE
  8
ゴム等
  6
CONTINUOUS
 10
-124.462785
 20
92.318465
 11
-77.750185
 21
92.318465
  0
LINE
  8
ゴム等
  6
CONTINUOUS
 10
-124.82154
 20
92.50626
 11
-77.750185
 21
92.50626
  0
LINE
  8
ゴム等
  6
CONTINUOUS
 10
-126.433865
 20
87.47786
 11
-126.433865
 21
44.624245
  0
LINE
  8
ゴム等
  6
CONTINUOUS
 10
-75.800185
 20
36.84418
 11
-75.800185
 21
-6.009433
  0
LINE
  8
ゴム等
  6
CONTINUOUS
 10
-76.925185
 20
38.917622
 11
-76.925185
 21
-6.969975
  0
LINE
  8
ゴム等
  6
CONTINUOUS
 10
-79.700185
 20
36.84418
 11
-79.700185
 21
-6.009433
  0
LINE
  8
ゴム等
  6
CONTINUOUS
 10
-78.575185
 20
38.917622
 11
-78.575185
 21
-6.969975
  0
LINE
  8
ゴム等
  6
CONTINUOUS
 10
-32.94657
 20
-6.009433
 11
-31.037585
 21
-6.969975
  0
LINE
  8
ゴム等
  6
CONTINUOUS
 10
-31.037585
 20
-6.969975
 11
-30.759357
 21
-7.143635
  0
LINE
  8
ゴム等
  6
CONTINUOUS
 10
-30.67883
 20
-7.15777
 11
-28.061622
 21
-8.200755
  0
LINE
  8
ゴム等
  6
CONTINUOUS
 10
-29.066505
 20
-2.12937
 11
-28.105962
 21
-4.038353
  0
LINE
  8
ゴム等
  6
CONTINUOUS
 10
-28.105962
 20
-4.038353
 11
-27.932302
 21
-4.31658
  0
LINE
  8
ゴム等
  6
CONTINUOUS
 10
-27.918167
 20
-4.397108
 11
-26.875185
 21
-7.014315
  0
LINE
  8
ゴム等
  6
CONTINUOUS
 10
-28.105962
 20
-4.038353
 11
-28.105962
 21
43.099245
  0
LINE
  8
ゴム等
  6
CONTINUOUS
 10
-27.918167
 20
-4.397108
 11
-27.918167
 21
43.099245
  0
LINE
  8
ゴム等
  6
CONTINUOUS
 10
-31.037585
 20
-6.969975
 11
-77.750185
 21
39.742622
  0
LINE
  8
ゴム等
  6
CONTINUOUS
 10
-30.67883
 20
-7.15777
 11
-77.750185
 21
39.913582
  0
LINE
  8
ゴム等
  6
CONTINUOUS
 10
-28.105962
 20
-4.038353
 11
-74.818563
 21
42.674245
  0
LINE
  8
ゴム等
  6
CONTINUOUS
 10
-27.918167
 20
-4.397108
 11
-74.989523
 21
42.674245
  0
LINE
  8
ゴム等
  6
CONTINUOUS
 10
-29.066505
 20
-2.12937
 11
-71.92012
 21
40.724245
  0
LINE
  8
ゴム等
  6
CONTINUOUS
 10
-32.94657
 20
-6.009433
 11
-75.800185
 21
36.84418
  0
LINE
  8
ゴム等
  6
CONTINUOUS
 10
-32.94657
 20
-6.009433
 11
-75.800185
 21
-6.009433
  0
LINE
  8
ゴム等
  6
CONTINUOUS
 10
-31.037585
 20
-6.969975
 11
-77.750185
 21
-6.969975
  0
LINE
  8
ゴム等
  6
CONTINUOUS
 10
-30.67883
 20
-7.15777
 11
-77.750185
 21
-7.15777
  0
LINE
  8
ゴム等
  6
CONTINUOUS
 10
-29.066505
 20
-2.12937
 11
-29.066505
 21
40.724245
  0
LINE
  8
ゴム等
  6
CONTINUOUS
 10
-122.5538
 20
-6.009433
 11
-124.462785
 21
-6.969975
  0
LINE
  8
ゴム等
  6
CONTINUOUS
 10
-124.462785
 20
-6.969975
 11
-124.741013
 21
-7.143635
  0
LINE
  8
ゴム等
  6
CONTINUOUS
 10
-124.82154
 20
-7.15777
 11
-127.438748
 21
-8.200755
  0
LINE
  8
ゴム等
  6
CONTINUOUS
 10
-126.433865
 20
-2.12937
 11
-127.394408
 21
-4.038353
  0
LINE
  8
ゴム等
  6
CONTINUOUS
 10
-127.394408
 20
-4.038353
 11
-127.568067
 21
-4.31658
  0
LINE
  8
ゴム等
  6
CONTINUOUS
 10
-127.582203
 20
-4.397108
 11
-128.625185
 21
-7.014315
  0
LINE
  8
ゴム等
  6
CONTINUOUS
 10
-127.394408
 20
-4.038353
 11
-127.394408
 21
43.099245
  0
LINE
  8
ゴム等
  6
CONTINUOUS
 10
-127.582203
 20
-4.397108
 11
-127.582203
 21
43.099245
  0
LINE
  8
ゴム等
  6
CONTINUOUS
 10
-124.462785
 20
-6.969975
 11
-77.750185
 21
39.742622
  0
LINE
  8
ゴム等
  6
CONTINUOUS
 10
-124.82154
 20
-7.15777
 11
-77.750185
 21
39.913582
  0
LINE
  8
ゴム等
  6
CONTINUOUS
 10
-127.394408
 20
-4.038353
 11
-80.681808
 21
42.674245
  0
LINE
  8
ゴム等
  6
CONTINUOUS
 10
-127.582203
 20
-4.397108
 11
-80.510847
 21
42.674245
  0
LINE
  8
ゴム等
  6
CONTINUOUS
 10
-126.433865
 20
-2.12937
 11
-83.58025
 21
40.724245
  0
LINE
  8
ゴム等
  6
CONTINUOUS
 10
-122.5538
 20
-6.009433
 11
-79.700185
 21
36.84418
  0
LINE
  8
ゴム等
  6
CONTINUOUS
 10
-122.5538
 20
-6.009433
 11
-79.700185
 21
-6.009433
  0
LINE
  8
ゴム等
  6
CONTINUOUS
 10
-124.462785
 20
-6.969975
 11
-77.750185
 21
-6.969975
  0
LINE
  8
ゴム等
  6
CONTINUOUS
 10
-124.82154
 20
-7.15777
 11
-77.750185
 21
-7.15777
  0
LINE
  8
ゴム等
  6
CONTINUOUS
 10
-126.433865
 20
-2.12937
 11
-126.433865
 21
40.724245
  0
LINE
  8
ゴム等
  6
CONTINUOUS
 10
-77.750185
 20
-50.644098
 11
-77.750185
 21
-54.018703
  0
LINE
  8
ゴム等
  6
CONTINUOUS
 10
-77.750185
 20
-50.644098
 11
-77.750185
 21
-54.018703
  0
LINE
  8
ゴム等
  6
CONTINUOUS
 10
-77.750185
 20
-50.644098
 11
-77.750185
 21
-54.018703
  0
LINE
  8
ゴム等
  6
CONTINUOUS
 10
-77.750185
 20
-50.644098
 11
-77.750185
 21
-54.018703
  0
LINE
  8
ゴム等
  6
CONTINUOUS
 10
-77.750185
 20
-50.644098
 11
-77.750185
 21
-54.018703
  0
LINE
  8
ゴム等
  6
CONTINUOUS
 10
-77.750185
 20
-50.644098
 11
-77.750185
 21
-54.018703
  0
LINE
  8
ゴム等
  6
CONTINUOUS
 10
-77.750185
 20
-50.644098
 11
-77.750185
 21
-54.018703
  0
LINE
  8
ゴム等
  6
CONTINUOUS
 10
-77.750185
 20
-50.644098
 11
-77.750185
 21
-54.018703
  0
LINE
  8
ゴム等
  6
CONTINUOUS
 10
-75.800185
 20
-56.393703
 11
-75.800185
 21
-99.195407
  0
LINE
  8
ゴム等
  6
CONTINUOUS
 10
-79.700185
 20
-56.393703
 11
-79.700185
 21
-99.195407
  0
LINE
  8
ゴム等
  6
CONTINUOUS
 10
-78.575185
 20
-53.8118
 11
-78.575185
 21
-99.699252
  0
LINE
  8
ゴム等
  6
CONTINUOUS
 10
-76.925185
 20
-53.8118
 11
-76.925185
 21
-99.699252
  0
LINE
  8
ゴム等
  6
CONTINUOUS
 10
-31.037735
 20
-99.699252
 11
-77.750185
 21
-52.9868
  0
LINE
  8
ゴム等
  6
CONTINUOUS
 10
-30.678963
 20
-99.776832
 11
-77.750185
 21
-52.705608
  0
LINE
  8
ゴム等
  6
CONTINUOUS
 10
-32.998482
 20
-99.195407
 11
-75.800185
 21
-56.393703
  0
LINE
  8
ゴム等
  6
CONTINUOUS
 10
-124.462635
 20
-99.699252
 11
-77.750185
 21
-52.9868
  0
LINE
  8
ゴム等
  6
CONTINUOUS
 10
-124.821407
 20
-99.776832
 11
-77.750185
 21
-52.705608
  0
LINE
  8
ゴム等
  6
CONTINUOUS
 10
-122.501887
 20
-99.195407
 11
-79.700185
 21
-56.393703
  0
TEXT
  7
TextStyle03
  8
文字
  6
CONTINUOUS
 10
14.825
 20
-5.1
  1
は排水穴位置を示す
 40
3.0
 72
     5
 11
44.825
 21
-5.1
  0
TEXT
  7
TextStyle03
  8
文字
  6
CONTINUOUS
 10
9.225
 20
-12.5
  1
アンカー数量　１２ヶ所
 40
3.0
 72
     5
 11
45.975
 21
-12.5
  0
TEXT
  7
TextStyle03
  8
文字
  6
CONTINUOUS
 10
76.5
 20
96.725
  1
ＮＳコード：ＮＳ４ＧＫ
 40
5.0
 72
     5
 11
137.75
 21
96.725
  0
TEXT
  7
TextStyle03
  8
文字
  6
CONTINUOUS
 10
-140.0
 20
110.725
  1
アンカーピッチ
 40
3.0
 72
     5
 11
-116.75
 21
110.725
  0
TEXT
  7
TextStyle03
  8
文字
  6
CONTINUOUS
 10
-149.125
 20
-17.075
  1
アンカーピッチ
 40
3.0
 50
90.0
 72
     5
 11
-149.125
 21
6.175
  0
TEXT
  7
TextStyle03
  8
文字
  6
CONTINUOUS
 10
75.575
 20
118.425
  1
シリーズ：ＤＦ４Ｋ
 40
5.0
 72
     5
 11
125.575
 21
118.425
  0
TEXT
  7
TextStyle03
  8
文字
  6
CONTINUOUS
 10
75.575
 20
112.8
  1
　　　　　四角錘（固定）1800×1800タイプ
 40
5.0
 72
     5
 11
187.45
 21
112.8
  0
TEXT
  7
TextStyle03
  8
文字
  6
CONTINUOUS
 10
75.575
 20
107.175
  1
図面名　：外観姿図
 40
5.0
 72
     5
 11
125.575
 21
107.175
  0
TEXT
  7
TextStyle03
  8
文字
  6
CONTINUOUS
 10
75.575
 20
101.55
  1
　　　　　　
 40
5.0
 72
     5
 11
108.7
 21
101.55
  0
TEXT
  7
TextStyle03
  8
文字
  6
CONTINUOUS
 10
83.925
 20
-24.575
  1
ガラス寸法
 40
3.0
 72
     5
 11
100.425
 21
-24.575
  0
TEXT
  7
TextStyle03
  8
文字
  6
CONTINUOUS
 10
104.1
 20
-75.65
  1
本図×４枚
 40
3.0
 72
     5
 11
120.6
 21
-75.65
  0
TEXT
  7
TextStyle03
  8
文字
  6
CONTINUOUS
 10
104.1
 20
-79.025
  1
逆図×４枚
 40
3.0
 72
     5
 11
120.6
 21
-79.025
  0
INSERT
  2
*DIM_0002
  8
寸法
  6
CONTINUOUS
 10
0.0
 20
0.0
  0
INSERT
  2
*DIM_0003
  8
寸法
  6
CONTINUOUS
 10
0.0
 20
0.0
  0
INSERT
  2
*DIM_0004
  8
寸法
  6
CONTINUOUS
 10
0.0
 20
0.0
  0
INSERT
  2
*DIM_0005
  8
寸法
  6
CONTINUOUS
 10
0.0
 20
0.0
  0
INSERT
  2
*DIM_0006
  8
寸法
  6
CONTINUOUS
 10
0.0
 20
0.0
  0
INSERT
  2
*DIM_0007
  8
寸法
  6
CONTINUOUS
 10
0.0
 20
0.0
  0
INSERT
  2
*DIM_0008
  8
寸法
  6
CONTINUOUS
 10
0.0
 20
0.0
  0
INSERT
  2
*DIM_0009
  8
寸法
  6
CONTINUOUS
 10
0.0
 20
0.0
  0
INSERT
  2
*DIM_0010
  8
寸法
  6
CONTINUOUS
 10
0.0
 20
0.0
  0
INSERT
  2
*DIM_0011
  8
寸法
  6
CONTINUOUS
 10
0.0
 20
0.0
  0
INSERT
  2
*DIM_0012
  8
寸法
  6
CONTINUOUS
 10
0.0
 20
0.0
  0
INSERT
  2
*DIM_0013
  8
寸法
  6
CONTINUOUS
 10
0.0
 20
0.0
  0
INSERT
  2
*DIM_0014
  8
寸法
  6
CONTINUOUS
 10
0.0
 20
0.0
  0
LINE
  8
曲げ物
  6
CONTINUOUS
 10
78.896675
 20
-82.88521
 11
123.991675
 21
-82.88521
  0
LINE
  8
曲げ物
  6
CONTINUOUS
 10
123.991675
 20
-82.88521
 11
123.991675
 21
-19.111525
  0
LINE
  8
曲げ物
  6
CONTINUOUS
 10
78.896675
 20
-82.88521
 11
123.991675
 21
-19.111525
  0
ENDSEC
  0
EOF
