  0
SECTION
  2
HEADER
  9
$EXTMIN
 10
-210.0
 20
-148.5
  9
$EXTMAX
 10
210.0
 20
148.5
  9
$PDMODE
 70
    32
  9
$PDSIZE
 40
1.5
  9
$LTSCALE
 40
10.0
  0
ENDSEC
  0
SECTION
  2
TABLES
  0
TABLE
  2
LTYPE
 70
    15
  0
LTYPE
  2
CONTINUOUS
 70
    64
  3
実線
 72
    65
 73
     0
 40
0.0
  0
LTYPE
  2
DASHED
 70
    64
  3
破線A
 72
    65
 73
     2
 40
0.6
 49
0.4
 49
-0.2
  0
LTYPE
  2
DASHEDX2
 70
    64
  3
破線B
 72
    65
 73
     2
 40
1.3
 49
0.9
 49
-0.4
  0
LTYPE
  2
DASHDOT
 70
    64
  3
１点鎖線A
 72
    65
 73
     4
 40
0.5375
 49
0.375
 49
-0.05
 49
0.0625
 49
-0.05
  0
LTYPE
  2
DASHDOTX2
 70
    64
  3
１点鎖線B
 72
    65
 73
     4
 40
1.075
 49
0.75
 49
-0.1
 49
0.125
 49
-0.1
  0
LTYPE
  2
DIVIDE2
 70
    64
  3
２点鎖線A
 72
    65
 73
     6
 40
0.5125
 49
0.3
 49
-0.0375
 49
0.05
 49
-0.0375
 49
0.05
 49
-0.0375
  0
LTYPE
  2
DIVIDE
 70
    64
  3
２点鎖線B
 72
    65
 73
     6
 40
1.05
 49
0.55
 49
-0.1
 49
0.1
 49
-0.1
 49
0.1
 49
-0.1
  0
LTYPE
  2
DOT
 70
    64
  3
点線A
 72
    65
 73
     2
 40
0.1125
 49
0.0625
 49
-0.05
  0
LTYPE
  2
DOTX2
 70
    64
  3
点線B
 72
    65
 73
     2
 40
0.275
 49
0.15
 49
-0.125
  0
LTYPE
  2
CONTINUOUS
 70
    64
  3
実線
 72
    65
 73
     0
 40
0.0
  0
LTYPE
  2
CONTINUOUS
 70
    64
  3
実線
 72
    65
 73
     0
 40
0.0
  0
LTYPE
  2
CONTINUOUS
 70
    64
  3
実線
 72
    65
 73
     0
 40
0.0
  0
LTYPE
  2
CONTINUOUS
 70
    64
  3
実線
 72
    65
 73
     0
 40
0.0
  0
LTYPE
  2
CONTINUOUS
 70
    64
  3
実線
 72
    65
 73
     0
 40
0.0
  0
LTYPE
  2
CONTINUOUS
 70
    64
  3
実線
 72
    65
 73
     0
 40
0.0
  0
ENDTAB
  0
TABLE
  2
LAYER
 70
    34
  0
LAYER
  2
通り芯
 70
     0
 62
    15
  6
CONTINUOUS
  0
LAYER
  2
補助線
 70
     0
 62
    16
  6
DOT
  0
LAYER
  2
躯体
 70
     0
 62
    31
  6
CONTINUOUS
  0
LAYER
  2
型材
 70
     0
 62
    32
  6
CONTINUOUS
  0
LAYER
  2
型材断面
 70
     0
 62
    47
  6
CONTINUOUS
  0
LAYER
  2
ガラス
 70
     0
 62
    48
  6
CONTINUOUS
  0
LAYER
  2
ゴム等
 70
     0
 62
    63
  6
CONTINUOUS
  0
LAYER
  2
ボルト／ビス
 70
     0
 62
    64
  6
CONTINUOUS
  0
LAYER
  2
文字
 70
     0
 62
    79
  6
CONTINUOUS
  0
LAYER
  2
寸法
 70
     0
 62
    80
  6
CONTINUOUS
  0
LAYER
  2
ﾊｯﾁﾝｸﾞ
 70
     0
 62
    95
  6
CONTINUOUS
  0
LAYER
  2
別途部材
 70
     0
 62
    96
  6
CONTINUOUS
  0
LAYER
  2
曲げ物
 70
     0
 62
   111
  6
CONTINUOUS
  0
LAYER
  2
鉄骨等
 70
     0
 62
   112
  6
CONTINUOUS
  0
LAYER
  2
St
 70
     0
 62
   127
  6
CONTINUOUS
  0
LAYER
  2
その他部品等
 70
     0
 62
   128
  6
CONTINUOUS
  0
LAYER
  2
ｶﾞｽｹｯﾄ
 70
     0
 62
   143
  6
CONTINUOUS
  0
LAYER
  2
ｽｹｯﾁ
 70
     0
 62
    14
  6
CONTINUOUS
  0
LAYER
  2
0
 70
     0
 62
    17
  6
CONTINUOUS
  0
LAYER
  2
1
 70
     0
 62
    30
  6
CONTINUOUS
  0
LAYER
  2
4
 70
     0
 62
    33
  6
CONTINUOUS
  0
LAYER
  2
ﾚｲﾔ3
 70
     0
 62
    46
  6
CONTINUOUS
  0
LAYER
  2
外形線
 70
     0
 62
    49
  6
CONTINUOUS
  0
LAYER
  2
部品
 70
     0
 62
    14
  6
CONTINUOUS
  0
LAYER
  2
サッシ芯
 70
     0
 62
    17
  6
DASHDOTX2
  0
LAYER
  2
寸法線
 70
     0
 62
    62
  6
CONTINUOUS
  0
LAYER
  2
姿図外形線
 70
     0
 62
    65
  6
CONTINUOUS
  0
LAYER
  2
姿補助線
 70
     0
 62
    30
  6
CONTINUOUS
  0
LAYER
  2
透視線
 70
     0
 62
    78
  6
DOT
  0
LAYER
  2
用紙
 70
     0
 62
    81
  6
CONTINUOUS
  0
LAYER
  2
実線図枠
 70
     0
 62
    94
  6
CONTINUOUS
  0
LAYER
  2
補助図枠
 70
     0
 62
    97
  6
CONTINUOUS
  0
LAYER
  2
建具記号
 70
     0
 62
   110
  6
CONTINUOUS
  0
LAYER
  2
補助文字
 70
     0
 62
   113
  6
CONTINUOUS
  0
ENDTAB
  0
TABLE
  2
STYLE
 70
    10
  0
STYLE
  2
STANDARD
 70
     0
 40
1.0
 41
1.0
 42
1.0
 50
0.0
 71
     0
  3
TXT
  4
BIGFONT
  0
STYLE
  2
TATE
 70
     4
 40
1.0
 41
1.0
 42
1.0
 50
0.0
 71
     0
  3
TXT
  4
BIGFONT
  0
STYLE
  2
TextStyle03
 70
     0
 40
1.0
 41
1.0
 42
1.0
 50
0.0
 71
     0
  3
MONOTXT
  4
BIGFONT
  0
STYLE
  2
TextStyle04
 70
     0
 40
1.0
 41
1.0
 42
1.0
 50
0.0
 71
     0
  3
MONOTXT
  4
BIGFONT
  0
STYLE
  2
TextStyle05
 70
     0
 40
1.0
 41
1.0
 42
1.0
 50
0.0
 71
     0
  3
MONOTXT
  4
BIGFONT
  0
STYLE
  2
TextStyle06
 70
     0
 40
1.0
 41
1.0
 42
1.0
 50
0.0
 71
     0
  3
MONOTXT
  4
BIGFONT
  0
STYLE
  2
TextStyle07
 70
     0
 40
1.0
 41
1.0
 42
1.0
 50
0.0
 71
     0
  3
MONOTXT
  4
BIGFONT
  0
STYLE
  2
TextStyle08
 70
     0
 40
1.0
 41
1.0
 42
1.0
 50
0.0
 71
     0
  3
MONOTXT
  4
BIGFONT
  0
STYLE
  2
TextStyle09
 70
     0
 40
1.0
 41
1.0
 42
1.0
 50
0.0
 71
     0
  3
MONOTXT
  4
BIGFONT
  0
STYLE
  2
TextStyle10
 70
     0
 40
1.0
 41
1.0
 42
1.0
 50
0.0
 71
     0
  3
MONOTXT
  4
BIGFONT
  0
ENDTAB
  0
ENDSEC
  0
SECTION
  2
BLOCKS
  0
BLOCK
  2
*GRP_0001
 70
    65
 10
0.0
 20
0.0
  0
LINE
  8
型材断面
  6
CONTINUOUS
 10
195.0
 20
133.5
 11
195.0
 21
-133.5
  0
LINE
  8
型材断面
  6
CONTINUOUS
 10
195.0
 20
-133.5
 11
-185.0
 21
-133.5
  0
LINE
  8
型材断面
  6
CONTINUOUS
 10
-185.0
 20
-133.5
 11
-185.0
 21
133.5
  0
LINE
  8
型材断面
  6
CONTINUOUS
 10
195.0
 20
133.5
 11
-185.0
 21
133.5
  0
LINE
  8
型材断面
  6
CONTINUOUS
 10
145.0
 20
-133.5
 11
145.0
 21
-118.5
  0
LINE
  8
型材断面
  6
CONTINUOUS
 10
195.0
 20
-118.5
 11
145.0
 21
-118.5
  0
ENDBLK
  0
BLOCK
  2
*DIM_0002
 70
    65
 10
0.0
 20
0.0
  0
LINE
  8
寸法
  6
CONTINUOUS
 62
     0
 10
-127.750185
 20
-34.773415
 11
-127.750185
 21
-31.493875
  0
LINE
  8
寸法
  6
CONTINUOUS
 62
     0
 10
-27.750185
 20
-34.773415
 11
-27.750185
 21
-31.493875
  0
LINE
  8
寸法
  6
CONTINUOUS
 62
     0
 10
-127.750185
 20
-31.493875
 11
-27.750185
 21
-31.493875
  0
POINT
  8
寸法
 62
     0
 10
-127.750185
 20
-31.493875
  0
POINT
  8
寸法
 62
     0
 10
-27.750185
 20
-31.493875
  0
TEXT
  7
TextStyle03
  8
寸法
  6
CONTINUOUS
 62
     0
 10
-89.49375
 20
-31.125
  1
呼称寸法　2000
 40
3.0
 72
     5
 11
-66.05625
 21
-31.125
  0
ENDBLK
  0
BLOCK
  2
*DIM_0003
 70
    65
 10
0.0
 20
0.0
  0
LINE
  8
寸法
  6
BYBLOCK
 62
     0
 10
-112.750185
 20
117.929245
 11
-112.750185
 21
128.86
  0
LINE
  8
寸法
  6
BYBLOCK
 62
     0
 10
-77.750185
 20
117.929245
 11
-77.750185
 21
128.86
  0
LINE
  8
寸法
  6
BYBLOCK
 62
     0
 10
-112.750185
 20
128.86
 11
-77.750185
 21
128.86
  0
POINT
  8
寸法
 62
     0
 10
-112.750185
 20
128.86
  0
POINT
  8
寸法
 62
     0
 10
-77.750185
 20
128.86
  0
TEXT
  7
TextStyle03
  8
寸法
  6
CONTINUOUS
 62
     0
 10
-97.7125
 20
129.225
  1
700
 40
3.0
 72
     5
 11
-92.8375
 21
129.225
  0
ENDBLK
  0
BLOCK
  2
*DIM_0004
 70
    65
 10
0.0
 20
0.0
  0
LINE
  8
寸法
  6
BYBLOCK
 62
     0
 10
-42.750185
 20
117.929245
 11
-42.750185
 21
128.86
  0
LINE
  8
寸法
  6
BYBLOCK
 62
     0
 10
-77.750185
 20
128.86
 11
-42.750185
 21
128.86
  0
POINT
  8
寸法
 62
     0
 10
-42.750185
 20
128.86
  0
TEXT
  7
TextStyle03
  8
寸法
  6
CONTINUOUS
 62
     0
 10
-62.7125
 20
129.225
  1
700
 40
3.0
 72
     5
 11
-57.8375
 21
129.225
  0
ENDBLK
  0
BLOCK
  2
*DIM_0005
 70
    65
 10
0.0
 20
0.0
  0
LINE
  8
寸法
  6
BYBLOCK
 62
     0
 10
-153.005185
 20
77.674245
 11
-163.93594
 21
77.674247
  0
LINE
  8
寸法
  6
BYBLOCK
 62
     0
 10
-153.005188
 20
42.674245
 11
-163.935942
 21
42.674247
  0
LINE
  8
寸法
  6
BYBLOCK
 62
     0
 10
-163.93594
 20
77.674247
 11
-163.935942
 21
42.674247
  0
POINT
  8
寸法
 62
     0
 10
-163.93594
 20
77.674247
  0
POINT
  8
寸法
 62
     0
 10
-163.935942
 20
42.674247
  0
TEXT
  7
TextStyle03
  8
寸法
  6
CONTINUOUS
 62
     0
 10
-164.325
 20
57.7125
  1
700
 40
3.0
 50
90.0
 72
     5
 11
-164.325
 21
62.5875
  0
ENDBLK
  0
BLOCK
  2
*DIM_0006
 70
    65
 10
0.0
 20
0.0
  0
LINE
  8
寸法
  6
BYBLOCK
 62
     0
 10
-153.005188
 20
42.674245
 11
-163.935942
 21
42.67425
  0
LINE
  8
寸法
  6
BYBLOCK
 62
     0
 10
-153.00519
 20
7.674245
 11
-163.935945
 21
7.67425
  0
LINE
  8
寸法
  6
BYBLOCK
 62
     0
 10
-163.935942
 20
42.67425
 11
-163.935945
 21
7.67425
  0
POINT
  8
寸法
 62
     0
 10
-163.935945
 20
7.67425
  0
TEXT
  7
TextStyle03
  8
寸法
  6
CONTINUOUS
 62
     0
 10
-164.325
 20
22.7125
  1
700
 40
3.0
 50
90.0
 72
     5
 11
-164.325
 21
27.5875
  0
ENDBLK
  0
BLOCK
  2
*DIM_0007
 70
    65
 10
0.0
 20
0.0
  0
LINE
  8
寸法
  6
CONTINUOUS
 10
-80.000183
 20
45.924247
 11
-80.000183
 21
53.99647
  0
LINE
  8
寸法
  6
CONTINUOUS
 10
-75.500187
 20
45.924247
 11
-75.500187
 21
53.99647
  0
LINE
  8
寸法
  6
CONTINUOUS
 10
-80.000183
 20
53.99647
 11
-75.500187
 21
53.99647
  0
POINT
  8
寸法
 10
-80.000183
 20
53.99647
  0
POINT
  8
寸法
 10
-75.500187
 20
53.99647
  0
TEXT
  7
TextStyle03
  8
寸法
  6
CONTINUOUS
 10
-79.31875
 20
54.4
  1
90
 40
3.0
 72
     5
 11
-76.13125
 21
54.4
  0
ENDBLK
  0
BLOCK
  2
*DIM_0008
 70
    65
 10
0.0
 20
0.0
  0
LINE
  8
寸法
  6
CONTINUOUS
 10
-75.750185
 20
-46.469752
 11
-66.60725
 21
-46.469752
  0
LINE
  8
寸法
  6
CONTINUOUS
 10
-74.499597
 20
-48.719752
 11
-66.60725
 21
-48.719752
  0
LINE
  8
寸法
  6
CONTINUOUS
 10
-66.60725
 20
-46.469752
 11
-66.60725
 21
-48.719752
  0
POINT
  8
寸法
 10
-66.60725
 20
-46.469752
  0
POINT
  8
寸法
 10
-66.60725
 20
-48.719752
  0
TEXT
  7
TextStyle03
  8
寸法
  6
CONTINUOUS
 10
-66.5
 20
-52.36875
  1
45
 40
3.0
 50
90.0
 72
     5
 11
-66.5
 21
-49.18125
  0
ENDBLK
  0
BLOCK
  2
*DIM_0009
 70
    65
 10
0.0
 20
0.0
  0
LINE
  8
寸法
  6
CONTINUOUS
 10
-80.000185
 20
-47.719752
 11
-80.000185
 21
-42.100093
  0
LINE
  8
寸法
  6
CONTINUOUS
 10
-75.499597
 20
-47.719752
 11
-75.499597
 21
-42.100093
  0
LINE
  8
寸法
  6
CONTINUOUS
 10
-80.000185
 20
-42.100093
 11
-75.499597
 21
-42.100093
  0
POINT
  8
寸法
 10
-80.000185
 20
-42.100093
  0
POINT
  8
寸法
 10
-75.499597
 20
-42.100093
  0
TEXT
  7
TextStyle03
  8
寸法
  6
CONTINUOUS
 10
-79.36875
 20
-41.725
  1
90
 40
3.0
 72
     5
 11
-76.18125
 21
-41.725
  0
ENDBLK
  0
BLOCK
  2
*DIM_0010
 70
    65
 10
0.0
 20
0.0
  0
LINE
  8
寸法
  6
CONTINUOUS
 10
-23.800185
 20
-99.737968
 11
-23.800185
 21
-31.493875
  0
LINE
  8
寸法
  6
CONTINUOUS
 10
-27.750185
 20
-31.493875
 11
-23.800185
 21
-31.493875
  0
POINT
  8
寸法
 10
-27.750185
 20
-31.493875
  0
POINT
  8
寸法
 10
-23.800185
 20
-31.493875
  0
TEXT
  7
TextStyle03
  8
寸法
  6
CONTINUOUS
 10
-27.39375
 20
-31.125
  1
79
 40
3.0
 72
     5
 11
-24.20625
 21
-31.125
  0
ENDBLK
  0
BLOCK
  2
*DIM_0011
 70
    65
 10
0.0
 20
0.0
  0
LINE
  8
寸法
  6
CONTINUOUS
 10
-131.700185
 20
-99.737968
 11
-131.700185
 21
-31.493875
  0
LINE
  8
寸法
  6
CONTINUOUS
 10
-127.750185
 20
-31.493875
 11
-131.700185
 21
-31.493875
  0
POINT
  8
寸法
 10
-127.750185
 20
-31.493875
  0
POINT
  8
寸法
 10
-131.700185
 20
-31.493875
  0
TEXT
  7
TextStyle03
  8
寸法
  6
CONTINUOUS
 10
-131.34375
 20
-31.125
  1
79
 40
3.0
 72
     5
 11
-128.15625
 21
-31.125
  0
ENDBLK
  0
BLOCK
  2
*DIM_0012
 70
    65
 10
0.0
 20
0.0
  0
LINE
  8
寸法
  6
CONTINUOUS
 10
-22.800185
 20
-104.055163
 11
-5.76773
 21
-104.055163
  0
LINE
  8
寸法
  6
CONTINUOUS
 10
-22.800185
 20
-100.737968
 11
-5.76773
 21
-100.737968
  0
LINE
  8
寸法
  6
CONTINUOUS
 10
-5.76773
 20
-104.055163
 11
-5.76773
 21
-100.737968
  0
POINT
  8
寸法
 10
-5.76773
 20
-104.055163
  0
POINT
  8
寸法
 10
-5.76773
 20
-100.737968
  0
TEXT
  7
TextStyle03
  8
寸法
  6
CONTINUOUS
 10
-2.775
 20
-105.68125
  1
66.3
 40
3.0
 50
90.0
 72
     5
 11
-2.775
 21
-99.11875
  0
ENDBLK
  0
BLOCK
  2
*DIM_0013
 70
    65
 10
0.0
 20
0.0
  0
LINE
  8
寸法
  6
CONTINUOUS
 10
-76.750185
 20
-46.469752
 11
-5.76773
 21
-46.469752
  0
LINE
  8
寸法
  6
CONTINUOUS
 10
-5.76773
 20
-100.737968
 11
-5.76773
 21
-46.469752
  0
POINT
  8
寸法
 10
-5.76773
 20
-46.469752
  0
TEXT
  7
TextStyle03
  8
寸法
  6
CONTINUOUS
 10
-6.15
 20
-78.59375
  1
1085.3
 40
3.0
 50
90.0
 72
     5
 11
-6.15
 21
-68.65625
  0
ENDBLK
  0
BLOCK
  2
*DIM_0014
 70
    65
 10
0.0
 20
0.0
  0
LINE
  8
寸法
  6
CONTINUOUS
 10
89.446175
 20
-94.5148
 11
89.446175
 21
-105.132693
  0
LINE
  8
寸法
  6
CONTINUOUS
 10
137.182653
 20
-94.5148
 11
137.182653
 21
-105.132693
  0
LINE
  8
寸法
  6
CONTINUOUS
 10
89.446175
 20
-105.132693
 11
137.182653
 21
-105.132693
  0
POINT
  8
寸法
 10
89.446175
 20
-105.132693
  0
POINT
  8
寸法
 10
137.182653
 20
-105.132693
  0
TEXT
  7
TextStyle03
  8
寸法
  6
CONTINUOUS
 10
109.175
 20
-104.775
  1
954.7
 40
3.0
 72
     5
 11
117.425
 21
-104.775
  0
ENDBLK
  0
BLOCK
  2
*DIM_0015
 70
    65
 10
0.0
 20
0.0
  0
LINE
  8
寸法
  6
CONTINUOUS
 10
138.182653
 20
-93.5148
 11
148.056753
 21
-93.5148
  0
LINE
  8
寸法
  6
CONTINUOUS
 10
138.182653
 20
-26.005235
 11
148.056753
 21
-26.005235
  0
LINE
  8
寸法
  6
CONTINUOUS
 10
148.056753
 20
-93.5148
 11
148.056753
 21
-26.005235
  0
POINT
  8
寸法
 10
148.056753
 20
-93.5148
  0
POINT
  8
寸法
 10
148.056753
 20
-26.005235
  0
TEXT
  7
TextStyle03
  8
寸法
  6
CONTINUOUS
 10
147.675
 20
-64.74375
  1
1350.2
 40
3.0
 50
90.0
 72
     5
 11
147.675
 21
-54.80625
  0
ENDBLK
  0
ENDSEC
  0
SECTION
  2
ENTITIES
  0
POLYLINE
  8
通り芯
  6
CONTINUOUS
 66
     1
 70
     1
  0
VERTEX
  8
通り芯
 10
-210.0
 20
-148.5
  0
VERTEX
  8
通り芯
 10
210.0
 20
-148.5
  0
VERTEX
  8
通り芯
 10
210.0
 20
148.5
  0
VERTEX
  8
通り芯
 10
-210.0
 20
148.5
  0
SEQEND
  0
INSERT
  2
*GRP_0001
  8
型材断面
  6
CONTINUOUS
 10
0.0
 20
0.0
  0
LINE
  8
型材断面
  6
DASHDOT
 10
-127.750185
 20
-7.325755
 11
-27.750185
 21
-7.325755
  0
LINE
  8
型材断面
  6
DASHDOT
 10
-127.750185
 20
42.674245
 11
-27.750185
 21
42.674245
  0
LINE
  8
型材断面
  6
DASHDOT
 10
-127.750185
 20
92.674245
 11
-27.750185
 21
92.674245
  0
LINE
  8
型材断面
  6
CONTINUOUS
 10
-77.750185
 20
-15.34963
 11
-79.99363
 21
-19.23539
  0
LINE
  8
型材断面
  6
CONTINUOUS
 10
-77.750185
 20
-15.34963
 11
-75.50674
 21
-19.23539
  0
LINE
  8
型材断面
  6
CONTINUOUS
 10
-75.50674
 20
-19.23539
 11
-79.99363
 21
-19.23539
  0
LINE
  8
型材断面
  6
CONTINUOUS
 10
-77.750185
 20
100.69812
 11
-79.99363
 21
104.58388
  0
LINE
  8
型材断面
  6
CONTINUOUS
 10
-77.750185
 20
100.69812
 11
-75.50674
 21
104.58388
  0
LINE
  8
型材断面
  6
CONTINUOUS
 10
-75.50674
 20
104.58388
 11
-79.99363
 21
104.58388
  0
LINE
  8
型材断面
  6
CONTINUOUS
 10
-19.726307
 20
42.674245
 11
-15.840547
 21
40.4308
  0
LINE
  8
型材断面
  6
CONTINUOUS
 10
-19.726307
 20
42.674245
 11
-15.840547
 21
44.91769
  0
LINE
  8
型材断面
  6
CONTINUOUS
 10
-15.840547
 20
44.91769
 11
-15.840547
 21
40.4308
  0
LINE
  8
型材断面
  6
CONTINUOUS
 10
10.516347
 20
-1.556797
 11
8.272903
 21
-5.442558
  0
LINE
  8
型材断面
  6
CONTINUOUS
 10
10.516347
 20
-1.556797
 11
12.759793
 21
-5.442558
  0
LINE
  8
型材断面
  6
CONTINUOUS
 10
12.759793
 20
-5.442558
 11
8.272903
 21
-5.442558
  0
LINE
  8
型材断面
  6
CONTINUOUS
 10
1.482467
 20
-6.85045
 11
54.139148
 21
-6.85045
  0
LINE
  8
型材断面
  6
CONTINUOUS
 10
-135.774063
 20
42.674245
 11
-139.659822
 21
40.4308
  0
LINE
  8
型材断面
  6
CONTINUOUS
 10
-135.774063
 20
42.674245
 11
-139.659822
 21
44.91769
  0
LINE
  8
型材断面
  6
CONTINUOUS
 10
-139.659822
 20
44.91769
 11
-139.659822
 21
40.4308
  0
LINE
  8
型材断面
  6
CONTINUOUS
 10
1.482467
 20
-13.906238
 11
54.139148
 21
-13.906238
  0
LINE
  8
型材断面
  6
DASHDOT
 10
-27.750185
 20
92.674245
 11
-27.750185
 21
-104.055163
  0
LINE
  8
型材断面
  6
DASHDOT
 10
-77.750185
 20
92.674245
 11
-77.750185
 21
-104.055163
  0
LINE
  8
型材断面
  6
DASHDOT
 10
-127.750185
 20
92.674245
 11
-127.750185
 21
-104.055163
  0
LINE
  8
型材断面
  6
CONTINUOUS
 10
-131.70018
 20
96.62424
 11
-23.80019
 21
96.62424
  0
LINE
  8
型材断面
  6
CONTINUOUS
 10
-23.80019
 20
96.62424
 11
-23.80019
 21
-11.27575
  0
LINE
  8
型材断面
  6
CONTINUOUS
 10
-23.80019
 20
-11.27575
 11
-131.70018
 21
-11.27575
  0
LINE
  8
型材断面
  6
CONTINUOUS
 10
-131.70018
 20
96.62424
 11
-131.70018
 21
-11.27575
  0
LINE
  8
型材断面
  6
CONTINUOUS
 10
-77.750185
 20
42.674245
 11
-131.70018
 21
-11.27575
  0
LINE
  8
型材断面
  6
CONTINUOUS
 10
-77.750185
 20
42.674245
 11
-23.80019
 21
96.62424
  0
LINE
  8
型材断面
  6
CONTINUOUS
 10
-131.70018
 20
96.62424
 11
-23.80019
 21
-11.27575
  0
LINE
  8
型材断面
  6
CONTINUOUS
 10
-79.155865
 20
42.674245
 11
-80.000185
 21
41.829927
  0
LINE
  8
型材断面
  6
CONTINUOUS
 10
-80.000185
 20
41.829927
 11
-80.000185
 21
40.424245
  0
LINE
  8
型材断面
  6
CONTINUOUS
 10
-80.000185
 20
40.424245
 11
-78.594507
 21
40.424245
  0
LINE
  8
型材断面
  6
CONTINUOUS
 10
-77.750185
 20
41.268565
 11
-78.594507
 21
40.424245
  0
LINE
  8
型材断面
  6
CONTINUOUS
 10
-77.750185
 20
42.674245
 11
-80.000187
 21
40.424245
  0
LINE
  8
型材断面
  6
CONTINUOUS
 10
-75.500187
 20
44.924247
 11
-76.905862
 21
44.924245
  0
LINE
  8
型材断面
  6
CONTINUOUS
 10
-77.750185
 20
44.079925
 11
-76.905862
 21
44.924245
  0
LINE
  8
型材断面
  6
CONTINUOUS
 10
-75.500187
 20
44.924247
 11
-75.500185
 21
43.518563
  0
LINE
  8
型材断面
  6
CONTINUOUS
 10
-76.344505
 20
42.674245
 11
-75.500185
 21
43.518563
  0
LINE
  8
型材断面
  6
CONTINUOUS
 10
-77.750185
 20
42.674245
 11
-75.50018
 21
44.924247
  0
LINE
  8
型材断面
  6
CONTINUOUS
 10
-77.750185
 20
41.268565
 11
-76.905862
 21
40.424245
  0
LINE
  8
型材断面
  6
CONTINUOUS
 10
-75.500185
 20
40.424245
 11
-76.905862
 21
40.424245
  0
LINE
  8
型材断面
  6
CONTINUOUS
 10
-75.500185
 20
40.424245
 11
-75.500185
 21
41.829927
  0
LINE
  8
型材断面
  6
CONTINUOUS
 10
-76.344505
 20
42.674245
 11
-75.500185
 21
41.829927
  0
LINE
  8
型材断面
  6
CONTINUOUS
 10
-80.000183
 20
44.924247
 11
-78.594507
 21
44.924245
  0
LINE
  8
型材断面
  6
CONTINUOUS
 10
-77.750185
 20
44.079925
 11
-78.594507
 21
44.924245
  0
LINE
  8
型材断面
  6
CONTINUOUS
 10
-80.000183
 20
44.924247
 11
-80.000185
 21
43.518563
  0
LINE
  8
型材断面
  6
CONTINUOUS
 10
-79.155865
 20
42.674245
 11
-80.000185
 21
43.518563
  0
LINE
  8
型材断面
  6
CONTINUOUS
 10
-77.750185
 20
42.674245
 11
-80.000183
 21
44.92424
  0
LINE
  8
型材断面
  6
CONTINUOUS
 10
-77.750185
 20
42.674245
 11
-75.500183
 21
40.424245
  0
LINE
  8
型材断面
  6
CONTINUOUS
 10
-23.800185
 20
-100.667235
 11
-23.747152
 21
-100.6142
  0
LINE
  8
型材断面
  6
CONTINUOUS
 10
-23.800185
 20
-100.737968
 11
-23.800185
 21
-104.055163
  0
LINE
  8
型材断面
  6
CONTINUOUS
 10
-25.050185
 20
-104.055145
 11
-25.050185
 21
-104.755145
  0
LINE
  8
型材断面
  6
CONTINUOUS
 10
-131.700185
 20
-100.737968
 11
-131.700185
 21
-104.055163
  0
LINE
  8
型材断面
  6
CONTINUOUS
 10
-130.450185
 20
-104.055145
 11
-130.450185
 21
-104.755145
  0
LINE
  8
型材断面
  6
CONTINUOUS
 10
-23.800185
 20
-104.055163
 11
-131.700185
 21
-104.055163
  0
LINE
  8
型材断面
  6
CONTINUOUS
 10
-23.800185
 20
-100.737968
 11
-131.700185
 21
-100.737968
  0
LINE
  8
型材断面
  6
CONTINUOUS
 10
-25.050185
 20
-104.755145
 11
-130.450185
 21
-104.755145
  0
LINE
  8
型材断面
  6
CONTINUOUS
 10
-23.800185
 20
-100.667235
 11
-77.750185
 21
-46.717235
  0
LINE
  8
型材断面
  6
CONTINUOUS
 10
-23.747152
 20
-100.6142
 11
-77.750185
 21
-46.611175
  0
LINE
  8
型材断面
  6
CONTINUOUS
 10
-131.700185
 20
-100.667235
 11
-77.750185
 21
-46.71724
  0
LINE
  8
型材断面
  6
CONTINUOUS
 10
-131.753218
 20
-100.6142
 11
-77.750185
 21
-46.611175
  0
LINE
  8
型材断面
  6
CONTINUOUS
 10
-77.750185
 20
-47.883968
 11
-77.750185
 21
-46.469752
  0
LINE
  8
型材断面
  6
CONTINUOUS
 10
-77.750185
 20
-47.883968
 11
-77.750185
 21
-46.469752
  0
LINE
  8
型材断面
  6
CONTINUOUS
 10
-80.000185
 20
-48.719752
 11
-79.929475
 21
-48.790463
  0
LINE
  8
型材断面
  6
CONTINUOUS
 10
-79.929475
 20
-48.790463
 11
-78.656682
 21
-48.790463
  0
LINE
  8
型材断面
  6
CONTINUOUS
 10
-77.750185
 20
-46.469752
 11
-80.000185
 21
-48.719752
  0
LINE
  8
型材断面
  6
CONTINUOUS
 10
-77.750185
 20
-47.883965
 11
-78.656682
 21
-48.790463
  0
LINE
  8
型材断面
  6
CONTINUOUS
 10
-75.499597
 20
-48.719752
 11
-75.570308
 21
-48.790463
  0
LINE
  8
型材断面
  6
CONTINUOUS
 10
-75.570308
 20
-48.790463
 11
-76.8431
 21
-48.790463
  0
LINE
  8
型材断面
  6
CONTINUOUS
 10
-77.750185
 20
-47.883965
 11
-76.843688
 21
-48.790463
  0
LINE
  8
型材断面
  6
CONTINUOUS
 10
-77.750185
 20
-46.469752
 11
-75.49989
 21
-48.720047
  0
LINE
  8
型材断面
  6
CONTINUOUS
 10
86.900147
 20
-34.862168
 11
110.83177
 21
-34.862168
  0
LINE
  8
ガラス
  6
CONTINUOUS
 10
-65.101722
 20
14.050007
 11
-68.974358
 21
10.177372
  0
LINE
  8
ガラス
  6
CONTINUOUS
 10
-66.70008
 20
13.169685
 11
-68.094035
 21
11.77573
  0
LINE
  8
ガラス
  6
CONTINUOUS
 10
-45.068925
 20
32.603015
 11
-48.94156
 21
28.73038
  0
LINE
  8
ガラス
  6
CONTINUOUS
 10
-46.667282
 20
31.722693
 11
-48.061237
 21
30.328737
  0
LINE
  8
ガラス
  6
CONTINUOUS
 10
-45.068925
 20
55.149863
 11
-48.94156
 21
51.277227
  0
LINE
  8
ガラス
  6
CONTINUOUS
 10
-46.667282
 20
54.26954
 11
-48.061237
 21
52.875585
  0
LINE
  8
ガラス
  6
CONTINUOUS
 10
-107.94214
 20
32.603015
 11
-111.814775
 21
28.73038
  0
LINE
  8
ガラス
  6
CONTINUOUS
 10
-109.540498
 20
31.722693
 11
-110.934453
 21
30.328737
  0
LINE
  8
ガラス
  6
CONTINUOUS
 10
-107.94214
 20
55.149863
 11
-111.814775
 21
51.277227
  0
LINE
  8
ガラス
  6
CONTINUOUS
 10
-87.278885
 20
14.050007
 11
-91.15152
 21
10.177372
  0
LINE
  8
ガラス
  6
CONTINUOUS
 10
-88.877243
 20
13.169685
 11
-90.271198
 21
11.77573
  0
LINE
  8
ガラス
  6
CONTINUOUS
 10
-65.101722
 20
74.278032
 11
-68.974358
 21
70.405398
  0
LINE
  8
ガラス
  6
CONTINUOUS
 10
-66.70008
 20
73.39771
 11
-68.094035
 21
72.003755
  0
LINE
  8
ガラス
  6
CONTINUOUS
 10
-87.278885
 20
74.278032
 11
-91.15152
 21
70.405398
  0
LINE
  8
ガラス
  6
CONTINUOUS
 10
-92.77787
 20
-79.662935
 11
-96.650505
 21
-83.53557
  0
LINE
  8
ガラス
  6
CONTINUOUS
 10
-93.658193
 20
-81.261293
 11
-95.052147
 21
-82.655248
  0
LINE
  8
ガラス
  6
CONTINUOUS
 10
-94.376227
 20
-80.543257
 11
-95.770183
 21
-81.937212
  0
LINE
  8
ガラス
  6
CONTINUOUS
 10
-60.68237
 20
-79.662935
 11
-64.555005
 21
-83.53557
  0
LINE
  8
ガラス
  6
CONTINUOUS
 10
-61.562692
 20
-81.261293
 11
-62.956647
 21
-82.655248
  0
LINE
  8
ガラス
  6
CONTINUOUS
 10
-62.280728
 20
-80.543257
 11
-63.674683
 21
-81.937212
  0
LINE
  8
ガラス
  6
CONTINUOUS
 10
-65.982045
 20
72.679675
 11
-67.376
 21
71.28572
  0
LINE
  8
ガラス
  6
CONTINUOUS
 10
-88.159207
 20
72.679675
 11
-89.553162
 21
71.28572
  0
LINE
  8
ガラス
  6
CONTINUOUS
 10
-88.877243
 20
73.39771
 11
-90.271198
 21
72.003755
  0
LINE
  8
ガラス
  6
CONTINUOUS
 10
-108.822462
 20
53.551505
 11
-110.216417
 21
52.15755
  0
LINE
  8
ガラス
  6
CONTINUOUS
 10
-109.540498
 20
54.26954
 11
-110.934453
 21
52.875585
  0
LINE
  8
ガラス
  6
CONTINUOUS
 10
-45.949247
 20
53.551505
 11
-47.343203
 21
52.15755
  0
LINE
  8
ガラス
  6
CONTINUOUS
 10
-45.949247
 20
31.004658
 11
-47.343203
 21
29.610702
  0
LINE
  8
ガラス
  6
CONTINUOUS
 10
-108.822462
 20
31.004658
 11
-110.216417
 21
29.610702
  0
LINE
  8
ガラス
  6
CONTINUOUS
 10
-88.159207
 20
12.45165
 11
-89.553162
 21
11.057695
  0
LINE
  8
ガラス
  6
CONTINUOUS
 10
-65.982045
 20
12.45165
 11
-67.376
 21
11.057695
  0
LINE
  8
ガラス
  6
CONTINUOUS
 10
137.182653
 20
-93.5148
 11
137.182653
 21
-26.005235
  0
LINE
  8
ガラス
  6
CONTINUOUS
 10
137.182653
 20
-26.005235
 11
89.446175
 21
-93.5148
  0
LINE
  8
ガラス
  6
CONTINUOUS
 10
137.182653
 20
-93.5148
 11
89.446175
 21
-93.5148
  0
LINE
  8
ゴム等
  6
CONTINUOUS
 10
-77.750185
 20
41.077135
 11
-77.750185
 21
39.484967
  0
LINE
  8
ゴム等
  6
CONTINUOUS
 10
-77.750185
 20
44.271355
 11
-77.750185
 21
45.863523
  0
LINE
  8
ゴム等
  6
CONTINUOUS
 10
-76.153075
 20
42.674245
 11
-74.560908
 21
42.674245
  0
LINE
  8
ゴム等
  6
CONTINUOUS
 10
-79.347295
 20
42.674245
 11
-80.939462
 21
42.674245
  0
LINE
  8
ゴム等
  6
CONTINUOUS
 10
-77.750185
 20
44.271355
 11
-129.915507
 21
96.436678
  0
LINE
  8
ゴム等
  6
CONTINUOUS
 10
-77.750185
 20
45.863523
 11
-127.4041
 21
95.517438
  0
LINE
  8
ゴム等
  6
CONTINUOUS
 10
-79.347295
 20
42.674245
 11
-131.512618
 21
94.839567
  0
LINE
  8
ゴム等
  6
CONTINUOUS
 10
-80.939462
 20
42.674245
 11
-130.593378
 21
92.32816
  0
LINE
  8
ゴム等
  6
CONTINUOUS
 10
-80.939462
 20
42.674245
 11
-130.593378
 21
-6.97967
  0
LINE
  8
ゴム等
  6
CONTINUOUS
 10
-130.593378
 20
92.32816
 11
-130.593378
 21
-6.97967
  0
LINE
  8
ゴム等
  6
CONTINUOUS
 10
-131.512618
 20
94.839567
 11
-131.512618
 21
-9.491078
  0
LINE
  8
ゴム等
  6
CONTINUOUS
 10
-79.347295
 20
42.674245
 11
-131.512618
 21
-9.491078
  0
LINE
  8
ゴム等
  6
CONTINUOUS
 10
-77.750185
 20
41.077135
 11
-129.915507
 21
-11.088188
  0
LINE
  8
ゴム等
  6
CONTINUOUS
 10
-77.750185
 20
39.484967
 11
-127.4041
 21
-10.168948
  0
LINE
  8
ゴム等
  6
CONTINUOUS
 10
-127.4041
 20
-10.168948
 11
-28.09627
 21
-10.168948
  0
LINE
  8
ゴム等
  6
CONTINUOUS
 10
-77.750185
 20
39.484967
 11
-28.09627
 21
-10.168948
  0
LINE
  8
ゴム等
  6
CONTINUOUS
 10
-77.750185
 20
41.077135
 11
-25.584862
 21
-11.088188
  0
LINE
  8
ゴム等
  6
CONTINUOUS
 10
-129.915507
 20
-11.088188
 11
-25.584862
 21
-11.088188
  0
LINE
  8
ゴム等
  6
CONTINUOUS
 10
-74.560908
 20
42.674245
 11
-24.906992
 21
-6.97967
  0
LINE
  8
ゴム等
  6
CONTINUOUS
 10
-76.153075
 20
42.674245
 11
-23.987752
 21
-9.491078
  0
LINE
  8
ゴム等
  6
CONTINUOUS
 10
-24.906992
 20
-6.97967
 11
-24.906992
 21
92.32816
  0
LINE
  8
ゴム等
  6
CONTINUOUS
 10
-74.560908
 20
42.674245
 11
-24.906992
 21
92.32816
  0
LINE
  8
ゴム等
  6
CONTINUOUS
 10
-76.153075
 20
42.674245
 11
-23.987752
 21
94.839567
  0
LINE
  8
ゴム等
  6
CONTINUOUS
 10
-23.987752
 20
-9.491078
 11
-23.987752
 21
94.839567
  0
LINE
  8
ゴム等
  6
CONTINUOUS
 10
-77.750185
 20
45.863523
 11
-28.09627
 21
95.517438
  0
LINE
  8
ゴム等
  6
CONTINUOUS
 10
-127.4041
 20
95.517438
 11
-28.09627
 21
95.517438
  0
LINE
  8
ゴム等
  6
CONTINUOUS
 10
-129.915507
 20
96.436678
 11
-25.584862
 21
96.436678
  0
LINE
  8
ゴム等
  6
CONTINUOUS
 10
-77.750185
 20
44.271355
 11
-25.584862
 21
96.436678
  0
LINE
  8
ゴム等
  6
CONTINUOUS
 10
-79.698527
 20
36.274052
 11
-78.400187
 21
38.834965
  0
LINE
  8
ゴム等
  6
CONTINUOUS
 10
-77.100183
 20
38.834965
 11
-75.801843
 21
36.274052
  0
LINE
  8
ゴム等
  6
CONTINUOUS
 10
-71.349993
 20
44.622588
 11
-73.910905
 21
43.324247
  0
LINE
  8
ゴム等
  6
CONTINUOUS
 10
-73.910905
 20
42.024243
 11
-71.349993
 21
40.725902
  0
LINE
  8
ゴム等
  6
CONTINUOUS
 10
-79.698527
 20
49.074438
 11
-78.400187
 21
46.513525
  0
LINE
  8
ゴム等
  6
CONTINUOUS
 10
-77.100183
 20
46.513525
 11
-75.801843
 21
49.074438
  0
LINE
  8
ゴム等
  6
CONTINUOUS
 10
-84.150378
 20
44.622588
 11
-81.589465
 21
43.324247
  0
LINE
  8
ゴム等
  6
CONTINUOUS
 10
-81.589465
 20
42.024243
 11
-84.150378
 21
40.725902
  0
LINE
  8
ゴム等
  6
CONTINUOUS
 10
-79.698527
 20
94.25936
 11
-78.400187
 21
95.517438
  0
LINE
  8
ゴム等
  6
CONTINUOUS
 10
-77.100183
 20
95.517438
 11
-75.801843
 21
94.25936
  0
LINE
  8
ゴム等
  6
CONTINUOUS
 10
-78.400187
 20
95.517438
 11
-78.400187
 21
46.513525
  0
LINE
  8
ゴム等
  6
CONTINUOUS
 10
-77.100183
 20
95.517438
 11
-77.100183
 21
46.513525
  0
LINE
  8
ゴム等
  6
CONTINUOUS
 10
-26.16507
 20
44.622588
 11
-24.906992
 21
43.324247
  0
LINE
  8
ゴム等
  6
CONTINUOUS
 10
-24.906992
 20
42.024243
 11
-26.16507
 21
40.725902
  0
LINE
  8
ゴム等
  6
CONTINUOUS
 10
-26.16507
 20
40.725902
 11
-71.349993
 21
40.725902
  0
LINE
  8
ゴム等
  6
CONTINUOUS
 10
-26.16507
 20
44.622588
 11
-71.349993
 21
44.622588
  0
LINE
  8
ゴム等
  6
CONTINUOUS
 10
-24.906992
 20
43.324247
 11
-73.910905
 21
43.324247
  0
LINE
  8
ゴム等
  6
CONTINUOUS
 10
-24.906992
 20
42.024243
 11
-73.910905
 21
42.024243
  0
LINE
  8
ゴム等
  6
CONTINUOUS
 10
-129.3353
 20
44.622588
 11
-130.593378
 21
43.324247
  0
LINE
  8
ゴム等
  6
CONTINUOUS
 10
-130.593378
 20
42.024243
 11
-129.3353
 21
40.725902
  0
LINE
  8
ゴム等
  6
CONTINUOUS
 10
-129.3353
 20
40.725902
 11
-84.150378
 21
40.725902
  0
LINE
  8
ゴム等
  6
CONTINUOUS
 10
-129.3353
 20
44.622588
 11
-84.150378
 21
44.622588
  0
LINE
  8
ゴム等
  6
CONTINUOUS
 10
-130.593378
 20
43.324247
 11
-81.589465
 21
43.324247
  0
LINE
  8
ゴム等
  6
CONTINUOUS
 10
-130.593378
 20
42.024243
 11
-81.589465
 21
42.024243
  0
LINE
  8
ゴム等
  6
CONTINUOUS
 10
-79.698527
 20
-8.91087
 11
-78.400187
 21
-10.168948
  0
LINE
  8
ゴム等
  6
CONTINUOUS
 10
-77.100183
 20
-10.168948
 11
-75.801843
 21
-8.91087
  0
LINE
  8
ゴム等
  6
CONTINUOUS
 10
-75.801843
 20
-8.91087
 11
-75.801843
 21
36.274052
  0
LINE
  8
ゴム等
  6
CONTINUOUS
 10
-79.698527
 20
-8.91087
 11
-79.698527
 21
36.274052
  0
LINE
  8
ゴム等
  6
CONTINUOUS
 10
-78.400187
 20
-10.168948
 11
-78.400187
 21
38.834965
  0
LINE
  8
ゴム等
  6
CONTINUOUS
 10
-77.100183
 20
-10.168948
 11
-77.100183
 21
38.834965
  0
LINE
  8
ゴム等
  6
CONTINUOUS
 10
-124.88345
 20
-8.91087
 11
-79.698527
 21
-8.91087
  0
LINE
  8
ゴム等
  6
CONTINUOUS
 10
-75.801843
 20
-8.91087
 11
-30.61692
 21
-8.91087
  0
LINE
  8
ゴム等
  6
CONTINUOUS
 10
-26.16507
 20
-4.45902
 11
-26.16507
 21
40.725902
  0
LINE
  8
ゴム等
  6
CONTINUOUS
 10
-26.16507
 20
44.622588
 11
-26.16507
 21
89.80751
  0
LINE
  8
ゴム等
  6
CONTINUOUS
 10
-124.88345
 20
94.25936
 11
-79.698527
 21
94.25936
  0
LINE
  8
ゴム等
  6
CONTINUOUS
 10
-75.801843
 20
94.25936
 11
-30.61692
 21
94.25936
  0
LINE
  8
ゴム等
  6
CONTINUOUS
 10
-129.3353
 20
89.80751
 11
-129.3353
 21
44.622588
  0
LINE
  8
ゴム等
  6
CONTINUOUS
 10
-129.3353
 20
40.725902
 11
-129.3353
 21
-4.45902
  0
LINE
  8
ゴム等
  6
CONTINUOUS
 10
-129.3353
 20
89.80751
 11
-84.150378
 21
44.622588
  0
LINE
  8
ゴム等
  6
CONTINUOUS
 10
-129.3353
 20
-4.45902
 11
-84.150378
 21
40.725902
  0
LINE
  8
ゴム等
  6
CONTINUOUS
 10
-124.88345
 20
-8.91087
 11
-79.698527
 21
36.274052
  0
LINE
  8
ゴム等
  6
CONTINUOUS
 10
-30.61692
 20
-8.91087
 11
-75.801843
 21
36.274052
  0
LINE
  8
ゴム等
  6
CONTINUOUS
 10
-26.16507
 20
-4.45902
 11
-71.349993
 21
40.725902
  0
LINE
  8
ゴム等
  6
CONTINUOUS
 10
-26.16507
 20
89.80751
 11
-71.349993
 21
44.622588
  0
LINE
  8
ゴム等
  6
CONTINUOUS
 10
-75.801843
 20
94.25936
 11
-75.801843
 21
49.074438
  0
LINE
  8
ゴム等
  6
CONTINUOUS
 10
-79.698527
 20
94.25936
 11
-79.698527
 21
49.074438
  0
LINE
  8
ゴム等
  6
CONTINUOUS
 10
-30.61692
 20
94.25936
 11
-75.801843
 21
49.074438
  0
LINE
  8
ゴム等
  6
CONTINUOUS
 10
-124.88345
 20
94.25936
 11
-79.698527
 21
49.074438
  0
LINE
  8
ゴム等
  6
CONTINUOUS
 10
-23.987752
 20
94.839567
 11
-24.906992
 21
92.32816
  0
LINE
  8
ゴム等
  6
CONTINUOUS
 10
-24.906992
 20
92.32816
 11
-26.16507
 21
89.80751
  0
LINE
  8
ゴム等
  6
CONTINUOUS
 10
-25.584862
 20
96.436678
 11
-28.09627
 21
95.517438
  0
LINE
  8
ゴム等
  6
CONTINUOUS
 10
-28.09627
 20
95.517438
 11
-30.61692
 21
94.25936
  0
LINE
  8
ゴム等
  6
CONTINUOUS
 10
-23.987752
 20
-9.491078
 11
-24.906992
 21
-6.97967
  0
LINE
  8
ゴム等
  6
CONTINUOUS
 10
-24.906992
 20
-6.97967
 11
-26.16507
 21
-4.45902
  0
LINE
  8
ゴム等
  6
CONTINUOUS
 10
-25.584862
 20
-11.088188
 11
-28.09627
 21
-10.168948
  0
LINE
  8
ゴム等
  6
CONTINUOUS
 10
-28.09627
 20
-10.168948
 11
-30.61692
 21
-8.91087
  0
LINE
  8
ゴム等
  6
CONTINUOUS
 10
-131.512618
 20
94.839567
 11
-130.593378
 21
92.32816
  0
LINE
  8
ゴム等
  6
CONTINUOUS
 10
-130.593378
 20
92.32816
 11
-129.3353
 21
89.80751
  0
LINE
  8
ゴム等
  6
CONTINUOUS
 10
-129.915507
 20
96.436678
 11
-127.4041
 21
95.517438
  0
LINE
  8
ゴム等
  6
CONTINUOUS
 10
-127.4041
 20
95.517438
 11
-124.88345
 21
94.25936
  0
LINE
  8
ゴム等
  6
CONTINUOUS
 10
-131.512618
 20
-9.491078
 11
-130.593378
 21
-6.97967
  0
LINE
  8
ゴム等
  6
CONTINUOUS
 10
-130.593378
 20
-6.97967
 11
-129.3353
 21
-4.45902
  0
LINE
  8
ゴム等
  6
CONTINUOUS
 10
-129.915507
 20
-11.088188
 11
-127.4041
 21
-10.168948
  0
LINE
  8
ゴム等
  6
CONTINUOUS
 10
-127.4041
 20
-10.168948
 11
-124.88345
 21
-8.91087
  0
LINE
  8
ゴム等
  6
CONTINUOUS
 10
-77.100183
 20
-99.595612
 11
-75.801843
 21
-99.00327
  0
LINE
  8
ゴム等
  6
CONTINUOUS
 10
-79.698527
 20
-99.00327
 11
-78.400187
 21
-99.595612
  0
LINE
  8
ゴム等
  6
CONTINUOUS
 10
-30.61441
 20
-99.00327
 11
-28.096282
 21
-99.595612
  0
LINE
  8
ゴム等
  6
CONTINUOUS
 10
-28.096282
 20
-99.595612
 11
-25.584878
 21
-100.514852
  0
LINE
  8
ゴム等
  6
CONTINUOUS
 10
-129.915492
 20
-100.514852
 11
-127.404087
 21
-99.595612
  0
LINE
  8
ゴム等
  6
CONTINUOUS
 10
-127.404087
 20
-99.595612
 11
-124.88596
 21
-99.00327
  0
LINE
  8
ゴム等
  6
CONTINUOUS
 10
-75.801843
 20
-99.00327
 11
-30.61441
 21
-99.00327
  0
LINE
  8
ゴム等
  6
CONTINUOUS
 10
-28.096282
 20
-99.595612
 11
-127.404087
 21
-99.595612
  0
LINE
  8
ゴム等
  6
CONTINUOUS
 10
-79.698527
 20
-99.00327
 11
-124.88596
 21
-99.00327
  0
LINE
  8
ゴム等
  6
CONTINUOUS
 10
-25.584878
 20
-100.514852
 11
-129.915492
 21
-100.514852
  0
LINE
  8
ゴム等
  6
CONTINUOUS
 10
-124.88596
 20
-99.00327
 11
-79.698527
 21
-53.815842
  0
LINE
  8
ゴム等
  6
CONTINUOUS
 10
-129.915492
 20
-100.514852
 11
-77.750185
 21
-48.34955
  0
LINE
  8
ゴム等
  6
CONTINUOUS
 10
-25.584878
 20
-100.514852
 11
-77.750185
 21
-48.34955
  0
LINE
  8
ゴム等
  6
CONTINUOUS
 10
-30.61441
 20
-99.00327
 11
-75.801843
 21
-53.815842
  0
LINE
  8
ゴム等
  6
CONTINUOUS
 10
-79.698527
 20
-53.815842
 11
-78.400187
 21
-50.591717
  0
LINE
  8
ゴム等
  6
CONTINUOUS
 10
-75.801843
 20
-53.815842
 11
-77.100183
 21
-50.591717
  0
LINE
  8
ゴム等
  6
CONTINUOUS
 10
-127.404087
 20
-99.595612
 11
-77.750185
 21
-49.941715
  0
LINE
  8
ゴム等
  6
CONTINUOUS
 10
-28.096282
 20
-99.595612
 11
-77.750185
 21
-49.941715
  0
LINE
  8
ゴム等
  6
CONTINUOUS
 10
-75.801843
 20
-99.00327
 11
-75.801843
 21
-53.815842
  0
LINE
  8
ゴム等
  6
CONTINUOUS
 10
-79.698527
 20
-99.00327
 11
-79.698527
 21
-53.815842
  0
LINE
  8
ゴム等
  6
CONTINUOUS
 10
-78.400187
 20
-99.595612
 11
-78.400187
 21
-50.591717
  0
LINE
  8
ゴム等
  6
CONTINUOUS
 10
-77.100183
 20
-99.595612
 11
-77.100183
 21
-50.591717
  0
LINE
  8
ゴム等
  6
CONTINUOUS
 10
-77.750185
 20
-48.34955
 11
-77.750185
 21
-49.941715
  0
TEXT
  7
TextStyle03
  8
文字
  6
CONTINUOUS
 10
14.825
 20
-5.1
  1
は排水穴位置を示す
 40
3.0
 72
     5
 11
44.825
 21
-5.1
  0
TEXT
  7
TextStyle03
  8
文字
  6
CONTINUOUS
 10
9.225
 20
-12.5
  1
アンカー数量　１２ヶ所
 40
3.0
 72
     5
 11
45.975
 21
-12.5
  0
TEXT
  7
TextStyle03
  8
文字
  6
CONTINUOUS
 10
-140.0
 20
124.425
  1
アンカーピッチ
 40
3.0
 72
     5
 11
-116.75
 21
124.425
  0
TEXT
  7
TextStyle03
  8
文字
  6
CONTINUOUS
 10
-160.725
 20
-17.075
  1
アンカーピッチ
 40
3.0
 50
90.0
 72
     5
 11
-160.725
 21
6.175
  0
TEXT
  7
TextStyle03
  8
文字
  6
CONTINUOUS
 10
76.5
 20
96.725
  1
ＮＳコード：ＮＳ４ＧＫ
 40
5.0
 72
     5
 11
137.75
 21
96.725
  0
TEXT
  7
TextStyle03
  8
文字
  6
CONTINUOUS
 10
75.575
 20
118.425
  1
シリーズ：ＤＦ４Ｋ
 40
5.0
 72
     5
 11
125.575
 21
118.425
  0
TEXT
  7
TextStyle03
  8
文字
  6
CONTINUOUS
 10
75.575
 20
112.8
  1
　　　　　四角錘（固定）2000×2000タイプ
 40
5.0
 72
     5
 11
187.45
 21
112.8
  0
TEXT
  7
TextStyle03
  8
文字
  6
CONTINUOUS
 10
75.575
 20
107.175
  1
図面名　：外観姿図
 40
5.0
 72
     5
 11
125.575
 21
107.175
  0
TEXT
  7
TextStyle03
  8
文字
  6
CONTINUOUS
 10
75.575
 20
101.55
  1
　　　　　　
 40
5.0
 72
     5
 11
108.7
 21
101.55
  0
TEXT
  7
TextStyle03
  8
文字
  6
CONTINUOUS
 10
116.15
 20
-86.825
  1
本図×４枚
 40
3.0
 72
     5
 11
132.65
 21
-86.825
  0
TEXT
  7
TextStyle03
  8
文字
  6
CONTINUOUS
 10
116.15
 20
-90.2
  1
逆図×４枚
 40
3.0
 72
     5
 11
132.65
 21
-90.2
  0
TEXT
  7
TextStyle03
  8
文字
  6
CONTINUOUS
 10
90.525
 20
-33.65
  1
ガラス寸法
 40
3.0
 72
     5
 11
107.025
 21
-33.65
  0
INSERT
  2
*DIM_0002
  8
寸法
  6
CONTINUOUS
 10
0.0
 20
0.0
  0
INSERT
  2
*DIM_0003
  8
寸法
  6
CONTINUOUS
 10
0.0
 20
0.0
  0
INSERT
  2
*DIM_0004
  8
寸法
  6
CONTINUOUS
 10
0.0
 20
0.0
  0
INSERT
  2
*DIM_0005
  8
寸法
  6
CONTINUOUS
 10
0.0
 20
0.0
  0
INSERT
  2
*DIM_0006
  8
寸法
  6
CONTINUOUS
 10
0.0
 20
0.0
  0
INSERT
  2
*DIM_0007
  8
寸法
  6
CONTINUOUS
 10
0.0
 20
0.0
  0
INSERT
  2
*DIM_0008
  8
寸法
  6
CONTINUOUS
 10
0.0
 20
0.0
  0
INSERT
  2
*DIM_0009
  8
寸法
  6
CONTINUOUS
 10
0.0
 20
0.0
  0
INSERT
  2
*DIM_0010
  8
寸法
  6
CONTINUOUS
 10
0.0
 20
0.0
  0
INSERT
  2
*DIM_0011
  8
寸法
  6
CONTINUOUS
 10
0.0
 20
0.0
  0
INSERT
  2
*DIM_0012
  8
寸法
  6
CONTINUOUS
 10
0.0
 20
0.0
  0
INSERT
  2
*DIM_0013
  8
寸法
  6
CONTINUOUS
 10
0.0
 20
0.0
  0
INSERT
  2
*DIM_0014
  8
寸法
  6
CONTINUOUS
 10
0.0
 20
0.0
  0
INSERT
  2
*DIM_0015
  8
寸法
  6
CONTINUOUS
 10
0.0
 20
0.0
  0
ENDSEC
  0
EOF
