  0
SECTION
  2
HEADER
  9
$EXTMIN
 10
-210.0
 20
-148.5
  9
$EXTMAX
 10
210.0
 20
148.5
  9
$PDMODE
 70
    32
  9
$PDSIZE
 40
1.5
  9
$LTSCALE
 40
10.0
  0
ENDSEC
  0
SECTION
  2
TABLES
  0
TABLE
  2
LTYPE
 70
    15
  0
LTYPE
  2
CONTINUOUS
 70
    64
  3
実線
 72
    65
 73
     0
 40
0.0
  0
LTYPE
  2
DASHED
 70
    64
  3
破線A
 72
    65
 73
     2
 40
0.6
 49
0.4
 49
-0.2
  0
LTYPE
  2
DASHEDX2
 70
    64
  3
破線B
 72
    65
 73
     2
 40
1.3
 49
0.9
 49
-0.4
  0
LTYPE
  2
DASHDOT
 70
    64
  3
１点鎖線A
 72
    65
 73
     4
 40
0.5375
 49
0.375
 49
-0.05
 49
0.0625
 49
-0.05
  0
LTYPE
  2
DASHDOTX2
 70
    64
  3
１点鎖線B
 72
    65
 73
     4
 40
1.075
 49
0.75
 49
-0.1
 49
0.125
 49
-0.1
  0
LTYPE
  2
DIVIDE2
 70
    64
  3
２点鎖線A
 72
    65
 73
     6
 40
0.5125
 49
0.3
 49
-0.0375
 49
0.05
 49
-0.0375
 49
0.05
 49
-0.0375
  0
LTYPE
  2
DIVIDE
 70
    64
  3
２点鎖線B
 72
    65
 73
     6
 40
1.05
 49
0.55
 49
-0.1
 49
0.1
 49
-0.1
 49
0.1
 49
-0.1
  0
LTYPE
  2
DOT
 70
    64
  3
点線A
 72
    65
 73
     2
 40
0.1125
 49
0.0625
 49
-0.05
  0
LTYPE
  2
DOTX2
 70
    64
  3
点線B
 72
    65
 73
     2
 40
0.275
 49
0.15
 49
-0.125
  0
LTYPE
  2
CONTINUOUS
 70
    64
  3
実線
 72
    65
 73
     0
 40
0.0
  0
LTYPE
  2
CONTINUOUS
 70
    64
  3
実線
 72
    65
 73
     0
 40
0.0
  0
LTYPE
  2
CONTINUOUS
 70
    64
  3
実線
 72
    65
 73
     0
 40
0.0
  0
LTYPE
  2
CONTINUOUS
 70
    64
  3
実線
 72
    65
 73
     0
 40
0.0
  0
LTYPE
  2
CONTINUOUS
 70
    64
  3
実線
 72
    65
 73
     0
 40
0.0
  0
LTYPE
  2
CONTINUOUS
 70
    64
  3
実線
 72
    65
 73
     0
 40
0.0
  0
ENDTAB
  0
TABLE
  2
LAYER
 70
    35
  0
LAYER
  2
通り芯
 70
     0
 62
    15
  6
CONTINUOUS
  0
LAYER
  2
補助線
 70
     0
 62
    16
  6
DOT
  0
LAYER
  2
躯体
 70
     0
 62
    31
  6
CONTINUOUS
  0
LAYER
  2
型材
 70
     0
 62
    32
  6
CONTINUOUS
  0
LAYER
  2
型材断面
 70
     0
 62
    47
  6
CONTINUOUS
  0
LAYER
  2
ガラス
 70
     0
 62
    48
  6
CONTINUOUS
  0
LAYER
  2
ゴム等
 70
     0
 62
    63
  6
CONTINUOUS
  0
LAYER
  2
ボルト／ビス
 70
     0
 62
    64
  6
CONTINUOUS
  0
LAYER
  2
文字
 70
     0
 62
    79
  6
CONTINUOUS
  0
LAYER
  2
寸法
 70
     0
 62
    80
  6
CONTINUOUS
  0
LAYER
  2
ﾊｯﾁﾝｸﾞ
 70
     0
 62
    95
  6
CONTINUOUS
  0
LAYER
  2
別途部材
 70
     0
 62
    96
  6
CONTINUOUS
  0
LAYER
  2
曲げ物
 70
     0
 62
   111
  6
CONTINUOUS
  0
LAYER
  2
鉄骨等
 70
     0
 62
   112
  6
CONTINUOUS
  0
LAYER
  2
St
 70
     0
 62
   127
  6
CONTINUOUS
  0
LAYER
  2
その他部品等
 70
     0
 62
   128
  6
CONTINUOUS
  0
LAYER
  2
ｶﾞｽｹｯﾄ
 70
     0
 62
   143
  6
CONTINUOUS
  0
LAYER
  2
ｽｹｯﾁ
 70
     0
 62
    14
  6
CONTINUOUS
  0
LAYER
  2
0
 70
     0
 62
    17
  6
CONTINUOUS
  0
LAYER
  2
1
 70
     0
 62
    30
  6
CONTINUOUS
  0
LAYER
  2
4
 70
     0
 62
    33
  6
CONTINUOUS
  0
LAYER
  2
ﾚｲﾔ3
 70
     0
 62
    46
  6
CONTINUOUS
  0
LAYER
  2
外形線
 70
     0
 62
    49
  6
CONTINUOUS
  0
LAYER
  2
部品
 70
     0
 62
    14
  6
CONTINUOUS
  0
LAYER
  2
サッシ芯
 70
     0
 62
    17
  6
DASHDOTX2
  0
LAYER
  2
寸法線
 70
     0
 62
    62
  6
CONTINUOUS
  0
LAYER
  2
姿図外形線
 70
     0
 62
    65
  6
CONTINUOUS
  0
LAYER
  2
姿補助線
 70
     0
 62
    30
  6
CONTINUOUS
  0
LAYER
  2
透視線
 70
     0
 62
    78
  6
DOT
  0
LAYER
  2
用紙
 70
     0
 62
    81
  6
CONTINUOUS
  0
LAYER
  2
実線図枠
 70
     0
 62
    94
  6
CONTINUOUS
  0
LAYER
  2
補助図枠
 70
     0
 62
    97
  6
CONTINUOUS
  0
LAYER
  2
建具記号
 70
     0
 62
   110
  6
CONTINUOUS
  0
LAYER
  2
補助文字
 70
     0
 62
   113
  6
CONTINUOUS
  0
LAYER
  2
01
 70
     0
 62
     1
  6
CONTINUOUS
  0
ENDTAB
  0
TABLE
  2
STYLE
 70
    10
  0
STYLE
  2
STANDARD
 70
     0
 40
1.0
 41
1.0
 42
1.0
 50
0.0
 71
     0
  3
TXT
  4
BIGFONT
  0
STYLE
  2
TATE
 70
     4
 40
1.0
 41
1.0
 42
1.0
 50
0.0
 71
     0
  3
TXT
  4
BIGFONT
  0
STYLE
  2
TextStyle03
 70
     0
 40
1.0
 41
1.0
 42
1.0
 50
0.0
 71
     0
  3
MONOTXT
  4
BIGFONT
  0
STYLE
  2
TextStyle04
 70
     0
 40
1.0
 41
1.0
 42
1.0
 50
0.0
 71
     0
  3
MONOTXT
  4
BIGFONT
  0
STYLE
  2
TextStyle05
 70
     0
 40
1.0
 41
1.0
 42
1.0
 50
0.0
 71
     0
  3
MONOTXT
  4
BIGFONT
  0
STYLE
  2
TextStyle06
 70
     0
 40
1.0
 41
1.0
 42
1.0
 50
0.0
 71
     0
  3
MONOTXT
  4
BIGFONT
  0
STYLE
  2
TextStyle07
 70
     0
 40
1.0
 41
1.0
 42
1.0
 50
0.0
 71
     0
  3
MONOTXT
  4
BIGFONT
  0
STYLE
  2
TextStyle08
 70
     0
 40
1.0
 41
1.0
 42
1.0
 50
0.0
 71
     0
  3
MONOTXT
  4
BIGFONT
  0
STYLE
  2
TextStyle09
 70
     0
 40
1.0
 41
1.0
 42
1.0
 50
0.0
 71
     0
  3
MONOTXT
  4
BIGFONT
  0
STYLE
  2
TextStyle10
 70
     0
 40
1.0
 41
1.0
 42
1.0
 50
0.0
 71
     0
  3
MONOTXT
  4
BIGFONT
  0
ENDTAB
  0
ENDSEC
  0
SECTION
  2
BLOCKS
  0
BLOCK
  2
*GRP_0001
 70
    65
 10
0.0
 20
0.0
  0
LINE
  8
型材断面
  6
CONTINUOUS
 10
195.0
 20
133.5
 11
195.0
 21
-133.5
  0
LINE
  8
型材断面
  6
CONTINUOUS
 10
195.0
 20
-133.5
 11
-185.0
 21
-133.5
  0
LINE
  8
型材断面
  6
CONTINUOUS
 10
-185.0
 20
-133.5
 11
-185.0
 21
133.5
  0
LINE
  8
型材断面
  6
CONTINUOUS
 10
195.0
 20
133.5
 11
-185.0
 21
133.5
  0
LINE
  8
型材断面
  6
CONTINUOUS
 10
145.0
 20
-133.5
 11
145.0
 21
-118.5
  0
LINE
  8
型材断面
  6
CONTINUOUS
 10
195.0
 20
-118.5
 11
145.0
 21
-118.5
  0
ENDBLK
  0
BLOCK
  2
*DIM_0002
 70
    65
 10
0.0
 20
0.0
  0
LINE
  8
寸法
  6
BYBLOCK
 62
     0
 10
-73.254005
 20
-33.377287
 11
-28.254005
 21
-33.377287
  0
POINT
  8
寸法
 62
     0
 10
-73.254005
 20
-33.377287
  0
POINT
  8
寸法
 62
     0
 10
-28.254005
 20
-33.377287
  0
TEXT
  7
TextStyle03
  8
寸法
  6
CONTINUOUS
 62
     0
 10
-61.65
 20
-33.025
  1
呼称寸法　900
 40
3.0
 72
     5
 11
-39.9
 21
-33.025
  0
ENDBLK
  0
BLOCK
  2
*DIM_0003
 70
    65
 10
0.0
 20
0.0
  0
LINE
  8
寸法
  6
BYBLOCK
 62
     0
 10
-65.754005
 20
52.716028
 11
-65.754005
 21
70.655042
  0
LINE
  8
寸法
  6
BYBLOCK
 62
     0
 10
-35.754005
 20
52.716028
 11
-35.754005
 21
70.655042
  0
LINE
  8
寸法
  6
BYBLOCK
 62
     0
 10
-65.754005
 20
70.655042
 11
-35.754005
 21
70.655042
  0
POINT
  8
寸法
 62
     0
 10
-65.754005
 20
70.655042
  0
POINT
  8
寸法
 62
     0
 10
-35.754005
 20
70.655042
  0
TEXT
  7
TextStyle03
  8
寸法
  6
CONTINUOUS
 62
     0
 10
-53.2125
 20
71.025
  1
600
 40
3.0
 72
     5
 11
-48.3375
 21
71.025
  0
ENDBLK
  0
BLOCK
  2
*DIM_0004
 70
    65
 10
0.0
 20
0.0
  0
LINE
  8
寸法
  6
BYBLOCK
 62
     0
 10
-74.254005
 20
51.716028
 11
-97.162248
 21
51.716028
  0
LINE
  8
寸法
  6
BYBLOCK
 62
     0
 10
-74.254005
 20
29.216028
 11
-97.162248
 21
29.216028
  0
LINE
  8
寸法
  6
BYBLOCK
 62
     0
 10
-97.162248
 20
51.716028
 11
-97.162248
 21
29.216028
  0
POINT
  8
寸法
 62
     0
 10
-97.162248
 20
51.716028
  0
POINT
  8
寸法
 62
     0
 10
-97.162248
 20
29.216028
  0
TEXT
  7
TextStyle03
  8
寸法
  6
CONTINUOUS
 62
     0
 10
-97.55
 20
38.0125
  1
450
 40
3.0
 50
90.0
 72
     5
 11
-97.55
 21
42.8875
  0
ENDBLK
  0
BLOCK
  2
*DIM_0005
 70
    65
 10
0.0
 20
0.0
  0
LINE
  8
寸法
  6
BYBLOCK
 62
     0
 10
-74.254005
 20
6.716028
 11
-97.162248
 21
6.716028
  0
LINE
  8
寸法
  6
BYBLOCK
 62
     0
 10
-97.162248
 20
29.216028
 11
-97.162248
 21
6.716028
  0
POINT
  8
寸法
 62
     0
 10
-97.162248
 20
6.716028
  0
TEXT
  7
TextStyle03
  8
寸法
  6
CONTINUOUS
 62
     0
 10
-97.55
 20
15.5125
  1
450
 40
3.0
 50
90.0
 72
     5
 11
-97.55
 21
20.3875
  0
ENDBLK
  0
BLOCK
  2
*DIM_0006
 70
    65
 10
0.0
 20
0.0
  0
LINE
  8
寸法
  6
CONTINUOUS
 10
-53.004003
 20
32.46603
 11
-53.004003
 21
40.538253
  0
LINE
  8
寸法
  6
CONTINUOUS
 10
-48.504007
 20
32.46603
 11
-48.504007
 21
40.538253
  0
LINE
  8
寸法
  6
CONTINUOUS
 10
-53.004003
 20
40.538253
 11
-48.504007
 21
40.538253
  0
POINT
  8
寸法
 10
-53.004003
 20
40.538253
  0
POINT
  8
寸法
 10
-48.504007
 20
40.538253
  0
TEXT
  7
TextStyle03
  8
寸法
  6
CONTINUOUS
 10
-52.31875
 20
40.9
  1
90
 40
3.0
 72
     5
 11
-49.13125
 21
40.9
  0
ENDBLK
  0
BLOCK
  2
*DIM_0007
 70
    65
 10
0.0
 20
0.0
  0
LINE
  8
寸法
  6
CONTINUOUS
 10
-23.304005
 20
-90.788382
 11
-1.26243
 21
-90.788382
  0
LINE
  8
寸法
  6
CONTINUOUS
 10
-23.304005
 20
-87.471187
 11
-1.26243
 21
-87.471187
  0
LINE
  8
寸法
  6
CONTINUOUS
 10
-1.26243
 20
-90.788382
 11
-1.26243
 21
-87.471187
  0
POINT
  8
寸法
 10
-1.26243
 20
-90.788382
  0
POINT
  8
寸法
 10
-1.26243
 20
-87.471187
  0
TEXT
  7
TextStyle03
  8
寸法
  6
CONTINUOUS
 10
2.55
 20
-92.60625
  1
66.3
 40
3.0
 50
90.0
 72
     5
 11
2.55
 21
-86.04375
  0
ENDBLK
  0
BLOCK
  2
*DIM_0008
 70
    65
 10
0.0
 20
0.0
  0
LINE
  8
寸法
  6
CONTINUOUS
 10
-49.754005
 20
-60.703557
 11
-1.26243
 21
-60.703557
  0
LINE
  8
寸法
  6
CONTINUOUS
 10
-1.26243
 20
-87.471187
 11
-1.26243
 21
-60.703557
  0
POINT
  8
寸法
 10
-1.26243
 20
-87.471187
  0
POINT
  8
寸法
 10
-1.26243
 20
-60.703557
  0
TEXT
  7
TextStyle03
  8
寸法
  6
CONTINUOUS
 10
-1.65
 20
-78.225
  1
535.3
 40
3.0
 50
90.0
 72
     5
 11
-1.65
 21
-69.975
  0
ENDBLK
  0
BLOCK
  2
*DIM_0009
 70
    65
 10
0.0
 20
0.0
  0
LINE
  8
寸法
  6
CONTINUOUS
 10
-48.754005
 20
-60.703557
 11
-39.61107
 21
-60.703557
  0
LINE
  8
寸法
  6
CONTINUOUS
 10
-47.503417
 20
-62.953557
 11
-39.61107
 21
-62.953557
  0
LINE
  8
寸法
  6
CONTINUOUS
 10
-39.61107
 20
-60.703557
 11
-39.61107
 21
-62.953557
  0
POINT
  8
寸法
 10
-39.61107
 20
-60.703557
  0
POINT
  8
寸法
 10
-39.61107
 20
-62.953557
  0
TEXT
  7
TextStyle03
  8
寸法
  6
CONTINUOUS
 10
-39.5
 20
-66.61875
  1
45
 40
3.0
 50
90.0
 72
     5
 11
-39.5
 21
-63.43125
  0
ENDBLK
  0
BLOCK
  2
*DIM_0010
 70
    65
 10
0.0
 20
0.0
  0
LINE
  8
寸法
  6
CONTINUOUS
 10
-53.004005
 20
-61.953557
 11
-53.004005
 21
-56.333897
  0
LINE
  8
寸法
  6
CONTINUOUS
 10
-48.503417
 20
-61.953557
 11
-48.503417
 21
-56.333897
  0
LINE
  8
寸法
  6
CONTINUOUS
 10
-53.004005
 20
-56.333897
 11
-48.503417
 21
-56.333897
  0
POINT
  8
寸法
 10
-53.004005
 20
-56.333897
  0
POINT
  8
寸法
 10
-48.503417
 20
-56.333897
  0
TEXT
  7
TextStyle03
  8
寸法
  6
CONTINUOUS
 10
-52.36875
 20
-55.975
  1
90
 40
3.0
 72
     5
 11
-49.18125
 21
-55.975
  0
ENDBLK
  0
BLOCK
  2
*DIM_0011
 70
    65
 10
0.0
 20
0.0
  0
LINE
  8
寸法
  6
CONTINUOUS
 10
-24.304005
 20
-86.471187
 11
-24.304005
 21
-33.377287
  0
LINE
  8
寸法
  6
CONTINUOUS
 10
-28.254005
 20
-33.377287
 11
-24.304005
 21
-33.377287
  0
POINT
  8
寸法
 10
-28.254005
 20
-33.377287
  0
POINT
  8
寸法
 10
-24.304005
 20
-33.377287
  0
TEXT
  7
TextStyle03
  8
寸法
  6
CONTINUOUS
 10
-27.89375
 20
-33.025
  1
79
 40
3.0
 72
     5
 11
-24.70625
 21
-33.025
  0
ENDBLK
  0
BLOCK
  2
*DIM_0012
 70
    65
 10
0.0
 20
0.0
  0
LINE
  8
寸法
  6
CONTINUOUS
 10
-77.204005
 20
-86.471187
 11
-77.204005
 21
-33.377287
  0
LINE
  8
寸法
  6
CONTINUOUS
 10
-73.254005
 20
-33.377287
 11
-77.204005
 21
-33.377287
  0
POINT
  8
寸法
 10
-73.254005
 20
-33.377287
  0
POINT
  8
寸法
 10
-77.204005
 20
-33.377287
  0
TEXT
  7
TextStyle03
  8
寸法
  6
CONTINUOUS
 10
-76.84375
 20
-33.025
  1
79
 40
3.0
 72
     5
 11
-73.65625
 21
-33.025
  0
ENDBLK
  0
BLOCK
  2
*DIM_0013
 70
    65
 10
0.0
 20
0.0
  0
LINE
  8
寸法
  6
CONTINUOUS
 10
107.657742
 20
-82.562842
 11
107.657742
 21
-92.084667
  0
LINE
  8
寸法
  6
CONTINUOUS
 10
150.380808
 20
-82.562842
 11
150.380808
 21
-92.084667
  0
LINE
  8
寸法
  6
CONTINUOUS
 10
107.657742
 20
-92.084667
 11
150.380808
 21
-92.084667
  0
POINT
  8
寸法
 10
107.657742
 20
-92.084667
  0
POINT
  8
寸法
 10
150.380808
 20
-92.084667
  0
TEXT
  7
TextStyle03
  8
寸法
  6
CONTINUOUS
 10
124.03125
 20
-91.725
  1
854.46
 40
3.0
 72
     5
 11
133.96875
 21
-91.725
  0
ENDBLK
  0
BLOCK
  2
*DIM_0014
 70
    65
 10
0.0
 20
0.0
  0
LINE
  8
寸法
  6
CONTINUOUS
 10
151.380808
 20
-81.562842
 11
163.72228
 21
-81.562842
  0
LINE
  8
寸法
  6
CONTINUOUS
 10
130.019275
 20
-51.353078
 11
163.72228
 21
-51.353078
  0
LINE
  8
寸法
  6
CONTINUOUS
 10
163.72228
 20
-81.562842
 11
163.72228
 21
-51.353078
  0
POINT
  8
寸法
 10
163.72228
 20
-81.562842
  0
POINT
  8
寸法
 10
163.72228
 20
-51.353078
  0
TEXT
  7
TextStyle03
  8
寸法
  6
CONTINUOUS
 10
163.325
 20
-70.6
  1
604.2
 40
3.0
 50
90.0
 72
     5
 11
163.325
 21
-62.35
  0
ENDBLK
  0
ENDSEC
  0
SECTION
  2
ENTITIES
  0
POLYLINE
  8
通り芯
  6
CONTINUOUS
 66
     1
 70
     1
  0
VERTEX
  8
通り芯
 10
-210.0
 20
-148.5
  0
VERTEX
  8
通り芯
 10
210.0
 20
-148.5
  0
VERTEX
  8
通り芯
 10
210.0
 20
148.5
  0
VERTEX
  8
通り芯
 10
-210.0
 20
148.5
  0
SEQEND
  0
INSERT
  2
*GRP_0001
  8
型材断面
  6
CONTINUOUS
 10
0.0
 20
0.0
  0
LINE
  8
型材断面
  6
CONTINUOUS
 10
4.20554
 20
5.837107
 11
1.962095
 21
1.951347
  0
LINE
  8
型材断面
  6
CONTINUOUS
 10
4.20554
 20
5.837107
 11
6.448985
 21
1.951347
  0
LINE
  8
型材断面
  6
CONTINUOUS
 10
6.448985
 20
1.951347
 11
1.962095
 21
1.951347
  0
LINE
  8
型材断面
  6
CONTINUOUS
 10
-4.82834
 20
0.543455
 11
47.82834
 21
0.543455
  0
LINE
  8
型材断面
  6
DASHDOT
 10
-73.254005
 20
6.716028
 11
-28.254005
 21
6.716028
  0
LINE
  8
型材断面
  6
DASHDOT
 10
-73.254005
 20
51.716028
 11
-28.254005
 21
51.716028
  0
LINE
  8
型材断面
  6
DASHDOTX2
 10
-73.254005
 20
29.216028
 11
-28.254005
 21
29.216028
  0
LINE
  8
型材断面
  6
CONTINUOUS
 10
-50.754005
 20
59.739903
 11
-52.99745
 21
63.625662
  0
LINE
  8
型材断面
  6
CONTINUOUS
 10
-50.754005
 20
59.739903
 11
-48.51056
 21
63.625662
  0
LINE
  8
型材断面
  6
CONTINUOUS
 10
-48.51056
 20
63.625662
 11
-52.99745
 21
63.625662
  0
LINE
  8
型材断面
  6
CONTINUOUS
 10
-50.754005
 20
-1.307848
 11
-52.99745
 21
-5.193607
  0
LINE
  8
型材断面
  6
CONTINUOUS
 10
-50.754005
 20
-1.307848
 11
-48.51056
 21
-5.193607
  0
LINE
  8
型材断面
  6
CONTINUOUS
 10
-48.51056
 20
-5.193607
 11
-52.99745
 21
-5.193607
  0
LINE
  8
型材断面
  6
CONTINUOUS
 10
-20.23013
 20
29.216028
 11
-16.34437
 21
31.459473
  0
LINE
  8
型材断面
  6
CONTINUOUS
 10
-20.23013
 20
29.216028
 11
-16.34437
 21
26.972582
  0
LINE
  8
型材断面
  6
CONTINUOUS
 10
-16.34437
 20
26.972582
 11
-16.34437
 21
31.459473
  0
LINE
  8
型材断面
  6
CONTINUOUS
 10
-81.27788
 20
29.216028
 11
-85.16364
 21
31.459473
  0
LINE
  8
型材断面
  6
CONTINUOUS
 10
-81.27788
 20
29.216028
 11
-85.16364
 21
26.972582
  0
LINE
  8
型材断面
  6
CONTINUOUS
 10
-85.16364
 20
26.972582
 11
-85.16364
 21
31.459473
  0
LINE
  8
型材断面
  6
CONTINUOUS
 10
-4.82834
 20
-6.463655
 11
47.82834
 21
-6.463655
  0
LINE
  8
型材断面
  6
CONTINUOUS
 10
-24.30401
 20
55.666022
 11
-77.204
 21
55.666022
  0
LINE
  8
型材断面
  6
CONTINUOUS
 10
-77.204
 20
55.666022
 11
-77.204
 21
2.766033
  0
LINE
  8
型材断面
  6
CONTINUOUS
 10
-77.204
 20
2.766033
 11
-24.30401
 21
2.766033
  0
LINE
  8
型材断面
  6
CONTINUOUS
 10
-24.30401
 20
55.666022
 11
-24.30401
 21
2.766033
  0
LINE
  8
型材断面
  6
CONTINUOUS
 10
-50.754005
 20
29.216028
 11
-77.204
 21
2.766033
  0
LINE
  8
型材断面
  6
CONTINUOUS
 10
-24.30401
 20
2.766033
 11
-77.204
 21
55.666022
  0
LINE
  8
型材断面
  6
CONTINUOUS
 10
-50.754005
 20
29.216028
 11
-24.30401
 21
55.666022
  0
LINE
  8
型材断面
  6
DASHDOT
 10
-73.254005
 20
51.716028
 11
-73.254005
 21
-90.788382
  0
LINE
  8
型材断面
  6
DASHDOT
 10
-50.754005
 20
51.716028
 11
-50.754005
 21
-90.788382
  0
LINE
  8
型材断面
  6
DASHDOT
 10
-28.254005
 20
51.716028
 11
-28.254005
 21
-90.788382
  0
LINE
  8
型材断面
  6
CONTINUOUS
 10
-24.304005
 20
-87.400455
 11
-24.250972
 21
-87.34742
  0
LINE
  8
型材断面
  6
CONTINUOUS
 10
-24.304005
 20
-87.471187
 11
-24.304005
 21
-90.788382
  0
LINE
  8
型材断面
  6
CONTINUOUS
 10
-25.554005
 20
-90.788365
 11
-25.554005
 21
-91.488365
  0
LINE
  8
型材断面
  6
CONTINUOUS
 10
-77.204005
 20
-87.471187
 11
-77.204005
 21
-90.788382
  0
LINE
  8
型材断面
  6
CONTINUOUS
 10
-75.954005
 20
-90.788365
 11
-75.954005
 21
-91.488365
  0
LINE
  8
型材断面
  6
CONTINUOUS
 10
-24.304005
 20
-90.788382
 11
-77.204005
 21
-90.788382
  0
LINE
  8
型材断面
  6
CONTINUOUS
 10
-24.304005
 20
-87.471187
 11
-77.204005
 21
-87.471187
  0
LINE
  8
型材断面
  6
CONTINUOUS
 10
-25.554005
 20
-91.488365
 11
-75.954005
 21
-91.488365
  0
LINE
  8
型材断面
  6
CONTINUOUS
 10
-77.204005
 20
-87.400455
 11
-50.754003
 21
-60.950457
  0
LINE
  8
型材断面
  6
CONTINUOUS
 10
-24.304005
 20
-87.400455
 11
-50.754003
 21
-60.950457
  0
LINE
  8
型材断面
  6
CONTINUOUS
 10
-24.250972
 20
-87.34742
 11
-50.754005
 21
-60.84439
  0
LINE
  8
型材断面
  6
CONTINUOUS
 10
-77.257038
 20
-87.34742
 11
-50.754005
 21
-60.84439
  0
LINE
  8
型材断面
  6
CONTINUOUS
 10
-50.754005
 20
-62.117772
 11
-50.754005
 21
-60.703557
  0
LINE
  8
型材断面
  6
CONTINUOUS
 10
-50.754005
 20
-62.117772
 11
-50.754005
 21
-60.703557
  0
LINE
  8
型材断面
  6
CONTINUOUS
 10
-53.004005
 20
-62.953557
 11
-52.933295
 21
-63.024268
  0
LINE
  8
型材断面
  6
CONTINUOUS
 10
-52.933295
 20
-63.024268
 11
-51.660502
 21
-63.024268
  0
LINE
  8
型材断面
  6
CONTINUOUS
 10
-50.754005
 20
-60.703557
 11
-53.004005
 21
-62.953557
  0
LINE
  8
型材断面
  6
CONTINUOUS
 10
-50.754005
 20
-62.11777
 11
-51.660502
 21
-63.024268
  0
LINE
  8
型材断面
  6
CONTINUOUS
 10
-48.503417
 20
-62.953557
 11
-48.574128
 21
-63.024268
  0
LINE
  8
型材断面
  6
CONTINUOUS
 10
-48.574128
 20
-63.024268
 11
-49.84692
 21
-63.024268
  0
LINE
  8
型材断面
  6
CONTINUOUS
 10
-50.754005
 20
-62.11777
 11
-49.847508
 21
-63.024268
  0
LINE
  8
型材断面
  6
CONTINUOUS
 10
-50.754005
 20
-60.703557
 11
-48.50371
 21
-62.953852
  0
LINE
  8
型材断面
  6
CONTINUOUS
 10
-52.159685
 20
29.216028
 11
-53.004005
 21
28.37171
  0
LINE
  8
型材断面
  6
CONTINUOUS
 10
-53.004005
 20
28.37171
 11
-53.004005
 21
26.966028
  0
LINE
  8
型材断面
  6
CONTINUOUS
 10
-53.004005
 20
26.966028
 11
-51.598327
 21
26.966028
  0
LINE
  8
型材断面
  6
CONTINUOUS
 10
-50.754005
 20
27.810347
 11
-51.598327
 21
26.966028
  0
LINE
  8
型材断面
  6
CONTINUOUS
 10
-50.754005
 20
29.216028
 11
-53.004007
 21
26.966028
  0
LINE
  8
型材断面
  6
CONTINUOUS
 10
-48.504007
 20
31.46603
 11
-49.909682
 21
31.466028
  0
LINE
  8
型材断面
  6
CONTINUOUS
 10
-50.754005
 20
30.621708
 11
-49.909682
 21
31.466028
  0
LINE
  8
型材断面
  6
CONTINUOUS
 10
-48.504007
 20
31.46603
 11
-48.504005
 21
30.060345
  0
LINE
  8
型材断面
  6
CONTINUOUS
 10
-49.348325
 20
29.216028
 11
-48.504005
 21
30.060345
  0
LINE
  8
型材断面
  6
CONTINUOUS
 10
-50.754005
 20
29.216028
 11
-48.504
 21
31.46603
  0
LINE
  8
型材断面
  6
CONTINUOUS
 10
-50.754005
 20
27.810347
 11
-49.909682
 21
26.966028
  0
LINE
  8
型材断面
  6
CONTINUOUS
 10
-48.504005
 20
26.966028
 11
-49.909682
 21
26.966028
  0
LINE
  8
型材断面
  6
CONTINUOUS
 10
-48.504005
 20
26.966028
 11
-48.504005
 21
28.37171
  0
LINE
  8
型材断面
  6
CONTINUOUS
 10
-49.348325
 20
29.216028
 11
-48.504005
 21
28.37171
  0
LINE
  8
型材断面
  6
CONTINUOUS
 10
-53.004003
 20
31.46603
 11
-51.598327
 21
31.466028
  0
LINE
  8
型材断面
  6
CONTINUOUS
 10
-50.754005
 20
30.621708
 11
-51.598327
 21
31.466028
  0
LINE
  8
型材断面
  6
CONTINUOUS
 10
-53.004003
 20
31.46603
 11
-53.004005
 21
30.060345
  0
LINE
  8
型材断面
  6
CONTINUOUS
 10
-52.159685
 20
29.216028
 11
-53.004005
 21
30.060345
  0
LINE
  8
型材断面
  6
CONTINUOUS
 10
-50.754005
 20
29.216028
 11
-53.004003
 21
31.466022
  0
LINE
  8
型材断面
  6
CONTINUOUS
 10
-50.754005
 20
29.216028
 11
-48.504003
 21
26.966028
  0
LINE
  8
型材断面
  6
CONTINUOUS
 10
90.88649
 20
-53.166398
 11
114.818112
 21
-53.166398
  0
LINE
  8
ガラス
  6
CONTINUOUS
 10
-48.756737
 20
15.729895
 11
-52.629373
 21
11.85726
  0
LINE
  8
ガラス
  6
CONTINUOUS
 10
-49.63706
 20
14.131538
 11
-51.031015
 21
12.737582
  0
LINE
  8
ガラス
  6
CONTINUOUS
 10
-50.355095
 20
14.849573
 11
-51.74905
 21
13.455617
  0
LINE
  8
ガラス
  6
CONTINUOUS
 10
-32.700663
 20
31.1417
 11
-36.573297
 21
27.269065
  0
LINE
  8
ガラス
  6
CONTINUOUS
 10
-33.580985
 20
29.543342
 11
-34.97494
 21
28.149388
  0
LINE
  8
ガラス
  6
CONTINUOUS
 10
-34.29902
 20
30.261377
 11
-35.692975
 21
28.867423
  0
LINE
  8
ガラス
  6
CONTINUOUS
 10
-64.94476
 20
31.1417
 11
-68.817395
 21
27.269065
  0
LINE
  8
ガラス
  6
CONTINUOUS
 10
-65.825083
 20
29.543342
 11
-67.219038
 21
28.149388
  0
LINE
  8
ガラス
  6
CONTINUOUS
 10
-66.543117
 20
30.261377
 11
-67.937072
 21
28.867423
  0
LINE
  8
ガラス
  6
CONTINUOUS
 10
-48.756737
 20
-75.052225
 11
-52.629373
 21
-78.92486
  0
LINE
  8
ガラス
  6
CONTINUOUS
 10
-49.63706
 20
-76.650583
 11
-51.031015
 21
-78.044538
  0
LINE
  8
ガラス
  6
CONTINUOUS
 10
-50.355095
 20
-75.932547
 11
-51.74905
 21
-77.326502
  0
LINE
  8
ガラス
  6
CONTINUOUS
 10
-48.756737
 20
47.90368
 11
-52.629373
 21
44.031045
  0
LINE
  8
ガラス
  6
CONTINUOUS
 10
-49.63706
 20
46.305322
 11
-51.031015
 21
44.911368
  0
LINE
  8
ガラス
  6
CONTINUOUS
 10
-50.355095
 20
47.023358
 11
-51.74905
 21
45.629402
  0
LINE
  8
ガラス
  6
CONTINUOUS
 10
107.657742
 20
-81.562842
 11
150.380808
 21
-81.562842
  0
LINE
  8
ガラス
  6
CONTINUOUS
 10
150.380808
 20
-81.562842
 11
129.019275
 21
-51.353078
  0
LINE
  8
ガラス
  6
CONTINUOUS
 10
107.657742
 20
-81.562842
 11
129.019275
 21
-51.353078
  0
LINE
  8
ゴム等
  6
CONTINUOUS
 10
-50.754005
 20
27.618917
 11
-50.754005
 21
26.02675
  0
LINE
  8
ゴム等
  6
CONTINUOUS
 10
-50.754005
 20
30.813138
 11
-50.754005
 21
32.405305
  0
LINE
  8
ゴム等
  6
CONTINUOUS
 10
-49.156895
 20
29.216028
 11
-47.564728
 21
29.216028
  0
LINE
  8
ゴム等
  6
CONTINUOUS
 10
-52.351115
 20
29.216028
 11
-53.943282
 21
29.216028
  0
LINE
  8
ゴム等
  6
CONTINUOUS
 10
-50.754005
 20
33.667878
 11
-70.38727
 21
53.301143
  0
LINE
  8
ゴム等
  6
CONTINUOUS
 10
-50.754005
 20
32.405305
 11
-72.90792
 21
54.55922
  0
LINE
  8
ゴム等
  6
CONTINUOUS
 10
-50.754005
 20
30.813138
 11
-75.419327
 21
55.47846
  0
LINE
  8
ゴム等
  6
CONTINUOUS
 10
-55.205855
 20
29.216028
 11
-74.83912
 21
48.849293
  0
LINE
  8
ゴム等
  6
CONTINUOUS
 10
-53.943282
 20
29.216028
 11
-76.097198
 21
51.369943
  0
LINE
  8
ゴム等
  6
CONTINUOUS
 10
-52.351115
 20
29.216028
 11
-77.016438
 21
53.88135
  0
LINE
  8
ゴム等
  6
CONTINUOUS
 10
-70.38727
 20
53.301143
 11
-31.12074
 21
53.301143
  0
LINE
  8
ゴム等
  6
CONTINUOUS
 10
-50.754005
 20
33.667878
 11
-31.12074
 21
53.301143
  0
LINE
  8
ゴム等
  6
CONTINUOUS
 10
-50.754005
 20
32.405305
 11
-28.60009
 21
54.55922
  0
LINE
  8
ゴム等
  6
CONTINUOUS
 10
-72.90792
 20
54.55922
 11
-28.60009
 21
54.55922
  0
LINE
  8
ゴム等
  6
CONTINUOUS
 10
-75.419327
 20
55.47846
 11
-26.088682
 21
55.47846
  0
LINE
  8
ゴム等
  6
CONTINUOUS
 10
-50.754005
 20
30.813138
 11
-26.088682
 21
55.47846
  0
LINE
  8
ゴム等
  6
CONTINUOUS
 10
-46.302155
 20
29.216028
 11
-26.66889
 21
48.849293
  0
LINE
  8
ゴム等
  6
CONTINUOUS
 10
-47.564728
 20
29.216028
 11
-25.410812
 21
51.369943
  0
LINE
  8
ゴム等
  6
CONTINUOUS
 10
-49.156895
 20
29.216028
 11
-24.491572
 21
53.88135
  0
LINE
  8
ゴム等
  6
CONTINUOUS
 10
-46.302155
 20
29.216028
 11
-26.66889
 21
9.582762
  0
LINE
  8
ゴム等
  6
CONTINUOUS
 10
-26.66889
 20
48.849293
 11
-26.66889
 21
9.582762
  0
LINE
  8
ゴム等
  6
CONTINUOUS
 10
-47.564728
 20
29.216028
 11
-25.410812
 21
7.062112
  0
LINE
  8
ゴム等
  6
CONTINUOUS
 10
-25.410812
 20
51.369943
 11
-25.410812
 21
7.062112
  0
LINE
  8
ゴム等
  6
CONTINUOUS
 10
-49.156895
 20
29.216028
 11
-24.491572
 21
4.550705
  0
LINE
  8
ゴム等
  6
CONTINUOUS
 10
-24.491572
 20
53.88135
 11
-24.491572
 21
4.550705
  0
LINE
  8
ゴム等
  6
CONTINUOUS
 10
-50.754005
 20
24.764178
 11
-31.12074
 21
5.130912
  0
LINE
  8
ゴム等
  6
CONTINUOUS
 10
-50.754005
 20
26.02675
 11
-28.60009
 21
3.872835
  0
LINE
  8
ゴム等
  6
CONTINUOUS
 10
-50.754005
 20
27.618917
 11
-26.088682
 21
2.953595
  0
LINE
  8
ゴム等
  6
CONTINUOUS
 10
-50.754005
 20
24.764178
 11
-70.38727
 21
5.130912
  0
LINE
  8
ゴム等
  6
CONTINUOUS
 10
-31.12074
 20
5.130912
 11
-70.38727
 21
5.130912
  0
LINE
  8
ゴム等
  6
CONTINUOUS
 10
-28.60009
 20
3.872835
 11
-72.90792
 21
3.872835
  0
LINE
  8
ゴム等
  6
CONTINUOUS
 10
-50.754005
 20
26.02675
 11
-72.90792
 21
3.872835
  0
LINE
  8
ゴム等
  6
CONTINUOUS
 10
-50.754005
 20
27.618917
 11
-75.419327
 21
2.953595
  0
LINE
  8
ゴム等
  6
CONTINUOUS
 10
-26.088682
 20
2.953595
 11
-75.419327
 21
2.953595
  0
LINE
  8
ゴム等
  6
CONTINUOUS
 10
-74.83912
 20
48.849293
 11
-74.83912
 21
9.582762
  0
LINE
  8
ゴム等
  6
CONTINUOUS
 10
-55.205855
 20
29.216028
 11
-74.83912
 21
9.582762
  0
LINE
  8
ゴム等
  6
CONTINUOUS
 10
-76.097198
 20
51.369943
 11
-76.097198
 21
7.062112
  0
LINE
  8
ゴム等
  6
CONTINUOUS
 10
-53.943282
 20
29.216028
 11
-76.097198
 21
7.062112
  0
LINE
  8
ゴム等
  6
CONTINUOUS
 10
-52.351115
 20
29.216028
 11
-77.016438
 21
4.550705
  0
LINE
  8
ゴム等
  6
CONTINUOUS
 10
-77.016438
 20
53.88135
 11
-77.016438
 21
4.550705
  0
LINE
  8
ゴム等
  6
CONTINUOUS
 10
-24.491572
 20
53.88135
 11
-25.410812
 21
51.369943
  0
LINE
  8
ゴム等
  6
CONTINUOUS
 10
-25.410812
 20
51.369943
 11
-26.66889
 21
48.849293
  0
LINE
  8
ゴム等
  6
CONTINUOUS
 10
-26.088682
 20
55.47846
 11
-28.60009
 21
54.55922
  0
LINE
  8
ゴム等
  6
CONTINUOUS
 10
-28.60009
 20
54.55922
 11
-31.12074
 21
53.301143
  0
LINE
  8
ゴム等
  6
CONTINUOUS
 10
-77.016438
 20
53.88135
 11
-76.097198
 21
51.369943
  0
LINE
  8
ゴム等
  6
CONTINUOUS
 10
-76.097198
 20
51.369943
 11
-74.83912
 21
48.849293
  0
LINE
  8
ゴム等
  6
CONTINUOUS
 10
-75.419327
 20
55.47846
 11
-72.90792
 21
54.55922
  0
LINE
  8
ゴム等
  6
CONTINUOUS
 10
-72.90792
 20
54.55922
 11
-70.38727
 21
53.301143
  0
LINE
  8
ゴム等
  6
CONTINUOUS
 10
-77.016438
 20
4.550705
 11
-76.097198
 21
7.062112
  0
LINE
  8
ゴム等
  6
CONTINUOUS
 10
-76.097198
 20
7.062112
 11
-74.83912
 21
9.582762
  0
LINE
  8
ゴム等
  6
CONTINUOUS
 10
-75.419327
 20
2.953595
 11
-72.90792
 21
3.872835
  0
LINE
  8
ゴム等
  6
CONTINUOUS
 10
-72.90792
 20
3.872835
 11
-70.38727
 21
5.130912
  0
LINE
  8
ゴム等
  6
CONTINUOUS
 10
-24.491572
 20
4.550705
 11
-25.410812
 21
7.062112
  0
LINE
  8
ゴム等
  6
CONTINUOUS
 10
-25.410812
 20
7.062112
 11
-26.66889
 21
9.582762
  0
LINE
  8
ゴム等
  6
CONTINUOUS
 10
-26.088682
 20
2.953595
 11
-28.60009
 21
3.872835
  0
LINE
  8
ゴム等
  6
CONTINUOUS
 10
-28.60009
 20
3.872835
 11
-31.12074
 21
5.130912
  0
LINE
  8
ゴム等
  6
CONTINUOUS
 10
-31.11823
 20
-85.73649
 11
-28.600102
 21
-86.328833
  0
LINE
  8
ゴム等
  6
CONTINUOUS
 10
-28.600102
 20
-86.328833
 11
-26.088698
 21
-87.248073
  0
LINE
  8
ゴム等
  6
CONTINUOUS
 10
-75.419312
 20
-87.248073
 11
-72.907907
 21
-86.328833
  0
LINE
  8
ゴム等
  6
CONTINUOUS
 10
-72.907907
 20
-86.328833
 11
-70.38978
 21
-85.73649
  0
LINE
  8
ゴム等
  6
CONTINUOUS
 10
-28.600102
 20
-86.328833
 11
-72.907907
 21
-86.328833
  0
LINE
  8
ゴム等
  6
CONTINUOUS
 10
-26.088698
 20
-87.248073
 11
-75.419312
 21
-87.248073
  0
LINE
  8
ゴム等
  6
CONTINUOUS
 10
-31.11823
 20
-85.73649
 11
-70.38978
 21
-85.73649
  0
LINE
  8
ゴム等
  6
CONTINUOUS
 10
-70.38978
 20
-85.73649
 11
-50.754005
 21
-66.100717
  0
LINE
  8
ゴム等
  6
CONTINUOUS
 10
-31.11823
 20
-85.73649
 11
-50.754005
 21
-66.100717
  0
LINE
  8
ゴム等
  6
CONTINUOUS
 10
-28.600102
 20
-86.328833
 11
-50.754005
 21
-64.174932
  0
LINE
  8
ゴム等
  6
CONTINUOUS
 10
-72.907907
 20
-86.328833
 11
-50.754005
 21
-64.174932
  0
LINE
  8
ゴム等
  6
CONTINUOUS
 10
-75.419312
 20
-87.248073
 11
-50.754005
 21
-62.582768
  0
LINE
  8
ゴム等
  6
CONTINUOUS
 10
-26.088698
 20
-87.248073
 11
-50.754005
 21
-62.582768
  0
LINE
  8
ゴム等
  6
CONTINUOUS
 10
-50.754005
 20
-62.582768
 11
-50.754005
 21
-66.100717
  0
TEXT
  7
TextStyle03
  8
文字
  6
CONTINUOUS
 10
8.475
 20
2.275
  1
は排水穴位置を示す
 40
3.0
 72
     5
 11
38.475
 21
2.275
  0
TEXT
  7
TextStyle03
  8
文字
  6
CONTINUOUS
 10
-79.65
 20
74.925
  1
アンカーピッチ
 40
3.0
 72
     5
 11
-56.4
 21
74.925
  0
TEXT
  7
TextStyle03
  8
文字
  6
CONTINUOUS
 10
-103.3
 20
-3.175
  1
アンカーピッチ
 40
3.0
 50
90.0
 72
     5
 11
-103.3
 21
20.075
  0
TEXT
  7
TextStyle03
  8
文字
  6
CONTINUOUS
 10
2.875
 20
-5.075
  1
アンカー数量　６ヶ所
 40
3.0
 72
     5
 11
36.25
 21
-5.075
  0
TEXT
  7
TextStyle03
  8
文字
  6
CONTINUOUS
 10
75.525
 20
91.9
  1
ＮＳコード：ＮＳ４ＧＫ
 40
5.0
 72
     5
 11
136.775
 21
91.9
  0
TEXT
  7
TextStyle03
  8
文字
  6
CONTINUOUS
 10
75.275
 20
113.5
  1
シリーズ：ＤＦ４Ｋ
 40
5.0
 72
     5
 11
125.275
 21
113.5
  0
TEXT
  7
TextStyle03
  8
文字
  6
CONTINUOUS
 10
75.275
 20
107.875
  1
　　　　　四角錘（固定）900×900タイプ
 40
5.0
 72
     5
 11
181.525
 21
107.875
  0
TEXT
  7
TextStyle03
  8
文字
  6
CONTINUOUS
 10
75.275
 20
102.25
  1
図面名　：外観姿図
 40
5.0
 72
     5
 11
125.275
 21
102.25
  0
TEXT
  7
TextStyle03
  8
文字
  6
CONTINUOUS
 10
75.275
 20
96.625
  1
　　　　　　
 40
5.0
 72
     5
 11
108.4
 21
96.625
  0
TEXT
  7
TextStyle03
  8
文字
  6
CONTINUOUS
 10
136.05
 20
-79.85
  1
×４枚
 40
3.0
 72
     5
 11
145.8
 21
-79.85
  0
TEXT
  7
TextStyle03
  8
文字
  6
CONTINUOUS
 10
94.475
 20
-51.9
  1
ガラス寸法
 40
3.0
 72
     5
 11
110.975
 21
-51.9
  0
INSERT
  2
*DIM_0002
  8
寸法
  6
CONTINUOUS
 10
0.0
 20
0.0
  0
INSERT
  2
*DIM_0003
  8
寸法
  6
CONTINUOUS
 10
0.0
 20
0.0
  0
INSERT
  2
*DIM_0004
  8
寸法
  6
CONTINUOUS
 10
0.0
 20
0.0
  0
INSERT
  2
*DIM_0005
  8
寸法
  6
CONTINUOUS
 10
0.0
 20
0.0
  0
CIRCLE
  8
寸法
  6
CONTINUOUS
 10
-92.272362
 20
29.216028
 40
1.73792
  0
INSERT
  2
*DIM_0006
  8
寸法
  6
CONTINUOUS
 10
0.0
 20
0.0
  0
INSERT
  2
*DIM_0007
  8
寸法
  6
CONTINUOUS
 10
0.0
 20
0.0
  0
INSERT
  2
*DIM_0008
  8
寸法
  6
CONTINUOUS
 10
0.0
 20
0.0
  0
INSERT
  2
*DIM_0009
  8
寸法
  6
CONTINUOUS
 10
0.0
 20
0.0
  0
INSERT
  2
*DIM_0010
  8
寸法
  6
CONTINUOUS
 10
0.0
 20
0.0
  0
INSERT
  2
*DIM_0011
  8
寸法
  6
CONTINUOUS
 10
0.0
 20
0.0
  0
INSERT
  2
*DIM_0012
  8
寸法
  6
CONTINUOUS
 10
0.0
 20
0.0
  0
INSERT
  2
*DIM_0013
  8
寸法
  6
CONTINUOUS
 10
0.0
 20
0.0
  0
INSERT
  2
*DIM_0014
  8
寸法
  6
CONTINUOUS
 10
0.0
 20
0.0
  0
ENDSEC
  0
EOF
