  0
SECTION
  2
HEADER
  9
$EXTMIN
 10
-210.0
 20
-148.5
  9
$EXTMAX
 10
210.0
 20
148.5
  9
$PDMODE
 70
    32
  9
$PDSIZE
 40
0.3
  9
$LTSCALE
 40
10.0
  0
ENDSEC
  0
SECTION
  2
TABLES
  0
TABLE
  2
LTYPE
 70
    15
  0
LTYPE
  2
CONTINUOUS
 70
    64
  3
実線
 72
    65
 73
     0
 40
0.0
  0
LTYPE
  2
DASHED
 70
    64
  3
破線A
 72
    65
 73
     2
 40
0.6
 49
0.4
 49
-0.2
  0
LTYPE
  2
DASHEDX2
 70
    64
  3
破線B
 72
    65
 73
     2
 40
1.3
 49
0.9
 49
-0.4
  0
LTYPE
  2
DASHDOT
 70
    64
  3
１点鎖線A
 72
    65
 73
     4
 40
0.5375
 49
0.375
 49
-0.05
 49
0.0625
 49
-0.05
  0
LTYPE
  2
DASHDOTX2
 70
    64
  3
１点鎖線B
 72
    65
 73
     4
 40
1.075
 49
0.75
 49
-0.1
 49
0.125
 49
-0.1
  0
LTYPE
  2
DIVIDE2
 70
    64
  3
２点鎖線A
 72
    65
 73
     6
 40
0.5125
 49
0.3
 49
-0.0375
 49
0.05
 49
-0.0375
 49
0.05
 49
-0.0375
  0
LTYPE
  2
DIVIDE
 70
    64
  3
２点鎖線B
 72
    65
 73
     6
 40
1.05
 49
0.55
 49
-0.1
 49
0.1
 49
-0.1
 49
0.1
 49
-0.1
  0
LTYPE
  2
DOT
 70
    64
  3
点線A
 72
    65
 73
     2
 40
0.1125
 49
0.0625
 49
-0.05
  0
LTYPE
  2
DOTX2
 70
    64
  3
点線B
 72
    65
 73
     2
 40
0.275
 49
0.15
 49
-0.125
  0
LTYPE
  2
CONTINUOUS
 70
    64
  3
実線
 72
    65
 73
     0
 40
0.0
  0
LTYPE
  2
CONTINUOUS
 70
    64
  3
実線
 72
    65
 73
     0
 40
0.0
  0
LTYPE
  2
CONTINUOUS
 70
    64
  3
実線
 72
    65
 73
     0
 40
0.0
  0
LTYPE
  2
CONTINUOUS
 70
    64
  3
実線
 72
    65
 73
     0
 40
0.0
  0
LTYPE
  2
CONTINUOUS
 70
    64
  3
実線
 72
    65
 73
     0
 40
0.0
  0
LTYPE
  2
CONTINUOUS
 70
    64
  3
実線
 72
    65
 73
     0
 40
0.0
  0
ENDTAB
  0
TABLE
  2
LAYER
 70
    34
  0
LAYER
  2
通り芯
 70
     0
 62
    15
  6
CONTINUOUS
  0
LAYER
  2
補助線
 70
     0
 62
    16
  6
DOT
  0
LAYER
  2
躯体
 70
     0
 62
    31
  6
CONTINUOUS
  0
LAYER
  2
型材
 70
     0
 62
    32
  6
CONTINUOUS
  0
LAYER
  2
型材断面
 70
     0
 62
    47
  6
CONTINUOUS
  0
LAYER
  2
ガラス
 70
     0
 62
    48
  6
CONTINUOUS
  0
LAYER
  2
ゴム等
 70
     0
 62
    63
  6
CONTINUOUS
  0
LAYER
  2
ボルト／ビス
 70
     0
 62
    64
  6
CONTINUOUS
  0
LAYER
  2
文字
 70
     0
 62
    79
  6
CONTINUOUS
  0
LAYER
  2
寸法
 70
     0
 62
    80
  6
CONTINUOUS
  0
LAYER
  2
ﾊｯﾁﾝｸﾞ
 70
     0
 62
    95
  6
CONTINUOUS
  0
LAYER
  2
別途部材
 70
     0
 62
    96
  6
CONTINUOUS
  0
LAYER
  2
曲げ物
 70
     0
 62
   111
  6
CONTINUOUS
  0
LAYER
  2
鉄骨等
 70
     0
 62
   112
  6
CONTINUOUS
  0
LAYER
  2
St
 70
     0
 62
   127
  6
CONTINUOUS
  0
LAYER
  2
その他部品等
 70
     0
 62
   128
  6
CONTINUOUS
  0
LAYER
  2
ｶﾞｽｹｯﾄ
 70
     0
 62
   143
  6
CONTINUOUS
  0
LAYER
  2
ｽｹｯﾁ
 70
     0
 62
    14
  6
CONTINUOUS
  0
LAYER
  2
0
 70
     0
 62
    17
  6
CONTINUOUS
  0
LAYER
  2
1
 70
     0
 62
    30
  6
CONTINUOUS
  0
LAYER
  2
4
 70
     0
 62
    33
  6
CONTINUOUS
  0
LAYER
  2
ﾚｲﾔ3
 70
     0
 62
    46
  6
CONTINUOUS
  0
LAYER
  2
外形線
 70
     0
 62
    49
  6
CONTINUOUS
  0
LAYER
  2
部品
 70
     0
 62
    14
  6
CONTINUOUS
  0
LAYER
  2
サッシ芯
 70
     0
 62
    17
  6
DASHDOTX2
  0
LAYER
  2
寸法線
 70
     0
 62
    62
  6
CONTINUOUS
  0
LAYER
  2
姿図外形線
 70
     0
 62
    65
  6
CONTINUOUS
  0
LAYER
  2
姿補助線
 70
     0
 62
    30
  6
CONTINUOUS
  0
LAYER
  2
透視線
 70
     0
 62
    78
  6
DOT
  0
LAYER
  2
用紙
 70
     0
 62
    81
  6
CONTINUOUS
  0
LAYER
  2
実線図枠
 70
     0
 62
    94
  6
CONTINUOUS
  0
LAYER
  2
補助図枠
 70
     0
 62
    97
  6
CONTINUOUS
  0
LAYER
  2
建具記号
 70
     0
 62
   110
  6
CONTINUOUS
  0
LAYER
  2
補助文字
 70
     0
 62
   113
  6
CONTINUOUS
  0
ENDTAB
  0
TABLE
  2
STYLE
 70
    10
  0
STYLE
  2
STANDARD
 70
     0
 40
1.0
 41
1.0
 42
1.0
 50
0.0
 71
     0
  3
TXT
  4
BIGFONT
  0
STYLE
  2
TATE
 70
     4
 40
1.0
 41
1.0
 42
1.0
 50
0.0
 71
     0
  3
TXT
  4
BIGFONT
  0
STYLE
  2
TextStyle03
 70
     0
 40
1.0
 41
1.0
 42
1.0
 50
0.0
 71
     0
  3
MONOTXT
  4
BIGFONT
  0
STYLE
  2
TextStyle04
 70
     0
 40
1.0
 41
1.0
 42
1.0
 50
0.0
 71
     0
  3
MONOTXT
  4
BIGFONT
  0
STYLE
  2
TextStyle05
 70
     0
 40
1.0
 41
1.0
 42
1.0
 50
0.0
 71
     0
  3
MONOTXT
  4
BIGFONT
  0
STYLE
  2
TextStyle06
 70
     0
 40
1.0
 41
1.0
 42
1.0
 50
0.0
 71
     0
  3
MONOTXT
  4
BIGFONT
  0
STYLE
  2
TextStyle07
 70
     0
 40
1.0
 41
1.0
 42
1.0
 50
0.0
 71
     0
  3
MONOTXT
  4
BIGFONT
  0
STYLE
  2
TextStyle08
 70
     0
 40
1.0
 41
1.0
 42
1.0
 50
0.0
 71
     0
  3
MONOTXT
  4
BIGFONT
  0
STYLE
  2
TextStyle09
 70
     0
 40
1.0
 41
1.0
 42
1.0
 50
0.0
 71
     0
  3
MONOTXT
  4
BIGFONT
  0
STYLE
  2
TextStyle10
 70
     0
 40
1.0
 41
1.0
 42
1.0
 50
0.0
 71
     0
  3
MONOTXT
  4
BIGFONT
  0
ENDTAB
  0
ENDSEC
  0
SECTION
  2
BLOCKS
  0
BLOCK
  2
*GRP_0001
 70
    65
 10
0.0
 20
0.0
  0
LINE
  8
型材断面
  6
CONTINUOUS
 10
195.0
 20
133.5
 11
195.0
 21
-133.5
  0
LINE
  8
型材断面
  6
CONTINUOUS
 10
195.0
 20
-133.5
 11
-185.0
 21
-133.5
  0
LINE
  8
型材断面
  6
CONTINUOUS
 10
-185.0
 20
-133.5
 11
-185.0
 21
133.5
  0
LINE
  8
型材断面
  6
CONTINUOUS
 10
195.0
 20
133.5
 11
-185.0
 21
133.5
  0
LINE
  8
型材断面
  6
CONTINUOUS
 10
145.0
 20
-133.5
 11
145.0
 21
-118.5
  0
LINE
  8
型材断面
  6
CONTINUOUS
 10
195.0
 20
-118.5
 11
145.0
 21
-118.5
  0
ENDBLK
  0
BLOCK
  2
*DIM_0002
 70
    65
 10
0.0
 20
0.0
  0
LINE
  8
寸法
  6
BYBLOCK
 62
     0
 10
-32.48957
 20
-22.481818
 11
-32.48957
 21
-24.875757
  0
LINE
  8
寸法
  6
BYBLOCK
 62
     0
 10
-112.48957
 20
-24.875757
 11
-32.48957
 21
-24.875757
  0
POINT
  8
寸法
 62
     0
 10
-32.48957
 20
-24.875757
  0
TEXT
  7
TextStyle03
  8
寸法
  6
CONTINUOUS
 62
     0
 10
-84.21875
 20
-24.525
  1
呼称寸法＝2400
 40
3.0
 72
     5
 11
-60.78125
 21
-24.525
  0
ENDBLK
  0
BLOCK
  2
*DIM_0003
 70
    65
 10
0.0
 20
0.0
  0
LINE
  8
寸法
  6
BYBLOCK
 62
     0
 10
-97.48957
 20
12.228522
 11
-97.48957
 21
6.775155
  0
LINE
  8
寸法
  6
BYBLOCK
 62
     0
 10
-47.48957
 20
12.228522
 11
-47.48957
 21
6.775155
  0
LINE
  8
寸法
  6
BYBLOCK
 62
     0
 10
-97.48957
 20
6.775155
 11
-47.48957
 21
6.775155
  0
POINT
  8
寸法
 62
     0
 10
-97.48957
 20
6.775155
  0
POINT
  8
寸法
 62
     0
 10
-47.48957
 20
6.775155
  0
TEXT
  7
TextStyle03
  8
寸法
  6
CONTINUOUS
 62
     0
 10
-75.80625
 20
7.15
  1
1500
 40
3.0
 72
     5
 11
-69.24375
 21
7.15
  0
ENDBLK
  0
BLOCK
  2
*DIM_0004
 70
    65
 10
0.0
 20
0.0
  0
LINE
  8
寸法
  6
BYBLOCK
 62
     0
 10
15.81096
 20
21.811188
 11
15.81096
 21
65.14452
  0
POINT
  8
寸法
 62
     0
 10
15.81096
 20
21.811188
  0
POINT
  8
寸法
 62
     0
 10
15.81096
 20
65.14452
  0
TEXT
  7
TextStyle03
  8
寸法
  6
CONTINUOUS
 62
     0
 10
15.425
 20
31.75625
  1
呼称寸法＝1300
 40
3.0
 50
90.0
 72
     5
 11
15.425
 21
55.19375
  0
ENDBLK
  0
BLOCK
  2
*DIM_0005
 70
    65
 10
0.0
 20
0.0
  0
LINE
  8
寸法
  6
BYBLOCK
 62
     0
 10
-105.822902
 20
72.522623
 11
-105.822902
 21
83.646105
  0
LINE
  8
寸法
  6
BYBLOCK
 62
     0
 10
-89.156238
 20
72.522623
 11
-89.156238
 21
83.646105
  0
LINE
  8
寸法
  6
BYBLOCK
 62
     0
 10
-105.822902
 20
83.646105
 11
-89.156238
 21
83.646105
  0
POINT
  8
寸法
 62
     0
 10
-105.822902
 20
83.646105
  0
POINT
  8
寸法
 62
     0
 10
-89.156238
 20
83.646105
  0
TEXT
  7
TextStyle03
  8
寸法
  6
CONTINUOUS
 62
     0
 10
-99.9625
 20
84.025
  1
500
 40
3.0
 72
     5
 11
-95.0875
 21
84.025
  0
ENDBLK
  0
BLOCK
  2
*DIM_0006
 70
    65
 10
0.0
 20
0.0
  0
LINE
  8
寸法
  6
BYBLOCK
 62
     0
 10
-72.48957
 20
72.522623
 11
-72.48957
 21
83.646105
  0
LINE
  8
寸法
  6
BYBLOCK
 62
     0
 10
-89.156238
 20
83.646105
 11
-72.48957
 21
83.646105
  0
POINT
  8
寸法
 62
     0
 10
-72.48957
 20
83.646105
  0
TEXT
  7
TextStyle03
  8
寸法
  6
CONTINUOUS
 62
     0
 10
-83.2875
 20
84.025
  1
500
 40
3.0
 72
     5
 11
-78.4125
 21
84.025
  0
ENDBLK
  0
BLOCK
  2
*DIM_0007
 70
    65
 10
0.0
 20
0.0
  0
LINE
  8
寸法
  6
BYBLOCK
 62
     0
 10
-55.822902
 20
72.522623
 11
-55.822902
 21
83.646105
  0
LINE
  8
寸法
  6
BYBLOCK
 62
     0
 10
-72.48957
 20
83.646105
 11
-55.822902
 21
83.646105
  0
POINT
  8
寸法
 62
     0
 10
-55.822902
 20
83.646105
  0
TEXT
  7
TextStyle03
  8
寸法
  6
CONTINUOUS
 62
     0
 10
-66.6125
 20
84.025
  1
500
 40
3.0
 72
     5
 11
-61.7375
 21
84.025
  0
ENDBLK
  0
BLOCK
  2
*DIM_0008
 70
    65
 10
0.0
 20
0.0
  0
LINE
  8
寸法
  6
BYBLOCK
 62
     0
 10
-39.156238
 20
72.522623
 11
-39.156238
 21
83.646105
  0
LINE
  8
寸法
  6
BYBLOCK
 62
     0
 10
-55.822902
 20
83.646105
 11
-39.156238
 21
83.646105
  0
POINT
  8
寸法
 62
     0
 10
-39.156238
 20
83.646105
  0
TEXT
  7
TextStyle03
  8
寸法
  6
CONTINUOUS
 62
     0
 10
-49.9625
 20
84.025
  1
500
 40
3.0
 72
     5
 11
-45.0875
 21
84.025
  0
ENDBLK
  0
BLOCK
  2
*DIM_0009
 70
    65
 10
0.0
 20
0.0
  0
LINE
  8
寸法
  6
BYBLOCK
 62
     0
 10
-120.414735
 20
60.14452
 11
-139.620465
 21
60.14452
  0
LINE
  8
寸法
  6
BYBLOCK
 62
     0
 10
-120.414735
 20
43.477852
 11
-139.620465
 21
43.477852
  0
LINE
  8
寸法
  6
BYBLOCK
 62
     0
 10
-139.620465
 20
60.14452
 11
-139.620465
 21
43.477852
  0
POINT
  8
寸法
 62
     0
 10
-139.620465
 20
60.14452
  0
POINT
  8
寸法
 62
     0
 10
-139.620465
 20
43.477852
  0
TEXT
  7
TextStyle03
  8
寸法
  6
CONTINUOUS
 62
     0
 10
-140.0
 20
49.3625
  1
500
 40
3.0
 50
90.0
 72
     5
 11
-140.0
 21
54.2375
  0
ENDBLK
  0
BLOCK
  2
*DIM_0010
 70
    65
 10
0.0
 20
0.0
  0
LINE
  8
寸法
  6
BYBLOCK
 62
     0
 10
-120.414735
 20
26.811185
 11
-139.620465
 21
26.811185
  0
LINE
  8
寸法
  6
BYBLOCK
 62
     0
 10
-139.620465
 20
43.477852
 11
-139.620465
 21
26.811185
  0
POINT
  8
寸法
 62
     0
 10
-139.620465
 20
26.811185
  0
TEXT
  7
TextStyle03
  8
寸法
  6
CONTINUOUS
 62
     0
 10
-140.0
 20
32.7125
  1
500
 40
3.0
 50
90.0
 72
     5
 11
-140.0
 21
37.5875
  0
ENDBLK
  0
BLOCK
  2
*DIM_0011
 70
    65
 10
0.0
 20
0.0
  0
LINE
  8
寸法
  6
CONTINUOUS
 10
-115.122905
 20
-71.15136
 11
-115.122905
 21
-19.120085
  0
LINE
  8
寸法
  6
CONTINUOUS
 10
-29.856235
 20
-71.15136
 11
-29.856235
 21
-19.120085
  0
LINE
  8
寸法
  6
CONTINUOUS
 10
-115.122905
 20
-19.120085
 11
-29.856235
 21
-19.120085
  0
POINT
  8
寸法
 10
-115.122905
 20
-19.120085
  0
POINT
  8
寸法
 10
-29.856235
 20
-19.120085
  0
TEXT
  7
TextStyle03
  8
寸法
  6
CONTINUOUS
 10
-75.78125
 20
-18.75
  1
2558
 40
3.0
 72
     5
 11
-69.21875
 21
-18.75
  0
ENDBLK
  0
BLOCK
  2
*DIM_0012
 70
    65
 10
0.0
 20
0.0
  0
LINE
  8
寸法
  6
CONTINUOUS
 10
-112.48957
 20
-24.875757
 11
-115.122905
 21
-24.875757
  0
POINT
  8
寸法
 10
-112.48957
 20
-24.875757
  0
POINT
  8
寸法
 10
-115.122905
 20
-24.875757
  0
TEXT
  7
TextStyle03
  8
寸法
  6
CONTINUOUS
 10
-118.79375
 20
-24.525
  1
79
 40
3.0
 72
     5
 11
-115.60625
 21
-24.525
  0
ENDBLK
  0
BLOCK
  2
*DIM_0013
 70
    65
 10
0.0
 20
0.0
  0
LINE
  8
寸法
  6
CONTINUOUS
 10
-32.48957
 20
-24.875757
 11
-29.856235
 21
-24.875757
  0
POINT
  8
寸法
 10
-32.48957
 20
-24.875757
  0
POINT
  8
寸法
 10
-29.856235
 20
-24.875757
  0
TEXT
  7
TextStyle03
  8
寸法
  6
CONTINUOUS
 10
-29.39375
 20
-24.525
  1
79
 40
3.0
 72
     5
 11
-26.20625
 21
-24.525
  0
ENDBLK
  0
BLOCK
  2
*DIM_0014
 70
    65
 10
0.0
 20
0.0
  0
LINE
  8
寸法
  6
CONTINUOUS
 10
-28.856235
 20
-74.362823
 11
-5.69874
 21
-74.362823
  0
LINE
  8
寸法
  6
CONTINUOUS
 10
-28.856235
 20
-72.15136
 11
-5.69874
 21
-72.15136
  0
LINE
  8
寸法
  6
CONTINUOUS
 10
-5.69874
 20
-74.362823
 11
-5.69874
 21
-72.15136
  0
POINT
  8
寸法
 10
-5.69874
 20
-74.362823
  0
POINT
  8
寸法
 10
-5.69874
 20
-72.15136
  0
TEXT
  7
TextStyle03
  8
寸法
  6
CONTINUOUS
 10
-2.7
 20
-76.55625
  1
66.3
 40
3.0
 50
90.0
 72
     5
 11
-2.7
 21
-69.99375
  0
ENDBLK
  0
BLOCK
  2
*DIM_0015
 70
    65
 10
0.0
 20
0.0
  0
LINE
  8
寸法
  6
CONTINUOUS
 10
-55.03508
 20
-47.615515
 11
-5.69874
 21
-47.615515
  0
LINE
  8
寸法
  6
CONTINUOUS
 10
-5.69874
 20
-72.15136
 11
-5.69874
 21
-47.615515
  0
POINT
  8
寸法
 10
-5.69874
 20
-47.615515
  0
TEXT
  7
TextStyle03
  8
寸法
  6
CONTINUOUS
 10
-6.075
 20
-64.025
  1
736.1
 40
3.0
 50
90.0
 72
     5
 11
-6.075
 21
-55.775
  0
ENDBLK
  0
BLOCK
  2
*DIM_0016
 70
    65
 10
0.0
 20
0.0
  0
LINE
  8
寸法
  6
CONTINUOUS
 10
54.789783
 20
67.777858
 11
9.875995
 21
67.777858
  0
LINE
  8
寸法
  6
CONTINUOUS
 10
54.789783
 20
19.177855
 11
9.875995
 21
19.177855
  0
LINE
  8
寸法
  6
CONTINUOUS
 10
9.875995
 20
67.777858
 11
9.875995
 21
19.177855
  0
POINT
  8
寸法
 10
9.875995
 20
67.777858
  0
POINT
  8
寸法
 10
9.875995
 20
19.177855
  0
TEXT
  7
TextStyle03
  8
寸法
  6
CONTINUOUS
 10
9.5
 20
40.19375
  1
1458
 40
3.0
 50
90.0
 72
     5
 11
9.5
 21
46.75625
  0
ENDBLK
  0
BLOCK
  2
*DIM_0017
 70
    65
 10
0.0
 20
0.0
  0
LINE
  8
寸法
  6
CONTINUOUS
 10
15.81096
 20
65.14452
 11
15.81096
 21
67.777858
  0
POINT
  8
寸法
 10
15.81096
 20
65.14452
  0
POINT
  8
寸法
 10
15.81096
 20
67.777858
  0
TEXT
  7
TextStyle03
  8
寸法
  6
CONTINUOUS
 10
15.425
 20
68.23125
  1
79
 40
3.0
 50
90.0
 72
     5
 11
15.425
 21
71.41875
  0
ENDBLK
  0
BLOCK
  2
*DIM_0018
 70
    65
 10
0.0
 20
0.0
  0
LINE
  8
寸法
  6
CONTINUOUS
 10
15.81096
 20
21.811188
 11
15.81096
 21
19.177855
  0
POINT
  8
寸法
 10
15.81096
 20
21.811188
  0
POINT
  8
寸法
 10
15.81096
 20
19.177855
  0
TEXT
  7
TextStyle03
  8
寸法
  6
CONTINUOUS
 10
15.425
 20
15.50625
  1
79
 40
3.0
 50
90.0
 72
     5
 11
15.425
 21
18.69375
  0
ENDBLK
  0
BLOCK
  2
*DIM_0019
 70
    65
 10
0.0
 20
0.0
  0
LINE
  8
寸法
  6
CONTINUOUS
 10
58.001245
 20
18.177855
 11
58.001245
 21
-1.533403
  0
LINE
  8
寸法
  6
CONTINUOUS
 10
55.789783
 20
18.177855
 11
55.789783
 21
-1.533403
  0
LINE
  8
寸法
  6
CONTINUOUS
 10
58.001245
 20
-1.533403
 11
55.789783
 21
-1.533403
  0
POINT
  8
寸法
 10
58.001245
 20
-1.533403
  0
POINT
  8
寸法
 10
55.789783
 20
-1.533403
  0
TEXT
  7
TextStyle03
  8
寸法
  6
CONTINUOUS
 10
53.59375
 20
-4.55
  1
66.3
 40
3.0
 72
     5
 11
60.15625
 21
-4.55
  0
ENDBLK
  0
BLOCK
  2
*DIM_0020
 70
    65
 10
0.0
 20
0.0
  0
LINE
  8
寸法
  6
CONTINUOUS
 10
31.253938
 20
42.477852
 11
31.253938
 21
-1.533403
  0
LINE
  8
寸法
  6
CONTINUOUS
 10
55.789783
 20
-1.533403
 11
31.253938
 21
-1.533403
  0
POINT
  8
寸法
 10
31.253938
 20
-1.533403
  0
TEXT
  7
TextStyle03
  8
寸法
  6
CONTINUOUS
 10
39.375
 20
-1.175
  1
736.1
 40
3.0
 72
     5
 11
47.625
 21
-1.175
  0
ENDBLK
  0
BLOCK
  2
*DIM_0021
 70
    65
 10
0.0
 20
0.0
  0
LINE
  8
寸法
  6
CONTINUOUS
 10
85.707875
 20
-15.635732
 11
85.707875
 21
-22.8405
  0
LINE
  8
寸法
  6
CONTINUOUS
 10
127.523252
 20
-15.635732
 11
127.523252
 21
-22.8405
  0
LINE
  8
寸法
  6
CONTINUOUS
 10
85.707875
 20
-22.8405
 11
127.523252
 21
-22.8405
  0
POINT
  8
寸法
 10
85.707875
 20
-22.8405
  0
POINT
  8
寸法
 10
127.523252
 20
-22.8405
  0
TEXT
  7
TextStyle03
  8
寸法
  6
CONTINUOUS
 10
101.63125
 20
-22.45
  1
1254.5
 40
3.0
 72
     5
 11
111.56875
 21
-22.45
  0
ENDBLK
  0
BLOCK
  2
*DIM_0022
 70
    65
 10
0.0
 20
0.0
  0
LINE
  8
寸法
  6
CONTINUOUS
 10
128.523252
 20
-14.635732
 11
136.344215
 21
-14.635732
  0
LINE
  8
寸法
  6
CONTINUOUS
 10
107.615565
 20
14.932198
 11
136.344215
 21
14.932198
  0
LINE
  8
寸法
  6
CONTINUOUS
 10
136.344215
 20
-14.635732
 11
136.344215
 21
14.932198
  0
POINT
  8
寸法
 10
136.344215
 20
-14.635732
  0
POINT
  8
寸法
 10
136.344215
 20
14.932198
  0
TEXT
  7
TextStyle03
  8
寸法
  6
CONTINUOUS
 10
135.95
 20
-2.2875
  1
887
 40
3.0
 50
90.0
 72
     5
 11
135.95
 21
2.5875
  0
ENDBLK
  0
BLOCK
  2
*DIM_0023
 70
    65
 10
0.0
 20
0.0
  0
LINE
  8
寸法
  6
CONTINUOUS
 10
83.376488
 20
37.613793
 11
83.376488
 21
32.161262
  0
LINE
  8
寸法
  6
CONTINUOUS
 10
121.867512
 20
37.613793
 11
121.867512
 21
32.161262
  0
LINE
  8
寸法
  6
CONTINUOUS
 10
83.376488
 20
32.161262
 11
121.867512
 21
32.161262
  0
POINT
  8
寸法
 10
83.376488
 20
32.161262
  0
POINT
  8
寸法
 10
121.867512
 20
32.161262
  0
TEXT
  7
TextStyle03
  8
寸法
  6
CONTINUOUS
 10
97.63125
 20
32.55
  1
1154.7
 40
3.0
 72
     5
 11
107.56875
 21
32.55
  0
ENDBLK
  0
BLOCK
  2
*DIM_0024
 70
    65
 10
0.0
 20
0.0
  0
LINE
  8
寸法
  6
CONTINUOUS
 10
122.867512
 20
38.613793
 11
129.808965
 21
38.613793
  0
LINE
  8
寸法
  6
CONTINUOUS
 10
122.867512
 20
69.08046
 11
129.808965
 21
69.08046
  0
LINE
  8
寸法
  6
CONTINUOUS
 10
129.808965
 20
38.613793
 11
129.808965
 21
69.08046
  0
POINT
  8
寸法
 10
129.808965
 20
38.613793
  0
POINT
  8
寸法
 10
129.808965
 20
69.08046
  0
TEXT
  7
TextStyle03
  8
寸法
  6
CONTINUOUS
 10
129.425
 20
51.4125
  1
914
 40
3.0
 50
90.0
 72
     5
 11
129.425
 21
56.2875
  0
ENDBLK
  0
BLOCK
  2
*DIM_0025
 70
    65
 10
0.0
 20
0.0
  0
LINE
  8
寸法
  6
CONTINUOUS
 10
104.91968
 20
70.08046
 11
104.91968
 21
76.684613
  0
LINE
  8
寸法
  6
CONTINUOUS
 10
121.867512
 20
70.08046
 11
121.867512
 21
76.684613
  0
LINE
  8
寸法
  6
CONTINUOUS
 10
104.91968
 20
76.684613
 11
121.867512
 21
76.684613
  0
POINT
  8
寸法
 10
104.91968
 20
76.684613
  0
POINT
  8
寸法
 10
121.867512
 20
76.684613
  0
TEXT
  7
TextStyle03
  8
寸法
  6
CONTINUOUS
 10
109.25
 20
77.075
  1
508.4
 40
3.0
 72
     5
 11
117.5
 21
77.075
  0
ENDBLK
  0
ENDSEC
  0
SECTION
  2
ENTITIES
  0
POLYLINE
  8
通り芯
  6
CONTINUOUS
 66
     1
 70
     1
  0
VERTEX
  8
通り芯
 10
-210.0
 20
-148.5
  0
VERTEX
  8
通り芯
 10
210.0
 20
-148.5
  0
VERTEX
  8
通り芯
 10
210.0
 20
148.5
  0
VERTEX
  8
通り芯
 10
-210.0
 20
148.5
  0
SEQEND
  0
INSERT
  2
*GRP_0001
  8
型材断面
  6
CONTINUOUS
 10
0.0
 20
0.0
  0
LINE
  8
型材断面
  6
DASHDOT
 10
-112.48957
 20
65.14452
 11
-112.48957
 21
-74.362823
  0
LINE
  8
型材断面
  6
DASHDOT
 10
-72.48957
 20
65.14452
 11
-72.48957
 21
-74.362823
  0
LINE
  8
型材断面
  6
DASHDOT
 10
-32.48957
 20
65.14452
 11
-32.48957
 21
-74.362823
  0
LINE
  8
型材断面
  6
DASHDOT
 10
-112.48957
 20
21.811188
 11
58.001245
 21
21.811188
  0
LINE
  8
型材断面
  6
DASHDOT
 10
-112.48957
 20
43.477855
 11
58.001245
 21
43.477855
  0
LINE
  8
型材断面
  6
DASHDOT
 10
-112.48957
 20
65.14452
 11
58.001245
 21
65.14452
  0
LINE
  8
型材断面
  6
CONTINUOUS
 10
-52.616627
 20
41.938248
 11
-52.616627
 21
42.875367
  0
LINE
  8
型材断面
  6
CONTINUOUS
 10
-52.616627
 20
41.938248
 11
-53.553748
 21
41.938248
  0
LINE
  8
型材断面
  6
CONTINUOUS
 10
-53.219115
 20
43.477855
 11
-52.616627
 21
42.875367
  0
LINE
  8
型材断面
  6
CONTINUOUS
 10
-52.616627
 20
41.938248
 11
-54.156235
 21
43.477855
  0
LINE
  8
型材断面
  6
CONTINUOUS
 10
-53.553748
 20
41.938248
 11
-53.898345
 21
42.282845
  0
LINE
  8
型材断面
  6
CONTINUOUS
 10
-53.898345
 20
42.282845
 11
-54.156235
 21
43.477855
  0
LINE
  8
型材断面
  6
CONTINUOUS
 10
-52.616627
 20
45.017462
 11
-52.616627
 21
44.080343
  0
LINE
  8
型材断面
  6
CONTINUOUS
 10
-52.616627
 20
45.017462
 11
-53.553748
 21
45.017462
  0
LINE
  8
型材断面
  6
CONTINUOUS
 10
-53.219115
 20
43.477855
 11
-52.616627
 21
44.080343
  0
LINE
  8
型材断面
  6
CONTINUOUS
 10
-52.616627
 20
45.017462
 11
-54.156235
 21
43.477855
  0
LINE
  8
型材断面
  6
CONTINUOUS
 10
-53.553748
 20
45.017462
 11
-53.898345
 21
44.672865
  0
LINE
  8
型材断面
  6
CONTINUOUS
 10
-53.898345
 20
44.672865
 11
-54.156235
 21
43.477855
  0
LINE
  8
型材断面
  6
CONTINUOUS
 10
-92.362512
 20
41.938248
 11
-92.362512
 21
42.875367
  0
LINE
  8
型材断面
  6
CONTINUOUS
 10
-92.362512
 20
41.938248
 11
-91.425393
 21
41.938248
  0
LINE
  8
型材断面
  6
CONTINUOUS
 10
-91.760025
 20
43.477855
 11
-92.362512
 21
42.875367
  0
LINE
  8
型材断面
  6
CONTINUOUS
 10
-92.362512
 20
41.938248
 11
-90.822905
 21
43.477855
  0
LINE
  8
型材断面
  6
CONTINUOUS
 10
-91.425393
 20
41.938248
 11
-91.080795
 21
42.282845
  0
LINE
  8
型材断面
  6
CONTINUOUS
 10
-91.080795
 20
42.282845
 11
-90.822905
 21
43.477855
  0
LINE
  8
型材断面
  6
CONTINUOUS
 10
-92.362512
 20
45.017462
 11
-92.362512
 21
44.080343
  0
LINE
  8
型材断面
  6
CONTINUOUS
 10
-92.362512
 20
45.017462
 11
-91.425393
 21
45.017462
  0
LINE
  8
型材断面
  6
CONTINUOUS
 10
-91.760025
 20
43.477855
 11
-92.362512
 21
44.080343
  0
LINE
  8
型材断面
  6
CONTINUOUS
 10
-92.362512
 20
45.017462
 11
-90.822905
 21
43.477855
  0
LINE
  8
型材断面
  6
CONTINUOUS
 10
-91.425393
 20
45.017462
 11
-91.080795
 21
44.672865
  0
LINE
  8
型材断面
  6
CONTINUOUS
 10
-91.080795
 20
44.672865
 11
-90.822905
 21
43.477855
  0
LINE
  8
型材断面
  6
CONTINUOUS
 10
-29.856238
 20
67.777852
 11
-29.856238
 21
19.177858
  0
LINE
  8
型材断面
  6
CONTINUOUS
 10
-29.856238
 20
19.177858
 11
-115.122902
 21
19.177858
  0
LINE
  8
型材断面
  6
CONTINUOUS
 10
-115.122902
 20
19.177858
 11
-115.122902
 21
67.777852
  0
LINE
  8
型材断面
  6
CONTINUOUS
 10
-29.856238
 20
67.777852
 11
-115.122902
 21
67.777852
  0
LINE
  8
型材断面
  6
CONTINUOUS
 10
-90.822905
 20
43.477855
 11
-115.122902
 21
67.777852
  0
LINE
  8
型材断面
  6
CONTINUOUS
 10
-54.156235
 20
43.477855
 11
-29.856238
 21
67.777852
  0
LINE
  8
型材断面
  6
CONTINUOUS
 10
-54.156235
 20
43.477855
 11
-29.856238
 21
19.177858
  0
LINE
  8
型材断面
  6
CONTINUOUS
 10
-90.822905
 20
43.477855
 11
-115.122902
 21
19.177858
  0
LINE
  8
型材断面
  6
CONTINUOUS
 10
-55.917165
 20
44.593455
 11
-89.061975
 21
44.593455
  0
LINE
  8
型材断面
  6
CONTINUOUS
 10
-55.917165
 20
42.362255
 11
-89.061975
 21
42.362255
  0
LINE
  8
型材断面
  6
CONTINUOUS
 10
-29.856235
 20
-72.15136
 11
-29.856235
 21
-74.362823
  0
LINE
  8
型材断面
  6
CONTINUOUS
 10
-30.689567
 20
-74.36281
 11
-30.689567
 21
-74.829478
  0
LINE
  8
型材断面
  6
CONTINUOUS
 10
-115.122905
 20
-72.15136
 11
-115.122905
 21
-74.362823
  0
LINE
  8
型材断面
  6
CONTINUOUS
 10
-114.289573
 20
-74.36281
 11
-114.289573
 21
-74.829478
  0
LINE
  8
型材断面
  6
CONTINUOUS
 10
-30.689567
 20
-74.829478
 11
-114.289573
 21
-74.829478
  0
LINE
  8
型材断面
  6
CONTINUOUS
 10
-29.856235
 20
-74.362823
 11
-115.122905
 21
-74.362823
  0
LINE
  8
型材断面
  6
CONTINUOUS
 10
-29.856235
 20
-72.15136
 11
-115.122905
 21
-72.15136
  0
LINE
  8
型材断面
  6
CONTINUOUS
 10
-115.15826
 20
-72.068847
 11
-92.220938
 21
-49.13153
  0
LINE
  8
型材断面
  6
CONTINUOUS
 10
-115.122905
 20
-72.104205
 11
-92.150227
 21
-49.13153
  0
LINE
  8
型材断面
  6
CONTINUOUS
 10
-29.82088
 20
-72.068847
 11
-52.758202
 21
-49.13153
  0
LINE
  8
型材断面
  6
CONTINUOUS
 10
-29.856235
 20
-72.104205
 11
-52.828913
 21
-49.13153
  0
LINE
  8
型材断面
  6
CONTINUOUS
 10
-56.03508
 20
-47.615515
 11
-88.94406
 21
-47.615515
  0
LINE
  8
型材断面
  6
CONTINUOUS
 10
-54.00867
 20
-48.794528
 11
-90.97047
 21
-48.794528
  0
LINE
  8
型材断面
  6
CONTINUOUS
 10
55.742627
 20
67.777858
 11
55.70727
 21
67.813213
  0
LINE
  8
型材断面
  6
CONTINUOUS
 10
55.789783
 20
67.777858
 11
58.001245
 21
67.777858
  0
LINE
  8
型材断面
  6
CONTINUOUS
 10
58.001232
 20
66.944522
 11
58.4679
 21
66.944522
  0
LINE
  8
型材断面
  6
CONTINUOUS
 10
55.789783
 20
19.177855
 11
58.001245
 21
19.177855
  0
LINE
  8
型材断面
  6
CONTINUOUS
 10
58.001232
 20
20.011188
 11
58.4679
 21
20.011188
  0
LINE
  8
型材断面
  6
CONTINUOUS
 10
55.789783
 20
67.777858
 11
55.789783
 21
19.177855
  0
LINE
  8
型材断面
  6
CONTINUOUS
 10
58.001245
 20
67.777858
 11
58.001245
 21
19.177855
  0
LINE
  8
型材断面
  6
CONTINUOUS
 10
58.4679
 20
66.944522
 11
58.4679
 21
20.011188
  0
LINE
  8
型材断面
  6
CONTINUOUS
 10
55.742627
 20
67.777858
 11
31.442627
 21
43.477858
  0
LINE
  8
型材断面
  6
CONTINUOUS
 10
55.742627
 20
19.177855
 11
31.442627
 21
43.477858
  0
LINE
  8
型材断面
  6
CONTINUOUS
 10
55.70727
 20
19.1425
 11
31.37192
 21
43.477855
  0
LINE
  8
型材断面
  6
CONTINUOUS
 10
55.70727
 20
67.813213
 11
31.37192
 21
43.477855
  0
LINE
  8
型材断面
  6
CONTINUOUS
 10
32.078747
 20
43.477852
 11
31.135938
 21
43.477852
  0
LINE
  8
型材断面
  6
CONTINUOUS
 10
32.078747
 20
43.477852
 11
31.135938
 21
43.477852
  0
LINE
  8
型材断面
  6
CONTINUOUS
 10
32.635937
 20
41.977852
 11
32.683078
 21
42.024993
  0
LINE
  8
型材断面
  6
CONTINUOUS
 10
32.683078
 20
42.024993
 11
32.683078
 21
42.87352
  0
LINE
  8
型材断面
  6
CONTINUOUS
 10
31.135938
 20
43.477852
 11
32.635937
 21
41.977852
  0
LINE
  8
型材断面
  6
CONTINUOUS
 10
32.078745
 20
43.477852
 11
32.683078
 21
42.87352
  0
LINE
  8
型材断面
  6
CONTINUOUS
 10
32.635937
 20
44.978242
 11
32.683078
 21
44.931103
  0
LINE
  8
型材断面
  6
CONTINUOUS
 10
32.683078
 20
44.931103
 11
32.683078
 21
44.082575
  0
LINE
  8
型材断面
  6
CONTINUOUS
 10
32.078745
 20
43.477852
 11
32.683078
 21
44.082183
  0
LINE
  8
型材断面
  6
CONTINUOUS
 10
31.135938
 20
43.477852
 11
32.636132
 21
44.978047
  0
LINE
  8
型材断面
  6
CONTINUOUS
 10
32.354665
 20
44.578583
 11
32.413655
 21
44.519593
  0
LINE
  8
型材断面
  6
CONTINUOUS
 10
32.354665
 20
44.578583
 11
31.253938
 21
43.477852
  0
LINE
  8
型材断面
  6
CONTINUOUS
 10
32.354665
 20
42.377123
 11
32.413655
 21
42.436112
  0
LINE
  8
型材断面
  6
CONTINUOUS
 10
32.354665
 20
42.377123
 11
31.253938
 21
43.477852
  0
LINE
  8
型材断面
  6
CONTINUOUS
 10
85.46717
 20
19.275588
 11
101.421585
 21
19.275588
  0
LINE
  8
型材断面
  6
CONTINUOUS
 10
81.588012
 20
71.854532
 11
97.542427
 21
71.854532
  0
LINE
  8
ガラス
  6
CONTINUOUS
 10
85.707875
 20
-14.635732
 11
127.523252
 21
-14.635732
  0
LINE
  8
ガラス
  6
CONTINUOUS
 10
127.523252
 20
-14.635732
 11
106.615565
 21
14.932198
  0
LINE
  8
ガラス
  6
CONTINUOUS
 10
85.707875
 20
-14.635732
 11
106.615565
 21
14.932198
  0
LINE
  8
ガラス
  6
CONTINUOUS
 10
121.867512
 20
38.613793
 11
121.867512
 21
69.08046
  0
LINE
  8
ガラス
  6
DASHDOT
 10
121.867512
 20
69.08046
 11
104.91968
 21
69.08046
  0
LINE
  8
ガラス
  6
CONTINUOUS
 10
104.91968
 20
69.08046
 11
83.376488
 21
38.613793
  0
LINE
  8
ガラス
  6
CONTINUOUS
 10
121.867512
 20
38.613793
 11
83.376488
 21
38.613793
  0
LINE
  8
ガラス
  6
CONTINUOUS
 10
-83.211992
 20
56.896975
 11
-87.084625
 21
53.02434
  0
LINE
  8
ガラス
  6
CONTINUOUS
 10
-84.092313
 20
55.298617
 11
-85.48627
 21
53.904663
  0
LINE
  8
ガラス
  6
CONTINUOUS
 10
-84.810347
 20
56.01665
 11
-86.204305
 21
54.622697
  0
LINE
  8
ガラス
  6
CONTINUOUS
 10
-58.900558
 20
56.896975
 11
-62.77319
 21
53.02434
  0
LINE
  8
ガラス
  6
CONTINUOUS
 10
-59.780878
 20
55.298617
 11
-61.174835
 21
53.904663
  0
LINE
  8
ガラス
  6
CONTINUOUS
 10
-60.498913
 20
56.01665
 11
-61.89287
 21
54.622697
  0
LINE
  8
ガラス
  6
CONTINUOUS
 10
-83.211992
 20
32.87963
 11
-87.084625
 21
29.006995
  0
LINE
  8
ガラス
  6
CONTINUOUS
 10
-84.092313
 20
31.281272
 11
-85.48627
 21
29.887318
  0
LINE
  8
ガラス
  6
CONTINUOUS
 10
-84.810347
 20
31.999305
 11
-86.204305
 21
30.605352
  0
LINE
  8
ガラス
  6
CONTINUOUS
 10
-58.900558
 20
32.87963
 11
-62.77319
 21
29.006995
  0
LINE
  8
ガラス
  6
CONTINUOUS
 10
-59.780878
 20
31.281272
 11
-61.174835
 21
29.887318
  0
LINE
  8
ガラス
  6
CONTINUOUS
 10
-60.498913
 20
31.999305
 11
-61.89287
 21
30.605352
  0
LINE
  8
ガラス
  6
CONTINUOUS
 10
-102.201253
 20
45.414172
 11
-106.073885
 21
41.541538
  0
LINE
  8
ガラス
  6
CONTINUOUS
 10
-103.081573
 20
43.815815
 11
-104.47553
 21
42.42186
  0
LINE
  8
ガラス
  6
CONTINUOUS
 10
-103.799608
 20
44.533848
 11
-105.193565
 21
43.139895
  0
LINE
  8
ガラス
  6
CONTINUOUS
 10
-37.805192
 20
45.414172
 11
-41.677825
 21
41.541538
  0
LINE
  8
ガラス
  6
CONTINUOUS
 10
-38.685513
 20
43.815815
 11
-40.07947
 21
42.42186
  0
LINE
  8
ガラス
  6
CONTINUOUS
 10
-39.403547
 20
44.533848
 11
-40.797505
 21
43.139895
  0
LINE
  8
ガラス
  6
CONTINUOUS
 10
-83.211992
 20
-59.952308
 11
-87.084625
 21
-63.824942
  0
LINE
  8
ガラス
  6
CONTINUOUS
 10
-84.092313
 20
-61.550665
 11
-85.48627
 21
-62.94462
  0
LINE
  8
ガラス
  6
CONTINUOUS
 10
-84.810347
 20
-60.832633
 11
-86.204305
 21
-62.226585
  0
LINE
  8
ガラス
  6
CONTINUOUS
 10
-58.900558
 20
-59.952308
 11
-62.77319
 21
-63.824942
  0
LINE
  8
ガラス
  6
CONTINUOUS
 10
-59.780878
 20
-61.550665
 11
-61.174835
 21
-62.94462
  0
LINE
  8
ガラス
  6
CONTINUOUS
 10
-60.498913
 20
-60.832633
 11
-61.89287
 21
-62.226585
  0
LINE
  8
ガラス
  6
CONTINUOUS
 10
49.239925
 20
45.414172
 11
45.367293
 21
41.541538
  0
LINE
  8
ガラス
  6
CONTINUOUS
 10
48.359605
 20
43.815815
 11
46.965647
 21
42.42186
  0
LINE
  8
ガラス
  6
CONTINUOUS
 10
47.64157
 20
44.533848
 11
46.247612
 21
43.139895
  0
LINE
  8
ゴム等
  6
CONTINUOUS
 10
-73.788465
 20
41.425255
 11
-72.922905
 21
41.823225
  0
LINE
  8
ゴム等
  6
CONTINUOUS
 10
-72.056235
 20
41.823225
 11
-71.190675
 21
41.425255
  0
LINE
  8
ゴム等
  6
CONTINUOUS
 10
-73.788465
 20
45.530455
 11
-72.922905
 21
45.132485
  0
LINE
  8
ゴム等
  6
CONTINUOUS
 10
-72.056235
 20
45.132485
 11
-71.190675
 21
45.530455
  0
LINE
  8
ゴム等
  6
CONTINUOUS
 10
-72.056235
 20
67.039985
 11
-71.190675
 21
66.201265
  0
LINE
  8
ゴム等
  6
CONTINUOUS
 10
-73.788465
 20
66.201265
 11
-72.922905
 21
67.039985
  0
LINE
  8
ゴム等
  6
CONTINUOUS
 10
-72.056235
 20
19.915725
 11
-71.190675
 21
20.754445
  0
LINE
  8
ゴム等
  6
CONTINUOUS
 10
-73.788465
 20
20.754445
 11
-72.922905
 21
19.915725
  0
LINE
  8
ゴム等
  6
CONTINUOUS
 10
-54.62779
 20
45.132485
 11
-55.071535
 21
45.530455
  0
LINE
  8
ゴム等
  6
CONTINUOUS
 10
-54.62779
 20
41.823225
 11
-55.071535
 21
41.425255
  0
LINE
  8
ゴム等
  6
CONTINUOUS
 10
-53.898345
 20
42.282845
 11
-55.917165
 21
42.282845
  0
LINE
  8
ゴム等
  6
CONTINUOUS
 10
-55.917165
 20
42.282845
 11
-55.917165
 21
43.477855
  0
LINE
  8
ゴム等
  6
CONTINUOUS
 10
-53.898345
 20
44.672865
 11
-55.917165
 21
44.672865
  0
LINE
  8
ゴム等
  6
CONTINUOUS
 10
-55.917165
 20
44.672865
 11
-55.917165
 21
43.477855
  0
LINE
  8
ゴム等
  6
CONTINUOUS
 10
-54.62779
 20
45.132485
 11
-54.105375
 21
44.593455
  0
LINE
  8
ゴム等
  6
CONTINUOUS
 10
-54.62779
 20
41.823225
 11
-54.105375
 21
42.362255
  0
LINE
  8
ゴム等
  6
CONTINUOUS
 10
-90.873765
 20
44.593455
 11
-90.35135
 21
45.132485
  0
LINE
  8
ゴム等
  6
CONTINUOUS
 10
-90.35135
 20
45.132485
 11
-89.907605
 21
45.530455
  0
LINE
  8
ゴム等
  6
CONTINUOUS
 10
-90.873765
 20
42.362255
 11
-90.35135
 21
41.823225
  0
LINE
  8
ゴム等
  6
CONTINUOUS
 10
-90.35135
 20
41.823225
 11
-89.907605
 21
41.425255
  0
LINE
  8
ゴム等
  6
CONTINUOUS
 10
-91.080795
 20
42.282845
 11
-89.061975
 21
42.282845
  0
LINE
  8
ゴム等
  6
CONTINUOUS
 10
-89.061975
 20
42.282845
 11
-89.061975
 21
43.477855
  0
LINE
  8
ゴム等
  6
CONTINUOUS
 10
-91.080795
 20
44.672865
 11
-89.061975
 21
44.672865
  0
LINE
  8
ゴム等
  6
CONTINUOUS
 10
-89.061975
 20
44.672865
 11
-89.061975
 21
43.477855
  0
LINE
  8
ゴム等
  6
CONTINUOUS
 10
-51.188335
 20
43.477855
 11
-31.432825
 21
63.233365
  0
LINE
  8
ゴム等
  6
CONTINUOUS
 10
-52.03005
 20
43.477855
 11
-30.594107
 21
64.9138
  0
LINE
  8
ゴム等
  6
CONTINUOUS
 10
-53.091495
 20
43.477855
 11
-29.98128
 21
66.58807
  0
LINE
  8
ゴム等
  6
CONTINUOUS
 10
-54.105375
 20
44.593455
 11
-31.04602
 21
67.65281
  0
LINE
  8
ゴム等
  6
CONTINUOUS
 10
-54.62779
 20
45.132485
 11
-32.720292
 21
67.039985
  0
LINE
  8
ゴム等
  6
CONTINUOUS
 10
-71.190675
 20
66.201265
 11
-34.400725
 21
66.201265
  0
LINE
  8
ゴム等
  6
CONTINUOUS
 10
-51.188335
 20
43.477855
 11
-31.432825
 21
23.722345
  0
LINE
  8
ゴム等
  6
CONTINUOUS
 10
-31.432825
 20
63.233365
 11
-31.432825
 21
23.722345
  0
LINE
  8
ゴム等
  6
CONTINUOUS
 10
-52.03005
 20
43.477855
 11
-30.594107
 21
22.04191
  0
LINE
  8
ゴム等
  6
CONTINUOUS
 10
-30.594107
 20
64.9138
 11
-30.594107
 21
22.04191
  0
LINE
  8
ゴム等
  6
CONTINUOUS
 10
-29.98128
 20
66.58807
 11
-29.98128
 21
20.36764
  0
LINE
  8
ゴム等
  6
CONTINUOUS
 10
-53.091495
 20
43.477855
 11
-29.98128
 21
20.36764
  0
LINE
  8
ゴム等
  6
CONTINUOUS
 10
-71.190675
 20
20.754445
 11
-34.400725
 21
20.754445
  0
LINE
  8
ゴム等
  6
CONTINUOUS
 10
-55.071535
 20
41.425255
 11
-34.400725
 21
20.754445
  0
LINE
  8
ゴム等
  6
CONTINUOUS
 10
-54.62779
 20
41.823225
 11
-32.720292
 21
19.915725
  0
LINE
  8
ゴム等
  6
CONTINUOUS
 10
-54.105375
 20
42.362255
 11
-31.04602
 21
19.3029
  0
LINE
  8
ゴム等
  6
CONTINUOUS
 10
-89.907605
 20
41.425255
 11
-110.578415
 21
20.754445
  0
LINE
  8
ゴム等
  6
CONTINUOUS
 10
-73.788465
 20
20.754445
 11
-110.578415
 21
20.754445
  0
LINE
  8
ゴム等
  6
CONTINUOUS
 10
-32.720292
 20
19.915725
 11
-112.258847
 21
19.915725
  0
LINE
  8
ゴム等
  6
CONTINUOUS
 10
-90.35135
 20
41.823225
 11
-112.258847
 21
19.915725
  0
LINE
  8
ゴム等
  6
CONTINUOUS
 10
-90.873765
 20
42.362255
 11
-113.93312
 21
19.3029
  0
LINE
  8
ゴム等
  6
CONTINUOUS
 10
-31.04602
 20
19.3029
 11
-113.93312
 21
19.3029
  0
LINE
  8
ゴム等
  6
CONTINUOUS
 10
-93.790805
 20
43.477855
 11
-113.546315
 21
23.722345
  0
LINE
  8
ゴム等
  6
CONTINUOUS
 10
-92.94909
 20
43.477855
 11
-114.385033
 21
22.04191
  0
LINE
  8
ゴム等
  6
CONTINUOUS
 10
-91.887645
 20
43.477855
 11
-114.99786
 21
20.36764
  0
LINE
  8
ゴム等
  6
CONTINUOUS
 10
-113.546315
 20
23.722345
 11
-113.546315
 21
63.233365
  0
LINE
  8
ゴム等
  6
CONTINUOUS
 10
-93.790805
 20
43.477855
 11
-113.546315
 21
63.233365
  0
LINE
  8
ゴム等
  6
CONTINUOUS
 10
-92.94909
 20
43.477855
 11
-114.385033
 21
64.9138
  0
LINE
  8
ゴム等
  6
CONTINUOUS
 10
-114.385033
 20
22.04191
 11
-114.385033
 21
64.9138
  0
LINE
  8
ゴム等
  6
CONTINUOUS
 10
-114.99786
 20
20.36764
 11
-114.99786
 21
66.58807
  0
LINE
  8
ゴム等
  6
CONTINUOUS
 10
-91.887645
 20
43.477855
 11
-114.99786
 21
66.58807
  0
LINE
  8
ゴム等
  6
CONTINUOUS
 10
-89.907605
 20
45.530455
 11
-110.578415
 21
66.201265
  0
LINE
  8
ゴム等
  6
CONTINUOUS
 10
-73.788465
 20
66.201265
 11
-110.578415
 21
66.201265
  0
LINE
  8
ゴム等
  6
CONTINUOUS
 10
-32.720292
 20
67.039985
 11
-112.258847
 21
67.039985
  0
LINE
  8
ゴム等
  6
CONTINUOUS
 10
-90.35135
 20
45.132485
 11
-112.258847
 21
67.039985
  0
LINE
  8
ゴム等
  6
CONTINUOUS
 10
-90.873765
 20
44.593455
 11
-113.93312
 21
67.65281
  0
LINE
  8
ゴム等
  6
CONTINUOUS
 10
-31.04602
 20
67.65281
 11
-113.93312
 21
67.65281
  0
LINE
  8
ゴム等
  6
CONTINUOUS
 10
-72.922905
 20
45.132485
 11
-72.922905
 21
67.039985
  0
LINE
  8
ゴム等
  6
CONTINUOUS
 10
-72.056235
 20
45.132485
 11
-72.056235
 21
67.039985
  0
LINE
  8
ゴム等
  6
CONTINUOUS
 10
-71.190675
 20
45.530455
 11
-71.190675
 21
66.201265
  0
LINE
  8
ゴム等
  6
CONTINUOUS
 10
-73.788465
 20
45.530455
 11
-73.788465
 21
66.201265
  0
LINE
  8
ゴム等
  6
CONTINUOUS
 10
-71.190675
 20
41.425255
 11
-71.190675
 21
20.754445
  0
LINE
  8
ゴム等
  6
CONTINUOUS
 10
-73.788465
 20
41.425255
 11
-73.788465
 21
20.754445
  0
LINE
  8
ゴム等
  6
CONTINUOUS
 10
-72.922905
 20
41.823225
 11
-72.922905
 21
19.915725
  0
LINE
  8
ゴム等
  6
CONTINUOUS
 10
-72.056235
 20
41.823225
 11
-72.056235
 21
19.915725
  0
LINE
  8
ゴム等
  6
CONTINUOUS
 10
-71.190675
 20
45.530455
 11
-55.071535
 21
45.530455
  0
LINE
  8
ゴム等
  6
CONTINUOUS
 10
-34.400725
 20
66.201265
 11
-55.071535
 21
45.530455
  0
LINE
  8
ゴム等
  6
CONTINUOUS
 10
-71.190675
 20
41.425255
 11
-55.071535
 21
41.425255
  0
LINE
  8
ゴム等
  6
CONTINUOUS
 10
-73.788465
 20
41.425255
 11
-89.907605
 21
41.425255
  0
LINE
  8
ゴム等
  6
CONTINUOUS
 10
-54.62779
 20
41.823225
 11
-90.35135
 21
41.823225
  0
LINE
  8
ゴム等
  6
CONTINUOUS
 10
-54.62779
 20
45.132485
 11
-90.35135
 21
45.132485
  0
LINE
  8
ゴム等
  6
CONTINUOUS
 10
-73.788465
 20
45.530455
 11
-89.907605
 21
45.530455
  0
LINE
  8
ゴム等
  6
CONTINUOUS
 10
-29.98128
 20
66.58807
 11
-30.594107
 21
64.9138
  0
LINE
  8
ゴム等
  6
CONTINUOUS
 10
-30.594107
 20
64.9138
 11
-31.432825
 21
63.233365
  0
LINE
  8
ゴム等
  6
CONTINUOUS
 10
-31.04602
 20
67.65281
 11
-32.720292
 21
67.039985
  0
LINE
  8
ゴム等
  6
CONTINUOUS
 10
-32.720292
 20
67.039985
 11
-34.400725
 21
66.201265
  0
LINE
  8
ゴム等
  6
CONTINUOUS
 10
-29.98128
 20
20.36764
 11
-30.594107
 21
22.04191
  0
LINE
  8
ゴム等
  6
CONTINUOUS
 10
-30.594107
 20
22.04191
 11
-31.432825
 21
23.722345
  0
LINE
  8
ゴム等
  6
CONTINUOUS
 10
-31.04602
 20
19.3029
 11
-32.720292
 21
19.915725
  0
LINE
  8
ゴム等
  6
CONTINUOUS
 10
-32.720292
 20
19.915725
 11
-34.400725
 21
20.754445
  0
LINE
  8
ゴム等
  6
CONTINUOUS
 10
-114.99786
 20
66.58807
 11
-114.385033
 21
64.9138
  0
LINE
  8
ゴム等
  6
CONTINUOUS
 10
-114.385033
 20
64.9138
 11
-113.546315
 21
63.233365
  0
LINE
  8
ゴム等
  6
CONTINUOUS
 10
-113.93312
 20
67.65281
 11
-112.258847
 21
67.039985
  0
LINE
  8
ゴム等
  6
CONTINUOUS
 10
-112.258847
 20
67.039985
 11
-110.578415
 21
66.201265
  0
LINE
  8
ゴム等
  6
CONTINUOUS
 10
-114.99786
 20
20.36764
 11
-114.385033
 21
22.04191
  0
LINE
  8
ゴム等
  6
CONTINUOUS
 10
-114.385033
 20
22.04191
 11
-113.546315
 21
23.722345
  0
LINE
  8
ゴム等
  6
CONTINUOUS
 10
-113.93312
 20
19.3029
 11
-112.258847
 21
19.915725
  0
LINE
  8
ゴム等
  6
CONTINUOUS
 10
-112.258847
 20
19.915725
 11
-110.578415
 21
20.754445
  0
LINE
  8
ゴム等
  6
CONTINUOUS
 10
-73.788465
 20
-70.994895
 11
-72.922905
 21
-71.38979
  0
LINE
  8
ゴム等
  6
CONTINUOUS
 10
-72.056235
 20
-71.38979
 11
-71.190675
 21
-70.994895
  0
LINE
  8
ゴム等
  6
CONTINUOUS
 10
-31.04603
 20
-72.002615
 11
-32.7203
 21
-71.38979
  0
LINE
  8
ゴム等
  6
CONTINUOUS
 10
-32.7203
 20
-71.38979
 11
-34.399053
 21
-70.994895
  0
LINE
  8
ゴム等
  6
CONTINUOUS
 10
-113.93311
 20
-72.002615
 11
-112.25884
 21
-71.38979
  0
LINE
  8
ゴム等
  6
CONTINUOUS
 10
-112.25884
 20
-71.38979
 11
-110.580087
 21
-70.994895
  0
LINE
  8
ゴム等
  6
CONTINUOUS
 10
-73.788465
 20
-70.994895
 11
-110.580087
 21
-70.994895
  0
LINE
  8
ゴム等
  6
CONTINUOUS
 10
-71.190675
 20
-70.994895
 11
-34.399053
 21
-70.994895
  0
LINE
  8
ゴム等
  6
CONTINUOUS
 10
-112.25884
 20
-71.38979
 11
-32.7203
 21
-71.38979
  0
LINE
  8
ゴム等
  6
CONTINUOUS
 10
-113.93311
 20
-72.002615
 11
-31.04603
 21
-72.002615
  0
LINE
  8
ゴム等
  6
CONTINUOUS
 10
-73.788465
 20
-50.320817
 11
-72.922905
 21
-49.482268
  0
LINE
  8
ゴム等
  6
CONTINUOUS
 10
-72.056235
 20
-49.482268
 11
-71.190675
 21
-50.320817
  0
LINE
  8
ゴム等
  6
CONTINUOUS
 10
-54.368412
 20
-47.497665
 11
-56.03508
 21
-47.497665
  0
LINE
  8
ゴム等
  6
CONTINUOUS
 10
-56.03508
 20
-47.497665
 11
-56.03508
 21
-48.739815
  0
LINE
  8
ゴム等
  6
CONTINUOUS
 10
-54.110523
 20
-48.692675
 11
-56.03508
 21
-48.692675
  0
LINE
  8
ゴム等
  6
CONTINUOUS
 10
-56.03508
 20
-48.739815
 11
-54.063382
 21
-48.739815
  0
LINE
  8
ゴム等
  6
CONTINUOUS
 10
-52.734545
 20
-49.13153
 11
-53.671665
 21
-49.13153
  0
LINE
  8
ゴム等
  6
CONTINUOUS
 10
-52.734545
 20
-49.13153
 11
-54.368412
 21
-47.497665
  0
LINE
  8
ゴム等
  6
CONTINUOUS
 10
-53.671665
 20
-49.13153
 11
-54.110523
 21
-48.692675
  0
LINE
  8
ゴム等
  6
CONTINUOUS
 10
-54.25412
 20
-48.794528
 11
-54.627825
 21
-49.482268
  0
LINE
  8
ゴム等
  6
CONTINUOUS
 10
-54.627825
 20
-49.482268
 11
-55.07313
 21
-50.320817
  0
LINE
  8
ゴム等
  6
CONTINUOUS
 10
-90.610728
 20
-47.497665
 11
-88.94406
 21
-47.497665
  0
LINE
  8
ゴム等
  6
CONTINUOUS
 10
-88.94406
 20
-47.497665
 11
-88.94406
 21
-48.739815
  0
LINE
  8
ゴム等
  6
CONTINUOUS
 10
-90.868617
 20
-48.692675
 11
-88.94406
 21
-48.692675
  0
LINE
  8
ゴム等
  6
CONTINUOUS
 10
-88.94406
 20
-48.739815
 11
-90.915758
 21
-48.739815
  0
LINE
  8
ゴム等
  6
CONTINUOUS
 10
-92.244595
 20
-49.13153
 11
-91.307475
 21
-49.13153
  0
LINE
  8
ゴム等
  6
CONTINUOUS
 10
-92.244595
 20
-49.13153
 11
-90.610728
 21
-47.497665
  0
LINE
  8
ゴム等
  6
CONTINUOUS
 10
-91.307475
 20
-49.13153
 11
-90.868617
 21
-48.692675
  0
LINE
  8
ゴム等
  6
CONTINUOUS
 10
-90.72502
 20
-48.794528
 11
-90.351315
 21
-49.482268
  0
LINE
  8
ゴム等
  6
CONTINUOUS
 10
-90.351315
 20
-49.482268
 11
-89.90601
 21
-50.320817
  0
LINE
  8
ゴム等
  6
CONTINUOUS
 10
-72.922905
 20
-71.38979
 11
-72.922905
 21
-49.482268
  0
LINE
  8
ゴム等
  6
CONTINUOUS
 10
-71.190675
 20
-70.994895
 11
-71.190675
 21
-50.320817
  0
LINE
  8
ゴム等
  6
CONTINUOUS
 10
-73.788465
 20
-70.994895
 11
-73.788465
 21
-50.320817
  0
LINE
  8
ゴム等
  6
CONTINUOUS
 10
-72.056235
 20
-71.38979
 11
-72.056235
 21
-49.482268
  0
LINE
  8
ゴム等
  6
CONTINUOUS
 10
-110.580087
 20
-70.994895
 11
-89.90601
 21
-50.320817
  0
LINE
  8
ゴム等
  6
CONTINUOUS
 10
-112.25884
 20
-71.38979
 11
-90.351315
 21
-49.482268
  0
LINE
  8
ゴム等
  6
CONTINUOUS
 10
-113.93311
 20
-72.002615
 11
-90.72502
 21
-48.794528
  0
LINE
  8
ゴム等
  6
CONTINUOUS
 10
-34.399053
 20
-70.994895
 11
-55.07313
 21
-50.320817
  0
LINE
  8
ゴム等
  6
CONTINUOUS
 10
-32.7203
 20
-71.38979
 11
-54.627825
 21
-49.482268
  0
LINE
  8
ゴム等
  6
CONTINUOUS
 10
-31.04603
 20
-72.002615
 11
-54.25412
 21
-48.794528
  0
LINE
  8
ゴム等
  6
CONTINUOUS
 10
-71.190675
 20
-50.320817
 11
-55.07313
 21
-50.320817
  0
LINE
  8
ゴム等
  6
CONTINUOUS
 10
-73.788465
 20
-50.320817
 11
-89.90601
 21
-50.320817
  0
LINE
  8
ゴム等
  6
CONTINUOUS
 10
-54.627825
 20
-49.482268
 11
-90.351315
 21
-49.482268
  0
LINE
  8
ゴム等
  6
CONTINUOUS
 10
54.633317
 20
63.23504
 11
55.028212
 21
64.913793
  0
LINE
  8
ゴム等
  6
CONTINUOUS
 10
55.028212
 20
64.913793
 11
55.641037
 21
66.588062
  0
LINE
  8
ゴム等
  6
CONTINUOUS
 10
55.641037
 20
20.36765
 11
55.028212
 21
22.04192
  0
LINE
  8
ゴム等
  6
CONTINUOUS
 10
55.028212
 20
22.04192
 11
54.633317
 21
23.720672
  0
LINE
  8
ゴム等
  6
CONTINUOUS
 10
54.633317
 20
63.23504
 11
54.633317
 21
23.720672
  0
LINE
  8
ゴム等
  6
CONTINUOUS
 10
55.028212
 20
64.913793
 11
55.028212
 21
22.04192
  0
LINE
  8
ゴム等
  6
CONTINUOUS
 10
55.641037
 20
66.588062
 11
55.641037
 21
20.36765
  0
LINE
  8
ゴム等
  6
CONTINUOUS
 10
54.633317
 20
23.720672
 11
34.876135
 21
43.477855
  0
LINE
  8
ゴム等
  6
CONTINUOUS
 10
54.633317
 20
63.23504
 11
34.876135
 21
43.477855
  0
LINE
  8
ゴム等
  6
CONTINUOUS
 10
55.028212
 20
64.913793
 11
33.59228
 21
43.477855
  0
LINE
  8
ゴム等
  6
CONTINUOUS
 10
55.028212
 20
22.04192
 11
33.59228
 21
43.477855
  0
LINE
  8
ゴム等
  6
CONTINUOUS
 10
55.641037
 20
20.36765
 11
32.530835
 21
43.477855
  0
LINE
  8
ゴム等
  6
CONTINUOUS
 10
55.641037
 20
66.588062
 11
32.530835
 21
43.477855
  0
TEXT
  7
TextStyle03
  8
文字
  6
CONTINUOUS
 10
-21.6
 20
0.175
  1
は排水穴位置を示す
 40
3.0
 72
     5
 11
8.4
 21
0.175
  0
TEXT
  7
TextStyle03
  8
文字
  6
CONTINUOUS
 10
148.6
 20
5.375
  1
×　２枚
 40
4.0
 72
     5
 11
166.1
 21
5.375
  0
TEXT
  7
TextStyle03
  8
文字
  6
CONTINUOUS
 10
148.6
 20
52.2
  1
×　右２枚
 40
4.0
 72
     5
 11
170.6
 21
52.2
  0
TEXT
  7
TextStyle03
  8
文字
  6
CONTINUOUS
 10
148.6
 20
47.7
  1
×　左２枚
 40
4.0
 72
     5
 11
170.6
 21
47.7
  0
TEXT
  7
TextStyle03
  8
文字
  6
CONTINUOUS
 10
-133.4
 20
84.15
  1
アンカーピッチ
 40
3.0
 72
     5
 11
-110.15
 21
84.15
  0
TEXT
  7
TextStyle03
  8
文字
  6
CONTINUOUS
 10
-139.75
 20
-1.125
  1
アンカーピッチ
 40
3.0
 50
90.0
 72
     5
 11
-139.75
 21
22.125
  0
TEXT
  7
TextStyle03
  8
文字
  6
CONTINUOUS
 10
66.3
 20
120.925
  1
シリーズ：ＤＦＹＫ
 40
5.0
 72
     5
 11
116.3
 21
120.925
  0
TEXT
  7
TextStyle03
  8
文字
  6
CONTINUOUS
 10
66.3
 20
115.3
  1
　　　　　山型四角錘（固定）1300×2400タイプ
 40
5.0
 72
     5
 11
189.425
 21
115.3
  0
TEXT
  7
TextStyle03
  8
文字
  6
CONTINUOUS
 10
66.3
 20
109.675
  1
図面名　：外観姿図
 40
5.0
 72
     5
 11
116.3
 21
109.675
  0
TEXT
  7
TextStyle03
  8
文字
  6
CONTINUOUS
 10
66.3
 20
104.05
  1

 40
5.0
 41
1.125
  0
TEXT
  7
TextStyle03
  8
文字
  6
CONTINUOUS
 10
66.3
 20
98.425
  1
ＮＳコード：ＮＳ４ＹＫ
 40
5.0
 72
     5
 11
127.55
 21
98.425
  0
TEXT
  7
TextStyle03
  8
文字
  6
CONTINUOUS
 10
114.725
 20
-13.025
  1
×４枚
 40
3.0
 72
     5
 11
124.475
 21
-13.025
  0
TEXT
  7
TextStyle03
  8
文字
  6
CONTINUOUS
 10
80.825
 20
72.675
  1
ガラス寸法
 40
3.0
 72
     5
 11
97.325
 21
72.675
  0
TEXT
  7
TextStyle03
  8
文字
  6
CONTINUOUS
 10
85.625
 20
20.125
  1
ガラス寸法
 40
3.0
 72
     5
 11
102.125
 21
20.125
  0
INSERT
  2
*DIM_0002
  8
寸法
  6
CONTINUOUS
 10
0.0
 20
0.0
  0
LINE
  8
寸法
  6
CONTINUOUS
 10
-97.48957
 20
17.611188
 11
-98.865203
 21
15.228522
  0
LINE
  8
寸法
  6
CONTINUOUS
 10
-97.48957
 20
17.611188
 11
-96.113937
 21
15.228522
  0
LINE
  8
寸法
  6
CONTINUOUS
 10
-96.113937
 20
15.228522
 11
-98.865203
 21
15.228522
  0
INSERT
  2
*DIM_0003
  8
寸法
  6
CONTINUOUS
 10
0.0
 20
0.0
  0
LINE
  8
寸法
  6
CONTINUOUS
 10
-24.65417
 20
2.613172
 11
-23.278538
 21
0.230508
  0
LINE
  8
寸法
  6
CONTINUOUS
 10
-24.65417
 20
2.613172
 11
-26.029803
 21
0.230508
  0
LINE
  8
寸法
  6
CONTINUOUS
 10
-26.029803
 20
0.230508
 11
-23.278538
 21
0.230508
  0
LINE
  8
寸法
  6
CONTINUOUS
 10
-28.003658
 20
-1.421447
 11
10.071655
 21
-1.421447
  0
INSERT
  2
*DIM_0004
  8
寸法
  6
CONTINUOUS
 10
0.0
 20
0.0
  0
LINE
  8
寸法
  6
CONTINUOUS
 10
-47.48957
 20
17.611188
 11
-46.113937
 21
15.228522
  0
LINE
  8
寸法
  6
CONTINUOUS
 10
-47.48957
 20
17.611188
 11
-48.865203
 21
15.228522
  0
LINE
  8
寸法
  6
CONTINUOUS
 10
-48.865203
 20
15.228522
 11
-46.113937
 21
15.228522
  0
LINE
  8
寸法
  6
CONTINUOUS
 10
-97.48957
 20
69.344522
 11
-98.865203
 21
71.727188
  0
LINE
  8
寸法
  6
CONTINUOUS
 10
-97.48957
 20
69.344522
 11
-96.113937
 21
71.727188
  0
LINE
  8
寸法
  6
CONTINUOUS
 10
-96.113937
 20
71.727188
 11
-98.865203
 21
71.727188
  0
LINE
  8
寸法
  6
CONTINUOUS
 10
-47.48957
 20
69.344522
 11
-46.113937
 21
71.727188
  0
LINE
  8
寸法
  6
CONTINUOUS
 10
-47.48957
 20
69.344522
 11
-48.865203
 21
71.727188
  0
LINE
  8
寸法
  6
CONTINUOUS
 10
-48.865203
 20
71.727188
 11
-46.113937
 21
71.727188
  0
LINE
  8
寸法
  6
CONTINUOUS
 10
-28.57291
 20
43.477855
 11
-26.190245
 21
44.853487
  0
LINE
  8
寸法
  6
CONTINUOUS
 10
-28.57291
 20
43.477855
 11
-26.190245
 21
42.102223
  0
LINE
  8
寸法
  6
CONTINUOUS
 10
-26.190245
 20
42.102223
 11
-26.190245
 21
44.853487
  0
LINE
  8
寸法
  6
CONTINUOUS
 10
-116.40623
 20
43.477855
 11
-118.788895
 21
44.853487
  0
LINE
  8
寸法
  6
CONTINUOUS
 10
-116.40623
 20
43.477855
 11
-118.788895
 21
42.102223
  0
LINE
  8
寸法
  6
CONTINUOUS
 10
-118.788895
 20
42.102223
 11
-118.788895
 21
44.853487
  0
INSERT
  2
*DIM_0005
  8
寸法
  6
CONTINUOUS
 10
0.0
 20
0.0
  0
INSERT
  2
*DIM_0006
  8
寸法
  6
CONTINUOUS
 10
0.0
 20
0.0
  0
INSERT
  2
*DIM_0007
  8
寸法
  6
CONTINUOUS
 10
0.0
 20
0.0
  0
INSERT
  2
*DIM_0008
  8
寸法
  6
CONTINUOUS
 10
0.0
 20
0.0
  0
INSERT
  2
*DIM_0009
  8
寸法
  6
CONTINUOUS
 10
0.0
 20
0.0
  0
INSERT
  2
*DIM_0010
  8
寸法
  6
CONTINUOUS
 10
0.0
 20
0.0
  0
INSERT
  2
*DIM_0011
  8
寸法
  6
CONTINUOUS
 10
0.0
 20
0.0
  0
INSERT
  2
*DIM_0012
  8
寸法
  6
CONTINUOUS
 10
0.0
 20
0.0
  0
INSERT
  2
*DIM_0013
  8
寸法
  6
CONTINUOUS
 10
0.0
 20
0.0
  0
INSERT
  2
*DIM_0014
  8
寸法
  6
CONTINUOUS
 10
0.0
 20
0.0
  0
INSERT
  2
*DIM_0015
  8
寸法
  6
CONTINUOUS
 10
0.0
 20
0.0
  0
INSERT
  2
*DIM_0016
  8
寸法
  6
CONTINUOUS
 10
0.0
 20
0.0
  0
INSERT
  2
*DIM_0017
  8
寸法
  6
CONTINUOUS
 10
0.0
 20
0.0
  0
INSERT
  2
*DIM_0018
  8
寸法
  6
CONTINUOUS
 10
0.0
 20
0.0
  0
INSERT
  2
*DIM_0019
  8
寸法
  6
CONTINUOUS
 10
0.0
 20
0.0
  0
INSERT
  2
*DIM_0020
  8
寸法
  6
CONTINUOUS
 10
0.0
 20
0.0
  0
INSERT
  2
*DIM_0021
  8
寸法
  6
CONTINUOUS
 10
0.0
 20
0.0
  0
INSERT
  2
*DIM_0022
  8
寸法
  6
CONTINUOUS
 10
0.0
 20
0.0
  0
INSERT
  2
*DIM_0023
  8
寸法
  6
CONTINUOUS
 10
0.0
 20
0.0
  0
INSERT
  2
*DIM_0024
  8
寸法
  6
CONTINUOUS
 10
0.0
 20
0.0
  0
INSERT
  2
*DIM_0025
  8
寸法
  6
CONTINUOUS
 10
0.0
 20
0.0
  0
ENDSEC
  0
EOF
