  0
SECTION
  2
HEADER
  9
$EXTMIN
 10
-210.0
 20
-148.5
  9
$EXTMAX
 10
210.0
 20
148.5
  9
$PDMODE
 70
    32
  9
$PDSIZE
 40
1.5
  9
$LTSCALE
 40
10.0
  0
ENDSEC
  0
SECTION
  2
TABLES
  0
TABLE
  2
LTYPE
 70
    15
  0
LTYPE
  2
CONTINUOUS
 70
    64
  3
実線
 72
    65
 73
     0
 40
0.0
  0
LTYPE
  2
DASHED
 70
    64
  3
破線A
 72
    65
 73
     2
 40
0.6
 49
0.4
 49
-0.2
  0
LTYPE
  2
DASHEDX2
 70
    64
  3
破線B
 72
    65
 73
     2
 40
1.3
 49
0.9
 49
-0.4
  0
LTYPE
  2
DASHDOT
 70
    64
  3
１点鎖線A
 72
    65
 73
     4
 40
0.5375
 49
0.375
 49
-0.05
 49
0.0625
 49
-0.05
  0
LTYPE
  2
DASHDOTX2
 70
    64
  3
１点鎖線B
 72
    65
 73
     4
 40
1.075
 49
0.75
 49
-0.1
 49
0.125
 49
-0.1
  0
LTYPE
  2
DIVIDE2
 70
    64
  3
２点鎖線A
 72
    65
 73
     6
 40
0.5125
 49
0.3
 49
-0.0375
 49
0.05
 49
-0.0375
 49
0.05
 49
-0.0375
  0
LTYPE
  2
DIVIDE
 70
    64
  3
２点鎖線B
 72
    65
 73
     6
 40
1.05
 49
0.55
 49
-0.1
 49
0.1
 49
-0.1
 49
0.1
 49
-0.1
  0
LTYPE
  2
DOT
 70
    64
  3
点線A
 72
    65
 73
     2
 40
0.1125
 49
0.0625
 49
-0.05
  0
LTYPE
  2
DOTX2
 70
    64
  3
点線B
 72
    65
 73
     2
 40
0.275
 49
0.15
 49
-0.125
  0
LTYPE
  2
CONTINUOUS
 70
    64
  3
実線
 72
    65
 73
     0
 40
0.0
  0
LTYPE
  2
CONTINUOUS
 70
    64
  3
実線
 72
    65
 73
     0
 40
0.0
  0
LTYPE
  2
CONTINUOUS
 70
    64
  3
実線
 72
    65
 73
     0
 40
0.0
  0
LTYPE
  2
CONTINUOUS
 70
    64
  3
実線
 72
    65
 73
     0
 40
0.0
  0
LTYPE
  2
CONTINUOUS
 70
    64
  3
実線
 72
    65
 73
     0
 40
0.0
  0
LTYPE
  2
CONTINUOUS
 70
    64
  3
実線
 72
    65
 73
     0
 40
0.0
  0
ENDTAB
  0
TABLE
  2
LAYER
 70
    34
  0
LAYER
  2
通り芯
 70
     0
 62
    15
  6
CONTINUOUS
  0
LAYER
  2
補助線
 70
     0
 62
    16
  6
DOT
  0
LAYER
  2
躯体
 70
     0
 62
    31
  6
CONTINUOUS
  0
LAYER
  2
型材
 70
     0
 62
    32
  6
CONTINUOUS
  0
LAYER
  2
型材断面
 70
     0
 62
    47
  6
CONTINUOUS
  0
LAYER
  2
ガラス
 70
     0
 62
    48
  6
CONTINUOUS
  0
LAYER
  2
ゴム等
 70
     0
 62
    63
  6
CONTINUOUS
  0
LAYER
  2
ボルト／ビス
 70
     0
 62
    64
  6
CONTINUOUS
  0
LAYER
  2
文字
 70
     0
 62
    79
  6
CONTINUOUS
  0
LAYER
  2
寸法
 70
     0
 62
    80
  6
CONTINUOUS
  0
LAYER
  2
ﾊｯﾁﾝｸﾞ
 70
     0
 62
    95
  6
CONTINUOUS
  0
LAYER
  2
別途部材
 70
     0
 62
    96
  6
CONTINUOUS
  0
LAYER
  2
曲げ物
 70
     0
 62
   111
  6
CONTINUOUS
  0
LAYER
  2
鉄骨等
 70
     0
 62
   112
  6
CONTINUOUS
  0
LAYER
  2
St
 70
     0
 62
   127
  6
CONTINUOUS
  0
LAYER
  2
その他部品等
 70
     0
 62
   128
  6
CONTINUOUS
  0
LAYER
  2
ｶﾞｽｹｯﾄ
 70
     0
 62
   143
  6
CONTINUOUS
  0
LAYER
  2
ｽｹｯﾁ
 70
     0
 62
    14
  6
CONTINUOUS
  0
LAYER
  2
0
 70
     0
 62
    17
  6
CONTINUOUS
  0
LAYER
  2
1
 70
     0
 62
    30
  6
CONTINUOUS
  0
LAYER
  2
4
 70
     0
 62
    33
  6
CONTINUOUS
  0
LAYER
  2
ﾚｲﾔ3
 70
     0
 62
    46
  6
CONTINUOUS
  0
LAYER
  2
外形線
 70
     0
 62
    49
  6
CONTINUOUS
  0
LAYER
  2
部品
 70
     0
 62
    14
  6
CONTINUOUS
  0
LAYER
  2
サッシ芯
 70
     0
 62
    17
  6
DASHDOTX2
  0
LAYER
  2
寸法線
 70
     0
 62
    62
  6
CONTINUOUS
  0
LAYER
  2
姿図外形線
 70
     0
 62
    65
  6
CONTINUOUS
  0
LAYER
  2
姿補助線
 70
     0
 62
    30
  6
CONTINUOUS
  0
LAYER
  2
透視線
 70
     0
 62
    78
  6
DOT
  0
LAYER
  2
用紙
 70
     0
 62
    81
  6
CONTINUOUS
  0
LAYER
  2
実線図枠
 70
     0
 62
    94
  6
CONTINUOUS
  0
LAYER
  2
補助図枠
 70
     0
 62
    97
  6
CONTINUOUS
  0
LAYER
  2
建具記号
 70
     0
 62
   110
  6
CONTINUOUS
  0
LAYER
  2
補助文字
 70
     0
 62
   113
  6
CONTINUOUS
  0
ENDTAB
  0
TABLE
  2
STYLE
 70
    10
  0
STYLE
  2
STANDARD
 70
     0
 40
1.0
 41
1.0
 42
1.0
 50
0.0
 71
     0
  3
TXT
  4
BIGFONT
  0
STYLE
  2
TATE
 70
     4
 40
1.0
 41
1.0
 42
1.0
 50
0.0
 71
     0
  3
TXT
  4
BIGFONT
  0
STYLE
  2
TextStyle03
 70
     0
 40
1.0
 41
1.0
 42
1.0
 50
0.0
 71
     0
  3
MONOTXT
  4
BIGFONT
  0
STYLE
  2
TextStyle04
 70
     0
 40
1.0
 41
1.0
 42
1.0
 50
0.0
 71
     0
  3
MONOTXT
  4
BIGFONT
  0
STYLE
  2
TextStyle05
 70
     0
 40
1.0
 41
1.0
 42
1.0
 50
0.0
 71
     0
  3
MONOTXT
  4
BIGFONT
  0
STYLE
  2
TextStyle06
 70
     0
 40
1.0
 41
1.0
 42
1.0
 50
0.0
 71
     0
  3
MONOTXT
  4
BIGFONT
  0
STYLE
  2
TextStyle07
 70
     0
 40
1.0
 41
1.0
 42
1.0
 50
0.0
 71
     0
  3
MONOTXT
  4
BIGFONT
  0
STYLE
  2
TextStyle08
 70
     0
 40
1.0
 41
1.0
 42
1.0
 50
0.0
 71
     0
  3
MONOTXT
  4
BIGFONT
  0
STYLE
  2
TextStyle09
 70
     0
 40
1.0
 41
1.0
 42
1.0
 50
0.0
 71
     0
  3
MONOTXT
  4
BIGFONT
  0
STYLE
  2
TextStyle10
 70
     0
 40
1.0
 41
1.0
 42
1.0
 50
0.0
 71
     0
  3
MONOTXT
  4
BIGFONT
  0
ENDTAB
  0
ENDSEC
  0
SECTION
  2
BLOCKS
  0
BLOCK
  2
*GRP_0001
 70
    65
 10
0.0
 20
0.0
  0
LINE
  8
型材断面
  6
CONTINUOUS
 10
195.0
 20
133.5
 11
195.0
 21
-133.5
  0
LINE
  8
型材断面
  6
CONTINUOUS
 10
195.0
 20
-133.5
 11
-185.0
 21
-133.5
  0
LINE
  8
型材断面
  6
CONTINUOUS
 10
-185.0
 20
-133.5
 11
-185.0
 21
133.5
  0
LINE
  8
型材断面
  6
CONTINUOUS
 10
195.0
 20
133.5
 11
-185.0
 21
133.5
  0
LINE
  8
型材断面
  6
CONTINUOUS
 10
145.0
 20
-133.5
 11
145.0
 21
-118.5
  0
LINE
  8
型材断面
  6
CONTINUOUS
 10
195.0
 20
-118.5
 11
145.0
 21
-118.5
  0
ENDBLK
  0
BLOCK
  2
*DIM_0002
 70
    65
 10
0.0
 20
0.0
  0
LINE
  8
寸法
  6
BYBLOCK
 62
     0
 10
-32.48957
 20
-22.481818
 11
-32.48957
 21
-24.875757
  0
LINE
  8
寸法
  6
BYBLOCK
 62
     0
 10
-112.48957
 20
-24.875757
 11
-32.48957
 21
-24.875757
  0
POINT
  8
寸法
 62
     0
 10
-32.48957
 20
-24.875757
  0
TEXT
  7
TextStyle03
  8
寸法
  6
CONTINUOUS
 62
     0
 10
-84.21875
 20
-24.525
  1
呼称寸法＝2400
 40
3.0
 72
     5
 11
-60.78125
 21
-24.525
  0
ENDBLK
  0
BLOCK
  2
*DIM_0003
 70
    65
 10
0.0
 20
0.0
  0
LINE
  8
寸法
  6
BYBLOCK
 62
     0
 10
15.81096
 20
75.144522
 11
15.81096
 21
21.811188
  0
POINT
  8
寸法
 62
     0
 10
15.81096
 20
21.811188
  0
TEXT
  7
TextStyle03
  8
寸法
  6
CONTINUOUS
 62
     0
 10
15.425
 20
36.75625
  1
呼称寸法＝1600
 40
3.0
 50
90.0
 72
     5
 11
15.425
 21
60.19375
  0
ENDBLK
  0
BLOCK
  2
*DIM_0004
 70
    65
 10
0.0
 20
0.0
  0
LINE
  8
寸法
  6
BYBLOCK
 62
     0
 10
-97.48957
 20
12.228522
 11
-97.48957
 21
6.775155
  0
LINE
  8
寸法
  6
BYBLOCK
 62
     0
 10
-47.48957
 20
12.228522
 11
-47.48957
 21
6.775155
  0
LINE
  8
寸法
  6
BYBLOCK
 62
     0
 10
-97.48957
 20
6.775155
 11
-47.48957
 21
6.775155
  0
POINT
  8
寸法
 62
     0
 10
-97.48957
 20
6.775155
  0
POINT
  8
寸法
 62
     0
 10
-47.48957
 20
6.775155
  0
TEXT
  7
TextStyle03
  8
寸法
  6
CONTINUOUS
 62
     0
 10
-75.80625
 20
7.15
  1
1500
 40
3.0
 72
     5
 11
-69.24375
 21
7.15
  0
ENDBLK
  0
BLOCK
  2
*DIM_0005
 70
    65
 10
0.0
 20
0.0
  0
LINE
  8
寸法
  6
BYBLOCK
 62
     0
 10
-105.822902
 20
82.06119
 11
-105.822902
 21
95.852232
  0
LINE
  8
寸法
  6
BYBLOCK
 62
     0
 10
-89.156238
 20
82.06119
 11
-89.156238
 21
95.852232
  0
LINE
  8
寸法
  6
BYBLOCK
 62
     0
 10
-105.822902
 20
95.852232
 11
-89.156238
 21
95.852232
  0
POINT
  8
寸法
 62
     0
 10
-105.822902
 20
95.852232
  0
POINT
  8
寸法
 62
     0
 10
-89.156238
 20
95.852232
  0
TEXT
  7
TextStyle03
  8
寸法
  6
CONTINUOUS
 62
     0
 10
-99.9375
 20
96.225
  1
500
 40
3.0
 72
     5
 11
-95.0625
 21
96.225
  0
ENDBLK
  0
BLOCK
  2
*DIM_0006
 70
    65
 10
0.0
 20
0.0
  0
LINE
  8
寸法
  6
BYBLOCK
 62
     0
 10
-72.489573
 20
82.06119
 11
-72.489573
 21
95.852232
  0
LINE
  8
寸法
  6
BYBLOCK
 62
     0
 10
-89.156238
 20
82.06119
 11
-89.156238
 21
95.852232
  0
LINE
  8
寸法
  6
BYBLOCK
 62
     0
 10
-72.489573
 20
95.852232
 11
-89.156238
 21
95.852232
  0
POINT
  8
寸法
 62
     0
 10
-72.489573
 20
95.852232
  0
POINT
  8
寸法
 62
     0
 10
-89.156238
 20
95.852232
  0
TEXT
  7
TextStyle03
  8
寸法
  6
CONTINUOUS
 62
     0
 10
-83.2625
 20
96.225
  1
500
 40
3.0
 72
     5
 11
-78.3875
 21
96.225
  0
ENDBLK
  0
BLOCK
  2
*DIM_0007
 70
    65
 10
0.0
 20
0.0
  0
LINE
  8
寸法
  6
BYBLOCK
 62
     0
 10
-72.489573
 20
82.06119
 11
-72.489573
 21
95.852232
  0
LINE
  8
寸法
  6
BYBLOCK
 62
     0
 10
-55.822908
 20
82.06119
 11
-55.822908
 21
95.852232
  0
LINE
  8
寸法
  6
BYBLOCK
 62
     0
 10
-72.489573
 20
95.852232
 11
-55.822908
 21
95.852232
  0
POINT
  8
寸法
 62
     0
 10
-72.489573
 20
95.852232
  0
POINT
  8
寸法
 62
     0
 10
-55.822908
 20
95.852232
  0
TEXT
  7
TextStyle03
  8
寸法
  6
CONTINUOUS
 62
     0
 10
-66.6125
 20
96.225
  1
500
 40
3.0
 72
     5
 11
-61.7375
 21
96.225
  0
ENDBLK
  0
BLOCK
  2
*DIM_0008
 70
    65
 10
0.0
 20
0.0
  0
LINE
  8
寸法
  6
BYBLOCK
 62
     0
 10
-39.156243
 20
82.06119
 11
-39.156243
 21
95.852232
  0
LINE
  8
寸法
  6
BYBLOCK
 62
     0
 10
-55.822908
 20
82.06119
 11
-55.822908
 21
95.852232
  0
LINE
  8
寸法
  6
BYBLOCK
 62
     0
 10
-39.156243
 20
95.852232
 11
-55.822908
 21
95.852232
  0
POINT
  8
寸法
 62
     0
 10
-39.156243
 20
95.852232
  0
POINT
  8
寸法
 62
     0
 10
-55.822908
 20
95.852232
  0
TEXT
  7
TextStyle03
  8
寸法
  6
CONTINUOUS
 62
     0
 10
-49.9375
 20
96.225
  1
500
 40
3.0
 72
     5
 11
-45.0625
 21
96.225
  0
ENDBLK
  0
BLOCK
  2
*DIM_0009
 70
    65
 10
0.0
 20
0.0
  0
LINE
  8
寸法
  6
BYBLOCK
 62
     0
 10
-119.40623
 20
70.977852
 11
-137.193537
 21
70.977852
  0
LINE
  8
寸法
  6
BYBLOCK
 62
     0
 10
-119.40623
 20
55.977852
 11
-137.193537
 21
55.977852
  0
LINE
  8
寸法
  6
BYBLOCK
 62
     0
 10
-137.193537
 20
70.977852
 11
-137.193537
 21
55.977852
  0
POINT
  8
寸法
 62
     0
 10
-137.193537
 20
70.977852
  0
POINT
  8
寸法
 62
     0
 10
-137.193537
 20
55.977852
  0
TEXT
  7
TextStyle03
  8
寸法
  6
CONTINUOUS
 62
     0
 10
-137.575
 20
61.0375
  1
450
 40
3.0
 50
90.0
 72
     5
 11
-137.575
 21
65.9125
  0
ENDBLK
  0
BLOCK
  2
*DIM_0010
 70
    65
 10
0.0
 20
0.0
  0
LINE
  8
寸法
  6
BYBLOCK
 62
     0
 10
-119.40623
 20
40.977852
 11
-137.193537
 21
40.977852
  0
LINE
  8
寸法
  6
BYBLOCK
 62
     0
 10
-119.40623
 20
55.977852
 11
-137.193537
 21
55.977852
  0
LINE
  8
寸法
  6
BYBLOCK
 62
     0
 10
-137.193537
 20
40.977852
 11
-137.193537
 21
55.977852
  0
POINT
  8
寸法
 62
     0
 10
-137.193537
 20
40.977852
  0
POINT
  8
寸法
 62
     0
 10
-137.193537
 20
55.977852
  0
TEXT
  7
TextStyle03
  8
寸法
  6
CONTINUOUS
 62
     0
 10
-137.575
 20
46.0375
  1
450
 40
3.0
 50
90.0
 72
     5
 11
-137.575
 21
50.9125
  0
ENDBLK
  0
BLOCK
  2
*DIM_0011
 70
    65
 10
0.0
 20
0.0
  0
LINE
  8
寸法
  6
BYBLOCK
 62
     0
 10
-119.40623
 20
40.977852
 11
-137.193537
 21
40.977852
  0
LINE
  8
寸法
  6
BYBLOCK
 62
     0
 10
-119.40623
 20
25.977852
 11
-137.193537
 21
25.977852
  0
LINE
  8
寸法
  6
BYBLOCK
 62
     0
 10
-137.193537
 20
40.977852
 11
-137.193537
 21
25.977852
  0
POINT
  8
寸法
 62
     0
 10
-137.193537
 20
40.977852
  0
POINT
  8
寸法
 62
     0
 10
-137.193537
 20
25.977852
  0
TEXT
  7
TextStyle03
  8
寸法
  6
CONTINUOUS
 62
     0
 10
-137.575
 20
31.0375
  1
450
 40
3.0
 50
90.0
 72
     5
 11
-137.575
 21
35.9125
  0
ENDBLK
  0
BLOCK
  2
*DIM_0012
 70
    65
 10
0.0
 20
0.0
  0
LINE
  8
寸法
  6
CONTINUOUS
 10
-115.122905
 20
-71.15136
 11
-115.122905
 21
-19.064915
  0
LINE
  8
寸法
  6
CONTINUOUS
 10
-29.856235
 20
-71.15136
 11
-29.856235
 21
-19.064915
  0
LINE
  8
寸法
  6
CONTINUOUS
 10
-115.122905
 20
-19.064915
 11
-29.856235
 21
-19.064915
  0
POINT
  8
寸法
 10
-115.122905
 20
-19.064915
  0
POINT
  8
寸法
 10
-29.856235
 20
-19.064915
  0
TEXT
  7
TextStyle03
  8
寸法
  6
CONTINUOUS
 10
-75.78125
 20
-18.7
  1
2558
 40
3.0
 72
     5
 11
-69.21875
 21
-18.7
  0
ENDBLK
  0
BLOCK
  2
*DIM_0013
 70
    65
 10
0.0
 20
0.0
  0
LINE
  8
寸法
  6
CONTINUOUS
 10
-32.48957
 20
-24.875757
 11
-29.856235
 21
-24.875757
  0
POINT
  8
寸法
 10
-32.48957
 20
-24.875757
  0
POINT
  8
寸法
 10
-29.856235
 20
-24.875757
  0
TEXT
  7
TextStyle03
  8
寸法
  6
CONTINUOUS
 10
-29.39375
 20
-24.525
  1
79
 40
3.0
 72
     5
 11
-26.20625
 21
-24.525
  0
ENDBLK
  0
BLOCK
  2
*DIM_0014
 70
    65
 10
0.0
 20
0.0
  0
LINE
  8
寸法
  6
CONTINUOUS
 10
-112.48957
 20
-24.875757
 11
-115.122905
 21
-24.875757
  0
POINT
  8
寸法
 10
-112.48957
 20
-24.875757
  0
POINT
  8
寸法
 10
-115.122905
 20
-24.875757
  0
TEXT
  7
TextStyle03
  8
寸法
  6
CONTINUOUS
 10
-118.79375
 20
-24.525
  1
79
 40
3.0
 72
     5
 11
-115.60625
 21
-24.525
  0
ENDBLK
  0
BLOCK
  2
*DIM_0015
 70
    65
 10
0.0
 20
0.0
  0
LINE
  8
寸法
  6
CONTINUOUS
 10
-28.856235
 20
-74.362823
 11
-5.69874
 21
-74.362823
  0
LINE
  8
寸法
  6
CONTINUOUS
 10
-28.856235
 20
-72.15136
 11
-5.69874
 21
-72.15136
  0
LINE
  8
寸法
  6
CONTINUOUS
 10
-5.69874
 20
-74.362823
 11
-5.69874
 21
-72.15136
  0
POINT
  8
寸法
 10
-5.69874
 20
-74.362823
  0
POINT
  8
寸法
 10
-5.69874
 20
-72.15136
  0
TEXT
  7
TextStyle03
  8
寸法
  6
CONTINUOUS
 10
-2.7
 20
-76.55625
  1
66.3
 40
3.0
 50
90.0
 72
     5
 11
-2.7
 21
-69.99375
  0
ENDBLK
  0
BLOCK
  2
*DIM_0016
 70
    65
 10
0.0
 20
0.0
  0
LINE
  8
寸法
  6
CONTINUOUS
 10
54.789783
 20
77.777858
 11
10.740952
 21
77.777858
  0
LINE
  8
寸法
  6
CONTINUOUS
 10
54.789783
 20
19.177855
 11
10.740952
 21
19.177855
  0
LINE
  8
寸法
  6
CONTINUOUS
 10
10.740952
 20
77.777858
 11
10.740952
 21
19.177855
  0
POINT
  8
寸法
 10
10.740952
 20
77.777858
  0
POINT
  8
寸法
 10
10.740952
 20
19.177855
  0
TEXT
  7
TextStyle03
  8
寸法
  6
CONTINUOUS
 10
10.35
 20
45.19375
  1
1758
 40
3.0
 50
90.0
 72
     5
 11
10.35
 21
51.75625
  0
ENDBLK
  0
BLOCK
  2
*DIM_0017
 70
    65
 10
0.0
 20
0.0
  0
LINE
  8
寸法
  6
CONTINUOUS
 10
15.81096
 20
75.144522
 11
15.81096
 21
77.777858
  0
POINT
  8
寸法
 10
15.81096
 20
75.144522
  0
POINT
  8
寸法
 10
15.81096
 20
77.777858
  0
TEXT
  7
TextStyle03
  8
寸法
  6
CONTINUOUS
 10
15.425
 20
78.23125
  1
79
 40
3.0
 50
90.0
 72
     5
 11
15.425
 21
81.41875
  0
ENDBLK
  0
BLOCK
  2
*DIM_0018
 70
    65
 10
0.0
 20
0.0
  0
LINE
  8
寸法
  6
CONTINUOUS
 10
15.81096
 20
21.811188
 11
15.81096
 21
19.177855
  0
POINT
  8
寸法
 10
15.81096
 20
21.811188
  0
POINT
  8
寸法
 10
15.81096
 20
19.177855
  0
TEXT
  7
TextStyle03
  8
寸法
  6
CONTINUOUS
 10
15.425
 20
15.50625
  1
79
 40
3.0
 50
90.0
 72
     5
 11
15.425
 21
18.69375
  0
ENDBLK
  0
BLOCK
  2
*DIM_0019
 70
    65
 10
0.0
 20
0.0
  0
LINE
  8
寸法
  6
CONTINUOUS
 10
58.001245
 20
18.177855
 11
58.001245
 21
-1.533403
  0
LINE
  8
寸法
  6
CONTINUOUS
 10
55.789783
 20
18.177855
 11
55.789783
 21
-1.533403
  0
LINE
  8
寸法
  6
CONTINUOUS
 10
58.001245
 20
-1.533403
 11
55.789783
 21
-1.533403
  0
POINT
  8
寸法
 10
58.001245
 20
-1.533403
  0
POINT
  8
寸法
 10
55.789783
 20
-1.533403
  0
TEXT
  7
TextStyle03
  8
寸法
  6
CONTINUOUS
 10
53.66875
 20
-5.375
  1
66.3
 40
3.0
 72
     5
 11
60.23125
 21
-5.375
  0
ENDBLK
  0
BLOCK
  2
*DIM_0020
 70
    65
 10
0.0
 20
0.0
  0
LINE
  8
寸法
  6
CONTINUOUS
 10
-60.03508
 20
-42.615515
 11
-5.69874
 21
-42.615515
  0
LINE
  8
寸法
  6
CONTINUOUS
 10
-5.69874
 20
-72.15136
 11
-5.69874
 21
-42.615515
  0
POINT
  8
寸法
 10
-5.69874
 20
-72.15136
  0
POINT
  8
寸法
 10
-5.69874
 20
-42.615515
  0
TEXT
  7
TextStyle03
  8
寸法
  6
CONTINUOUS
 10
-6.075
 20
-61.525
  1
886.1
 40
3.0
 50
90.0
 72
     5
 11
-6.075
 21
-53.275
  0
ENDBLK
  0
BLOCK
  2
*DIM_0021
 70
    65
 10
0.0
 20
0.0
  0
LINE
  8
寸法
  6
CONTINUOUS
 10
26.253938
 20
47.477852
 11
26.253938
 21
-1.533403
  0
LINE
  8
寸法
  6
CONTINUOUS
 10
55.789783
 20
-1.533403
 11
26.253938
 21
-1.533403
  0
POINT
  8
寸法
 10
26.253938
 20
-1.533403
  0
TEXT
  7
TextStyle03
  8
寸法
  6
CONTINUOUS
 10
36.875
 20
-1.175
  1
886.1
 40
3.0
 72
     5
 11
45.125
 21
-1.175
  0
ENDBLK
  0
BLOCK
  2
*DIM_0022
 70
    65
 10
0.0
 20
0.0
  0
LINE
  8
寸法
  6
CONTINUOUS
 10
82.611782
 20
-34.399913
 11
82.611782
 21
-40.672035
  0
LINE
  8
寸法
  6
CONTINUOUS
 10
134.42716
 20
-34.399913
 11
134.42716
 21
-40.672035
  0
LINE
  8
寸法
  6
CONTINUOUS
 10
82.611782
 20
-40.672035
 11
134.42716
 21
-40.672035
  0
POINT
  8
寸法
 10
82.611782
 20
-40.672035
  0
POINT
  8
寸法
 10
134.42716
 20
-40.672035
  0
TEXT
  7
TextStyle03
  8
寸法
  6
CONTINUOUS
 10
103.53125
 20
-40.3
  1
1554.5
 40
3.0
 72
     5
 11
113.46875
 21
-40.3
  0
ENDBLK
  0
BLOCK
  2
*DIM_0023
 70
    65
 10
0.0
 20
0.0
  0
LINE
  8
寸法
  6
CONTINUOUS
 10
135.42716
 20
-33.399913
 11
141.625228
 21
-33.399913
  0
LINE
  8
寸法
  6
CONTINUOUS
 10
109.51947
 20
3.239085
 11
141.625228
 21
3.239085
  0
LINE
  8
寸法
  6
CONTINUOUS
 10
141.625228
 20
-33.399913
 11
141.625228
 21
3.239085
  0
POINT
  8
寸法
 10
141.625228
 20
-33.399913
  0
POINT
  8
寸法
 10
141.625228
 20
3.239085
  0
TEXT
  7
TextStyle03
  8
寸法
  6
CONTINUOUS
 10
141.225
 20
-20.04375
  1
1099.1
 40
3.0
 50
90.0
 72
     5
 11
141.225
 21
-10.10625
  0
ENDBLK
  0
BLOCK
  2
*DIM_0024
 70
    65
 10
0.0
 20
0.0
  0
LINE
  8
寸法
  6
CONTINUOUS
 10
89.018208
 20
27.606907
 11
89.018208
 21
22.441198
  0
LINE
  8
寸法
  6
CONTINUOUS
 10
127.509232
 20
27.606907
 11
127.509232
 21
22.441198
  0
LINE
  8
寸法
  6
CONTINUOUS
 10
89.018208
 20
22.441198
 11
127.509232
 21
22.441198
  0
POINT
  8
寸法
 10
89.018208
 20
22.441198
  0
POINT
  8
寸法
 10
127.509232
 20
22.441198
  0
TEXT
  7
TextStyle03
  8
寸法
  6
CONTINUOUS
 10
103.25625
 20
22.825
  1
1154.7
 40
3.0
 72
     5
 11
113.19375
 21
22.825
  0
ENDBLK
  0
BLOCK
  2
*DIM_0025
 70
    65
 10
0.0
 20
0.0
  0
LINE
  8
寸法
  6
CONTINUOUS
 10
128.509232
 20
28.606907
 11
135.385775
 21
28.606907
  0
LINE
  8
寸法
  6
CONTINUOUS
 10
128.509232
 20
66.143575
 11
135.385775
 21
66.143575
  0
LINE
  8
寸法
  6
CONTINUOUS
 10
135.385775
 20
28.606907
 11
135.385775
 21
66.143575
  0
POINT
  8
寸法
 10
135.385775
 20
28.606907
  0
POINT
  8
寸法
 10
135.385775
 20
66.143575
  0
TEXT
  7
TextStyle03
  8
寸法
  6
CONTINUOUS
 10
134.975
 20
42.40625
  1
1126.1
 40
3.0
 50
90.0
 72
     5
 11
134.975
 21
52.34375
  0
ENDBLK
  0
BLOCK
  2
*DIM_0026
 70
    65
 10
0.0
 20
0.0
  0
LINE
  8
寸法
  6
CONTINUOUS
 10
115.560645
 20
67.143575
 11
115.560645
 21
75.83033
  0
LINE
  8
寸法
  6
CONTINUOUS
 10
127.509232
 20
67.143575
 11
127.509232
 21
75.83033
  0
LINE
  8
寸法
  6
CONTINUOUS
 10
115.560645
 20
75.83033
 11
127.509232
 21
75.83033
  0
POINT
  8
寸法
 10
115.560645
 20
75.83033
  0
POINT
  8
寸法
 10
127.509232
 20
75.83033
  0
TEXT
  7
TextStyle03
  8
寸法
  6
CONTINUOUS
 10
117.375
 20
76.2
  1
358.5
 40
3.0
 72
     5
 11
125.625
 21
76.2
  0
ENDBLK
  0
ENDSEC
  0
SECTION
  2
ENTITIES
  0
POLYLINE
  8
通り芯
  6
CONTINUOUS
 66
     1
 70
     1
  0
VERTEX
  8
通り芯
 10
-210.0
 20
-148.5
  0
VERTEX
  8
通り芯
 10
210.0
 20
-148.5
  0
VERTEX
  8
通り芯
 10
210.0
 20
148.5
  0
VERTEX
  8
通り芯
 10
-210.0
 20
148.5
  0
SEQEND
  0
INSERT
  2
*GRP_0001
  8
型材断面
  6
CONTINUOUS
 10
0.0
 20
0.0
  0
LINE
  8
型材断面
  6
DASHDOT
 10
-112.48957
 20
75.144522
 11
-112.48957
 21
-74.362823
  0
LINE
  8
型材断面
  6
DASHDOT
 10
-72.48957
 20
75.144522
 11
-72.48957
 21
-74.362823
  0
LINE
  8
型材断面
  6
DASHDOT
 10
-32.48957
 20
75.144522
 11
-32.48957
 21
-74.362823
  0
LINE
  8
型材断面
  6
DASHDOT
 10
-112.48957
 20
48.477855
 11
58.001245
 21
48.477855
  0
LINE
  8
型材断面
  6
DASHDOT
 10
-112.48957
 20
75.144522
 11
58.001245
 21
75.144522
  0
LINE
  8
型材断面
  6
DASHDOT
 10
-112.48957
 20
21.811188
 11
58.001245
 21
21.811188
  0
LINE
  8
型材断面
  6
CONTINUOUS
 10
-87.362512
 20
46.938248
 11
-87.362512
 21
47.875367
  0
LINE
  8
型材断面
  6
CONTINUOUS
 10
-87.362512
 20
46.938248
 11
-86.425393
 21
46.938248
  0
LINE
  8
型材断面
  6
CONTINUOUS
 10
-86.760025
 20
48.477855
 11
-87.362512
 21
47.875367
  0
LINE
  8
型材断面
  6
CONTINUOUS
 10
-87.362512
 20
46.938248
 11
-85.822905
 21
48.477855
  0
LINE
  8
型材断面
  6
CONTINUOUS
 10
-86.425393
 20
46.938248
 11
-86.080795
 21
47.282845
  0
LINE
  8
型材断面
  6
CONTINUOUS
 10
-86.080795
 20
47.282845
 11
-85.822905
 21
48.477855
  0
LINE
  8
型材断面
  6
CONTINUOUS
 10
-87.362512
 20
50.017462
 11
-87.362512
 21
49.080343
  0
LINE
  8
型材断面
  6
CONTINUOUS
 10
-87.362512
 20
50.017462
 11
-86.425393
 21
50.017462
  0
LINE
  8
型材断面
  6
CONTINUOUS
 10
-86.760025
 20
48.477855
 11
-87.362512
 21
49.080343
  0
LINE
  8
型材断面
  6
CONTINUOUS
 10
-87.362512
 20
50.017462
 11
-85.822905
 21
48.477855
  0
LINE
  8
型材断面
  6
CONTINUOUS
 10
-86.425393
 20
50.017462
 11
-86.080795
 21
49.672865
  0
LINE
  8
型材断面
  6
CONTINUOUS
 10
-86.080795
 20
49.672865
 11
-85.822905
 21
48.477855
  0
LINE
  8
型材断面
  6
CONTINUOUS
 10
-57.616627
 20
46.938248
 11
-57.616627
 21
47.875367
  0
LINE
  8
型材断面
  6
CONTINUOUS
 10
-57.616627
 20
46.938248
 11
-58.553748
 21
46.938248
  0
LINE
  8
型材断面
  6
CONTINUOUS
 10
-58.219115
 20
48.477855
 11
-57.616627
 21
47.875367
  0
LINE
  8
型材断面
  6
CONTINUOUS
 10
-57.616627
 20
46.938248
 11
-59.156235
 21
48.477855
  0
LINE
  8
型材断面
  6
CONTINUOUS
 10
-58.553748
 20
46.938248
 11
-58.898345
 21
47.282845
  0
LINE
  8
型材断面
  6
CONTINUOUS
 10
-58.898345
 20
47.282845
 11
-59.156235
 21
48.477855
  0
LINE
  8
型材断面
  6
CONTINUOUS
 10
-57.616627
 20
50.017462
 11
-57.616627
 21
49.080343
  0
LINE
  8
型材断面
  6
CONTINUOUS
 10
-57.616627
 20
50.017462
 11
-58.553748
 21
50.017462
  0
LINE
  8
型材断面
  6
CONTINUOUS
 10
-58.219115
 20
48.477855
 11
-57.616627
 21
49.080343
  0
LINE
  8
型材断面
  6
CONTINUOUS
 10
-57.616627
 20
50.017462
 11
-59.156235
 21
48.477855
  0
LINE
  8
型材断面
  6
CONTINUOUS
 10
-58.553748
 20
50.017462
 11
-58.898345
 21
49.672865
  0
LINE
  8
型材断面
  6
CONTINUOUS
 10
-58.898345
 20
49.672865
 11
-59.156235
 21
48.477855
  0
LINE
  8
型材断面
  6
CONTINUOUS
 10
-84.061975
 20
49.593455
 11
-60.917165
 21
49.593455
  0
LINE
  8
型材断面
  6
CONTINUOUS
 10
-84.061975
 20
47.362255
 11
-60.917165
 21
47.362255
  0
LINE
  8
型材断面
  6
CONTINUOUS
 10
-115.122902
 20
77.777852
 11
-29.856238
 21
77.777852
  0
LINE
  8
型材断面
  6
CONTINUOUS
 10
-29.856238
 20
77.777852
 11
-29.856238
 21
19.177858
  0
LINE
  8
型材断面
  6
CONTINUOUS
 10
-29.856238
 20
19.177858
 11
-115.122902
 21
19.177858
  0
LINE
  8
型材断面
  6
CONTINUOUS
 10
-115.122902
 20
77.777852
 11
-115.122902
 21
19.177858
  0
LINE
  8
型材断面
  6
CONTINUOUS
 10
-85.822905
 20
48.477855
 11
-115.122902
 21
19.177858
  0
LINE
  8
型材断面
  6
CONTINUOUS
 10
-85.822905
 20
48.477855
 11
-115.122902
 21
77.777852
  0
LINE
  8
型材断面
  6
CONTINUOUS
 10
-59.156235
 20
48.477855
 11
-29.856238
 21
77.777852
  0
LINE
  8
型材断面
  6
CONTINUOUS
 10
-59.156235
 20
48.477855
 11
-29.856238
 21
19.177858
  0
LINE
  8
型材断面
  6
CONTINUOUS
 10
55.742627
 20
77.777858
 11
55.70727
 21
77.813213
  0
LINE
  8
型材断面
  6
CONTINUOUS
 10
55.789783
 20
77.777858
 11
58.001245
 21
77.777858
  0
LINE
  8
型材断面
  6
CONTINUOUS
 10
58.001232
 20
76.944522
 11
58.4679
 21
76.944522
  0
LINE
  8
型材断面
  6
CONTINUOUS
 10
55.789783
 20
19.177855
 11
58.001245
 21
19.177855
  0
LINE
  8
型材断面
  6
CONTINUOUS
 10
58.001232
 20
20.011188
 11
58.4679
 21
20.011188
  0
LINE
  8
型材断面
  6
CONTINUOUS
 10
58.4679
 20
20.011188
 11
58.4679
 21
76.944522
  0
LINE
  8
型材断面
  6
CONTINUOUS
 10
58.001245
 20
77.777858
 11
58.001245
 21
19.177855
  0
LINE
  8
型材断面
  6
CONTINUOUS
 10
55.789783
 20
77.777858
 11
55.789783
 21
19.177855
  0
LINE
  8
型材断面
  6
CONTINUOUS
 10
55.742627
 20
77.777858
 11
26.442627
 21
48.477858
  0
LINE
  8
型材断面
  6
CONTINUOUS
 10
55.742627
 20
19.177855
 11
26.442627
 21
48.477858
  0
LINE
  8
型材断面
  6
CONTINUOUS
 10
55.70727
 20
19.1425
 11
26.37192
 21
48.477855
  0
LINE
  8
型材断面
  6
CONTINUOUS
 10
55.70727
 20
77.813213
 11
26.37192
 21
48.477855
  0
LINE
  8
型材断面
  6
CONTINUOUS
 10
27.078747
 20
48.477852
 11
26.135938
 21
48.477852
  0
LINE
  8
型材断面
  6
CONTINUOUS
 10
27.078747
 20
48.477852
 11
26.135938
 21
48.477852
  0
LINE
  8
型材断面
  6
CONTINUOUS
 10
27.635938
 20
46.977852
 11
27.683078
 21
47.024993
  0
LINE
  8
型材断面
  6
CONTINUOUS
 10
27.683078
 20
47.024993
 11
27.683078
 21
47.87352
  0
LINE
  8
型材断面
  6
CONTINUOUS
 10
26.135938
 20
48.477852
 11
27.635938
 21
46.977852
  0
LINE
  8
型材断面
  6
CONTINUOUS
 10
27.078745
 20
48.477852
 11
27.683078
 21
47.87352
  0
LINE
  8
型材断面
  6
CONTINUOUS
 10
27.635938
 20
49.978242
 11
27.683078
 21
49.931103
  0
LINE
  8
型材断面
  6
CONTINUOUS
 10
27.683078
 20
49.931103
 11
27.683078
 21
49.082575
  0
LINE
  8
型材断面
  6
CONTINUOUS
 10
27.078745
 20
48.477852
 11
27.683078
 21
49.082183
  0
LINE
  8
型材断面
  6
CONTINUOUS
 10
26.135938
 20
48.477852
 11
27.636132
 21
49.978047
  0
LINE
  8
型材断面
  6
CONTINUOUS
 10
27.354665
 20
49.578583
 11
27.413655
 21
49.519593
  0
LINE
  8
型材断面
  6
CONTINUOUS
 10
27.354665
 20
49.578583
 11
26.253938
 21
48.477852
  0
LINE
  8
型材断面
  6
CONTINUOUS
 10
27.354665
 20
47.377123
 11
27.413655
 21
47.436112
  0
LINE
  8
型材断面
  6
CONTINUOUS
 10
27.354665
 20
47.377123
 11
26.253938
 21
48.477852
  0
LINE
  8
型材断面
  6
CONTINUOUS
 10
-29.856235
 20
-72.15136
 11
-29.856235
 21
-74.362823
  0
LINE
  8
型材断面
  6
CONTINUOUS
 10
-30.689567
 20
-74.36281
 11
-30.689567
 21
-74.829478
  0
LINE
  8
型材断面
  6
CONTINUOUS
 10
-115.122905
 20
-72.15136
 11
-115.122905
 21
-74.362823
  0
LINE
  8
型材断面
  6
CONTINUOUS
 10
-114.289573
 20
-74.36281
 11
-114.289573
 21
-74.829478
  0
LINE
  8
型材断面
  6
CONTINUOUS
 10
-30.689567
 20
-74.829478
 11
-114.289573
 21
-74.829478
  0
LINE
  8
型材断面
  6
CONTINUOUS
 10
-29.856235
 20
-74.362823
 11
-115.122905
 21
-74.362823
  0
LINE
  8
型材断面
  6
CONTINUOUS
 10
-29.856235
 20
-72.15136
 11
-115.122905
 21
-72.15136
  0
LINE
  8
型材断面
  6
CONTINUOUS
 10
-29.82088
 20
-72.068847
 11
-57.758202
 21
-44.13153
  0
LINE
  8
型材断面
  6
CONTINUOUS
 10
-29.856235
 20
-72.104205
 11
-57.828913
 21
-44.13153
  0
LINE
  8
型材断面
  6
CONTINUOUS
 10
-115.15826
 20
-72.068847
 11
-87.220938
 21
-44.13153
  0
LINE
  8
型材断面
  6
CONTINUOUS
 10
-115.122905
 20
-72.104205
 11
-87.150227
 21
-44.13153
  0
LINE
  8
型材断面
  6
CONTINUOUS
 10
-59.00867
 20
-43.794528
 11
-85.97047
 21
-43.794528
  0
LINE
  8
型材断面
  6
CONTINUOUS
 10
-61.03508
 20
-42.615515
 11
-83.94406
 21
-42.615515
  0
LINE
  8
型材断面
  6
CONTINUOUS
 10
85.45964
 20
0.511435
 11
101.414055
 21
0.511435
  0
LINE
  8
型材断面
  6
CONTINUOUS
 10
84.219728
 20
62.518255
 11
100.174143
 21
62.518255
  0
LINE
  8
ガラス
  6
CONTINUOUS
 10
82.611782
 20
-33.399913
 11
134.42716
 21
-33.399913
  0
LINE
  8
ガラス
  6
CONTINUOUS
 10
134.42716
 20
-33.399913
 11
108.51947
 21
3.239085
  0
LINE
  8
ガラス
  6
CONTINUOUS
 10
82.611782
 20
-33.399913
 11
108.51947
 21
3.239085
  0
LINE
  8
ガラス
  6
CONTINUOUS
 10
127.509232
 20
28.606907
 11
89.018208
 21
28.606907
  0
LINE
  8
ガラス
  6
CONTINUOUS
 10
127.509232
 20
28.606907
 11
127.509232
 21
66.143575
  0
LINE
  8
ガラス
  6
CONTINUOUS
 10
127.509232
 20
66.143575
 11
115.560645
 21
66.143575
  0
LINE
  8
ガラス
  6
CONTINUOUS
 10
89.018208
 20
28.606907
 11
115.560645
 21
66.143575
  0
LINE
  8
ガラス
  6
CONTINUOUS
 10
-99.305055
 20
50.414172
 11
-103.177687
 21
46.541538
  0
LINE
  8
ガラス
  6
CONTINUOUS
 10
-100.185375
 20
48.815815
 11
-101.579332
 21
47.42186
  0
LINE
  8
ガラス
  6
CONTINUOUS
 10
-100.90341
 20
49.533848
 11
-102.297368
 21
48.139895
  0
LINE
  8
ガラス
  6
CONTINUOUS
 10
-40.382967
 20
50.414172
 11
-44.2556
 21
46.541538
  0
LINE
  8
ガラス
  6
CONTINUOUS
 10
-41.263288
 20
48.815815
 11
-42.657245
 21
47.42186
  0
LINE
  8
ガラス
  6
CONTINUOUS
 10
-41.981322
 20
49.533848
 11
-43.37528
 21
48.139895
  0
LINE
  8
ガラス
  6
CONTINUOUS
 10
-82.40439
 20
67.090263
 11
-86.277023
 21
63.217627
  0
LINE
  8
ガラス
  6
CONTINUOUS
 10
-83.28471
 20
65.491905
 11
-84.678668
 21
64.09795
  0
LINE
  8
ガラス
  6
CONTINUOUS
 10
-84.002745
 20
66.209937
 11
-85.396702
 21
64.815985
  0
LINE
  8
ガラス
  6
CONTINUOUS
 10
-82.40439
 20
34.44628
 11
-86.277023
 21
30.573645
  0
LINE
  8
ガラス
  6
CONTINUOUS
 10
-83.28471
 20
32.847922
 11
-84.678668
 21
31.453967
  0
LINE
  8
ガラス
  6
CONTINUOUS
 10
-84.002745
 20
33.565955
 11
-85.396702
 21
32.172003
  0
LINE
  8
ガラス
  6
CONTINUOUS
 10
-59.269315
 20
67.090263
 11
-63.141947
 21
63.217627
  0
LINE
  8
ガラス
  6
CONTINUOUS
 10
-60.149635
 20
65.491905
 11
-61.543592
 21
64.09795
  0
LINE
  8
ガラス
  6
CONTINUOUS
 10
-60.86767
 20
66.209937
 11
-62.261628
 21
64.815985
  0
LINE
  8
ガラス
  6
CONTINUOUS
 10
-59.269315
 20
34.44628
 11
-63.141947
 21
30.573645
  0
LINE
  8
ガラス
  6
CONTINUOUS
 10
-60.149635
 20
32.847922
 11
-61.543592
 21
31.453967
  0
LINE
  8
ガラス
  6
CONTINUOUS
 10
-60.86767
 20
33.565955
 11
-62.261628
 21
32.172003
  0
LINE
  8
ガラス
  6
CONTINUOUS
 10
47.24306
 20
50.414172
 11
43.370428
 21
46.541538
  0
LINE
  8
ガラス
  6
CONTINUOUS
 10
46.36274
 20
48.815815
 11
44.968783
 21
47.42186
  0
LINE
  8
ガラス
  6
CONTINUOUS
 10
45.644705
 20
49.533848
 11
44.250748
 21
48.139895
  0
LINE
  8
ガラス
  6
CONTINUOUS
 10
-82.40439
 20
-57.028495
 11
-86.277023
 21
-60.90113
  0
LINE
  8
ガラス
  6
CONTINUOUS
 10
-83.28471
 20
-58.626853
 11
-84.678668
 21
-60.020807
  0
LINE
  8
ガラス
  6
CONTINUOUS
 10
-84.002745
 20
-57.90882
 11
-85.396702
 21
-59.302772
  0
LINE
  8
ガラス
  6
CONTINUOUS
 10
-59.269315
 20
-57.028495
 11
-63.141947
 21
-60.90113
  0
LINE
  8
ガラス
  6
CONTINUOUS
 10
-60.149635
 20
-58.626853
 11
-61.543592
 21
-60.020807
  0
LINE
  8
ガラス
  6
CONTINUOUS
 10
-60.86767
 20
-57.90882
 11
-62.261628
 21
-59.302772
  0
LINE
  8
ゴム等
  6
CONTINUOUS
 10
-85.873765
 20
49.593455
 11
-85.35135
 21
50.132485
  0
LINE
  8
ゴム等
  6
CONTINUOUS
 10
-85.35135
 20
50.132485
 11
-84.907605
 21
50.530455
  0
LINE
  8
ゴム等
  6
CONTINUOUS
 10
-85.873765
 20
47.362255
 11
-85.35135
 21
46.823225
  0
LINE
  8
ゴム等
  6
CONTINUOUS
 10
-85.35135
 20
46.823225
 11
-84.907605
 21
46.425255
  0
LINE
  8
ゴム等
  6
CONTINUOUS
 10
-86.080795
 20
47.282845
 11
-84.061975
 21
47.282845
  0
LINE
  8
ゴム等
  6
CONTINUOUS
 10
-84.061975
 20
47.282845
 11
-84.061975
 21
48.477855
  0
LINE
  8
ゴム等
  6
CONTINUOUS
 10
-86.080795
 20
49.672865
 11
-84.061975
 21
49.672865
  0
LINE
  8
ゴム等
  6
CONTINUOUS
 10
-84.061975
 20
49.672865
 11
-84.061975
 21
48.477855
  0
LINE
  8
ゴム等
  6
CONTINUOUS
 10
-59.62779
 20
50.132485
 11
-60.071535
 21
50.530455
  0
LINE
  8
ゴム等
  6
CONTINUOUS
 10
-59.62779
 20
46.823225
 11
-60.071535
 21
46.425255
  0
LINE
  8
ゴム等
  6
CONTINUOUS
 10
-58.898345
 20
47.282845
 11
-60.917165
 21
47.282845
  0
LINE
  8
ゴム等
  6
CONTINUOUS
 10
-60.917165
 20
47.282845
 11
-60.917165
 21
48.477855
  0
LINE
  8
ゴム等
  6
CONTINUOUS
 10
-58.898345
 20
49.672865
 11
-60.917165
 21
49.672865
  0
LINE
  8
ゴム等
  6
CONTINUOUS
 10
-60.917165
 20
49.672865
 11
-60.917165
 21
48.477855
  0
LINE
  8
ゴム等
  6
CONTINUOUS
 10
-85.35135
 20
46.823225
 11
-59.62779
 21
46.823225
  0
LINE
  8
ゴム等
  6
CONTINUOUS
 10
-85.35135
 20
50.132485
 11
-59.62779
 21
50.132485
  0
LINE
  8
ゴム等
  6
CONTINUOUS
 10
-59.62779
 20
50.132485
 11
-59.105375
 21
49.593455
  0
LINE
  8
ゴム等
  6
CONTINUOUS
 10
-59.62779
 20
46.823225
 11
-59.105375
 21
47.362255
  0
LINE
  8
ゴム等
  6
CONTINUOUS
 10
-84.907605
 20
46.425255
 11
-73.788465
 21
46.425255
  0
LINE
  8
ゴム等
  6
CONTINUOUS
 10
-71.190675
 20
46.425255
 11
-60.071535
 21
46.425255
  0
LINE
  8
ゴム等
  6
CONTINUOUS
 10
-73.788465
 20
46.425255
 11
-72.922905
 21
46.823225
  0
LINE
  8
ゴム等
  6
CONTINUOUS
 10
-72.056235
 20
46.823225
 11
-71.190675
 21
46.425255
  0
LINE
  8
ゴム等
  6
CONTINUOUS
 10
-73.788465
 20
50.530455
 11
-72.922905
 21
50.132485
  0
LINE
  8
ゴム等
  6
CONTINUOUS
 10
-72.056235
 20
50.132485
 11
-71.190675
 21
50.530455
  0
LINE
  8
ゴム等
  6
CONTINUOUS
 10
-84.907605
 20
50.530455
 11
-73.788465
 21
50.530455
  0
LINE
  8
ゴム等
  6
CONTINUOUS
 10
-71.190675
 20
50.530455
 11
-60.071535
 21
50.530455
  0
LINE
  8
ゴム等
  6
CONTINUOUS
 10
-72.056235
 20
77.039985
 11
-71.190675
 21
76.201265
  0
LINE
  8
ゴム等
  6
CONTINUOUS
 10
-73.788465
 20
76.201265
 11
-72.922905
 21
77.039985
  0
LINE
  8
ゴム等
  6
CONTINUOUS
 10
-72.056235
 20
19.915725
 11
-71.190675
 21
20.754445
  0
LINE
  8
ゴム等
  6
CONTINUOUS
 10
-73.788465
 20
20.754445
 11
-72.922905
 21
19.915725
  0
LINE
  8
ゴム等
  6
CONTINUOUS
 10
-84.907605
 20
50.530455
 11
-110.578415
 21
76.201265
  0
LINE
  8
ゴム等
  6
CONTINUOUS
 10
-73.788465
 20
76.201265
 11
-110.578415
 21
76.201265
  0
LINE
  8
ゴム等
  6
CONTINUOUS
 10
-85.35135
 20
50.132485
 11
-112.258847
 21
77.039985
  0
LINE
  8
ゴム等
  6
CONTINUOUS
 10
-85.873765
 20
49.593455
 11
-113.93312
 21
77.65281
  0
LINE
  8
ゴム等
  6
CONTINUOUS
 10
-88.790805
 20
48.477855
 11
-113.546315
 21
73.233365
  0
LINE
  8
ゴム等
  6
CONTINUOUS
 10
-87.94909
 20
48.477855
 11
-114.385033
 21
74.9138
  0
LINE
  8
ゴム等
  6
CONTINUOUS
 10
-86.887645
 20
48.477855
 11
-114.99786
 21
76.58807
  0
LINE
  8
ゴム等
  6
CONTINUOUS
 10
-113.546315
 20
73.233365
 11
-113.546315
 21
23.722345
  0
LINE
  8
ゴム等
  6
CONTINUOUS
 10
-88.790805
 20
48.477855
 11
-113.546315
 21
23.722345
  0
LINE
  8
ゴム等
  6
CONTINUOUS
 10
-87.94909
 20
48.477855
 11
-114.385033
 21
22.04191
  0
LINE
  8
ゴム等
  6
CONTINUOUS
 10
-114.385033
 20
74.9138
 11
-114.385033
 21
22.04191
  0
LINE
  8
ゴム等
  6
CONTINUOUS
 10
-114.99786
 20
76.58807
 11
-114.99786
 21
20.36764
  0
LINE
  8
ゴム等
  6
CONTINUOUS
 10
-86.887645
 20
48.477855
 11
-114.99786
 21
20.36764
  0
LINE
  8
ゴム等
  6
CONTINUOUS
 10
-85.873765
 20
47.362255
 11
-113.93312
 21
19.3029
  0
LINE
  8
ゴム等
  6
CONTINUOUS
 10
-85.35135
 20
46.823225
 11
-112.258847
 21
19.915725
  0
LINE
  8
ゴム等
  6
CONTINUOUS
 10
-73.788465
 20
20.754445
 11
-110.578415
 21
20.754445
  0
LINE
  8
ゴム等
  6
CONTINUOUS
 10
-84.907605
 20
46.425255
 11
-110.578415
 21
20.754445
  0
LINE
  8
ゴム等
  6
CONTINUOUS
 10
-71.190675
 20
20.754445
 11
-34.400725
 21
20.754445
  0
LINE
  8
ゴム等
  6
CONTINUOUS
 10
-60.071535
 20
46.425255
 11
-34.400725
 21
20.754445
  0
LINE
  8
ゴム等
  6
CONTINUOUS
 10
-59.62779
 20
46.823225
 11
-32.720292
 21
19.915725
  0
LINE
  8
ゴム等
  6
CONTINUOUS
 10
-112.258847
 20
19.915725
 11
-32.720292
 21
19.915725
  0
LINE
  8
ゴム等
  6
CONTINUOUS
 10
-113.93312
 20
19.3029
 11
-31.04602
 21
19.3029
  0
LINE
  8
ゴム等
  6
CONTINUOUS
 10
-59.105375
 20
47.362255
 11
-31.04602
 21
19.3029
  0
LINE
  8
ゴム等
  6
CONTINUOUS
 10
-58.091495
 20
48.477855
 11
-29.98128
 21
20.36764
  0
LINE
  8
ゴム等
  6
CONTINUOUS
 10
-57.03005
 20
48.477855
 11
-30.594107
 21
22.04191
  0
LINE
  8
ゴム等
  6
CONTINUOUS
 10
-56.188335
 20
48.477855
 11
-31.432825
 21
23.722345
  0
LINE
  8
ゴム等
  6
CONTINUOUS
 10
-56.188335
 20
48.477855
 11
-31.432825
 21
73.233365
  0
LINE
  8
ゴム等
  6
CONTINUOUS
 10
-31.432825
 20
23.722345
 11
-31.432825
 21
73.233365
  0
LINE
  8
ゴム等
  6
CONTINUOUS
 10
-57.03005
 20
48.477855
 11
-30.594107
 21
74.9138
  0
LINE
  8
ゴム等
  6
CONTINUOUS
 10
-30.594107
 20
22.04191
 11
-30.594107
 21
74.9138
  0
LINE
  8
ゴム等
  6
CONTINUOUS
 10
-58.091495
 20
48.477855
 11
-29.98128
 21
76.58807
  0
LINE
  8
ゴム等
  6
CONTINUOUS
 10
-29.98128
 20
20.36764
 11
-29.98128
 21
76.58807
  0
LINE
  8
ゴム等
  6
CONTINUOUS
 10
-60.071535
 20
50.530455
 11
-34.400725
 21
76.201265
  0
LINE
  8
ゴム等
  6
CONTINUOUS
 10
-71.190675
 20
76.201265
 11
-34.400725
 21
76.201265
  0
LINE
  8
ゴム等
  6
CONTINUOUS
 10
-112.258847
 20
77.039985
 11
-32.720292
 21
77.039985
  0
LINE
  8
ゴム等
  6
CONTINUOUS
 10
-59.62779
 20
50.132485
 11
-32.720292
 21
77.039985
  0
LINE
  8
ゴム等
  6
CONTINUOUS
 10
-113.93312
 20
77.65281
 11
-31.04602
 21
77.65281
  0
LINE
  8
ゴム等
  6
CONTINUOUS
 10
-59.105375
 20
49.593455
 11
-31.04602
 21
77.65281
  0
LINE
  8
ゴム等
  6
CONTINUOUS
 10
-71.190675
 20
50.530455
 11
-71.190675
 21
76.201265
  0
LINE
  8
ゴム等
  6
CONTINUOUS
 10
-73.788465
 20
50.530455
 11
-73.788465
 21
76.201265
  0
LINE
  8
ゴム等
  6
CONTINUOUS
 10
-72.922905
 20
50.132485
 11
-72.922905
 21
77.039985
  0
LINE
  8
ゴム等
  6
CONTINUOUS
 10
-72.056235
 20
50.132485
 11
-72.056235
 21
77.039985
  0
LINE
  8
ゴム等
  6
CONTINUOUS
 10
-72.922905
 20
46.823225
 11
-72.922905
 21
19.915725
  0
LINE
  8
ゴム等
  6
CONTINUOUS
 10
-72.056235
 20
46.823225
 11
-72.056235
 21
19.915725
  0
LINE
  8
ゴム等
  6
CONTINUOUS
 10
-71.190675
 20
46.425255
 11
-71.190675
 21
20.754445
  0
LINE
  8
ゴム等
  6
CONTINUOUS
 10
-73.788465
 20
46.425255
 11
-73.788465
 21
20.754445
  0
LINE
  8
ゴム等
  6
CONTINUOUS
 10
-29.98128
 20
76.58807
 11
-30.594107
 21
74.9138
  0
LINE
  8
ゴム等
  6
CONTINUOUS
 10
-30.594107
 20
74.9138
 11
-31.432825
 21
73.233365
  0
LINE
  8
ゴム等
  6
CONTINUOUS
 10
-31.04602
 20
77.65281
 11
-32.720292
 21
77.039985
  0
LINE
  8
ゴム等
  6
CONTINUOUS
 10
-32.720292
 20
77.039985
 11
-34.400725
 21
76.201265
  0
LINE
  8
ゴム等
  6
CONTINUOUS
 10
-29.98128
 20
20.36764
 11
-30.594107
 21
22.04191
  0
LINE
  8
ゴム等
  6
CONTINUOUS
 10
-30.594107
 20
22.04191
 11
-31.432825
 21
23.722345
  0
LINE
  8
ゴム等
  6
CONTINUOUS
 10
-31.04602
 20
19.3029
 11
-32.720292
 21
19.915725
  0
LINE
  8
ゴム等
  6
CONTINUOUS
 10
-32.720292
 20
19.915725
 11
-34.400725
 21
20.754445
  0
LINE
  8
ゴム等
  6
CONTINUOUS
 10
-114.99786
 20
76.58807
 11
-114.385033
 21
74.9138
  0
LINE
  8
ゴム等
  6
CONTINUOUS
 10
-114.385033
 20
74.9138
 11
-113.546315
 21
73.233365
  0
LINE
  8
ゴム等
  6
CONTINUOUS
 10
-113.93312
 20
77.65281
 11
-112.258847
 21
77.039985
  0
LINE
  8
ゴム等
  6
CONTINUOUS
 10
-112.258847
 20
77.039985
 11
-110.578415
 21
76.201265
  0
LINE
  8
ゴム等
  6
CONTINUOUS
 10
-114.99786
 20
20.36764
 11
-114.385033
 21
22.04191
  0
LINE
  8
ゴム等
  6
CONTINUOUS
 10
-114.385033
 20
22.04191
 11
-113.546315
 21
23.722345
  0
LINE
  8
ゴム等
  6
CONTINUOUS
 10
-113.93312
 20
19.3029
 11
-112.258847
 21
19.915725
  0
LINE
  8
ゴム等
  6
CONTINUOUS
 10
-112.258847
 20
19.915725
 11
-110.578415
 21
20.754445
  0
LINE
  8
ゴム等
  6
CONTINUOUS
 10
54.633317
 20
73.23504
 11
55.028212
 21
74.913793
  0
LINE
  8
ゴム等
  6
CONTINUOUS
 10
55.028212
 20
74.913793
 11
55.641037
 21
76.588062
  0
LINE
  8
ゴム等
  6
CONTINUOUS
 10
55.641037
 20
20.36765
 11
55.028212
 21
22.04192
  0
LINE
  8
ゴム等
  6
CONTINUOUS
 10
55.028212
 20
22.04192
 11
54.633317
 21
23.720672
  0
LINE
  8
ゴム等
  6
CONTINUOUS
 10
29.876135
 20
48.477855
 11
54.633317
 21
23.720672
  0
LINE
  8
ゴム等
  6
CONTINUOUS
 10
28.59228
 20
48.477855
 11
55.028212
 21
22.04192
  0
LINE
  8
ゴム等
  6
CONTINUOUS
 10
27.530835
 20
48.477855
 11
55.641037
 21
20.36765
  0
LINE
  8
ゴム等
  6
CONTINUOUS
 10
29.876135
 20
48.477855
 11
54.633317
 21
73.23504
  0
LINE
  8
ゴム等
  6
CONTINUOUS
 10
54.633317
 20
23.720672
 11
54.633317
 21
73.23504
  0
LINE
  8
ゴム等
  6
CONTINUOUS
 10
55.028212
 20
22.04192
 11
55.028212
 21
74.913793
  0
LINE
  8
ゴム等
  6
CONTINUOUS
 10
28.59228
 20
48.477855
 11
55.028212
 21
74.913793
  0
LINE
  8
ゴム等
  6
CONTINUOUS
 10
27.530835
 20
48.477855
 11
55.641037
 21
76.588062
  0
LINE
  8
ゴム等
  6
CONTINUOUS
 10
55.641037
 20
20.36765
 11
55.641037
 21
76.588062
  0
LINE
  8
ゴム等
  6
CONTINUOUS
 10
-72.056235
 20
-42.948952
 11
-72.056235
 21
-71.38979
  0
LINE
  8
ゴム等
  6
CONTINUOUS
 10
-72.922905
 20
-42.948952
 11
-72.922905
 21
-71.38979
  0
LINE
  8
ゴム等
  6
CONTINUOUS
 10
-73.788465
 20
-43.787503
 11
-73.788465
 21
-70.994895
  0
LINE
  8
ゴム等
  6
CONTINUOUS
 10
-71.190675
 20
-43.787503
 11
-71.190675
 21
-70.994895
  0
LINE
  8
ゴム等
  6
CONTINUOUS
 10
-73.788465
 20
-70.994895
 11
-72.922905
 21
-71.38979
  0
LINE
  8
ゴム等
  6
CONTINUOUS
 10
-72.056235
 20
-71.38979
 11
-71.190675
 21
-70.994895
  0
LINE
  8
ゴム等
  6
CONTINUOUS
 10
-31.04603
 20
-72.002615
 11
-32.7203
 21
-71.38979
  0
LINE
  8
ゴム等
  6
CONTINUOUS
 10
-32.7203
 20
-71.38979
 11
-34.399053
 21
-70.994895
  0
LINE
  8
ゴム等
  6
CONTINUOUS
 10
-113.93311
 20
-72.002615
 11
-112.25884
 21
-71.38979
  0
LINE
  8
ゴム等
  6
CONTINUOUS
 10
-112.25884
 20
-71.38979
 11
-110.580087
 21
-70.994895
  0
LINE
  8
ゴム等
  6
CONTINUOUS
 10
-73.788465
 20
-70.994895
 11
-110.580087
 21
-70.994895
  0
LINE
  8
ゴム等
  6
CONTINUOUS
 10
-71.190675
 20
-70.994895
 11
-34.399053
 21
-70.994895
  0
LINE
  8
ゴム等
  6
CONTINUOUS
 10
-112.25884
 20
-71.38979
 11
-32.7203
 21
-71.38979
  0
LINE
  8
ゴム等
  6
CONTINUOUS
 10
-113.93311
 20
-72.002615
 11
-31.04603
 21
-72.002615
  0
LINE
  8
ゴム等
  6
CONTINUOUS
 10
-73.788465
 20
-45.320817
 11
-72.922905
 21
-44.482268
  0
LINE
  8
ゴム等
  6
CONTINUOUS
 10
-72.056235
 20
-44.482268
 11
-71.190675
 21
-45.320817
  0
LINE
  8
ゴム等
  6
CONTINUOUS
 10
-59.368412
 20
-42.497665
 11
-61.03508
 21
-42.497665
  0
LINE
  8
ゴム等
  6
CONTINUOUS
 10
-61.03508
 20
-42.497665
 11
-61.03508
 21
-43.739815
  0
LINE
  8
ゴム等
  6
CONTINUOUS
 10
-59.110523
 20
-43.692675
 11
-61.03508
 21
-43.692675
  0
LINE
  8
ゴム等
  6
CONTINUOUS
 10
-61.03508
 20
-43.739815
 11
-59.063382
 21
-43.739815
  0
LINE
  8
ゴム等
  6
CONTINUOUS
 10
-57.734545
 20
-44.13153
 11
-58.671665
 21
-44.13153
  0
LINE
  8
ゴム等
  6
CONTINUOUS
 10
-57.734545
 20
-44.13153
 11
-59.368412
 21
-42.497665
  0
LINE
  8
ゴム等
  6
CONTINUOUS
 10
-58.671665
 20
-44.13153
 11
-59.110523
 21
-43.692675
  0
LINE
  8
ゴム等
  6
CONTINUOUS
 10
-59.25412
 20
-43.794528
 11
-59.627825
 21
-44.482268
  0
LINE
  8
ゴム等
  6
CONTINUOUS
 10
-59.627825
 20
-44.482268
 11
-60.07313
 21
-45.320817
  0
LINE
  8
ゴム等
  6
CONTINUOUS
 10
-31.04603
 20
-72.002615
 11
-59.25412
 21
-43.794528
  0
LINE
  8
ゴム等
  6
CONTINUOUS
 10
-32.7203
 20
-71.38979
 11
-59.627825
 21
-44.482268
  0
LINE
  8
ゴム等
  6
CONTINUOUS
 10
-34.399053
 20
-70.994895
 11
-60.07313
 21
-45.320817
  0
LINE
  8
ゴム等
  6
CONTINUOUS
 10
-71.190675
 20
-45.320817
 11
-60.07313
 21
-45.320817
  0
LINE
  8
ゴム等
  6
CONTINUOUS
 10
-73.788465
 20
-45.320817
 11
-84.90601
 21
-45.320817
  0
LINE
  8
ゴム等
  6
CONTINUOUS
 10
-85.610728
 20
-42.497665
 11
-83.94406
 21
-42.497665
  0
LINE
  8
ゴム等
  6
CONTINUOUS
 10
-83.94406
 20
-42.497665
 11
-83.94406
 21
-43.739815
  0
LINE
  8
ゴム等
  6
CONTINUOUS
 10
-85.868617
 20
-43.692675
 11
-83.94406
 21
-43.692675
  0
LINE
  8
ゴム等
  6
CONTINUOUS
 10
-83.94406
 20
-43.739815
 11
-85.915758
 21
-43.739815
  0
LINE
  8
ゴム等
  6
CONTINUOUS
 10
-87.244595
 20
-44.13153
 11
-86.307475
 21
-44.13153
  0
LINE
  8
ゴム等
  6
CONTINUOUS
 10
-87.244595
 20
-44.13153
 11
-85.610728
 21
-42.497665
  0
LINE
  8
ゴム等
  6
CONTINUOUS
 10
-86.307475
 20
-44.13153
 11
-85.868617
 21
-43.692675
  0
LINE
  8
ゴム等
  6
CONTINUOUS
 10
-85.72502
 20
-43.794528
 11
-85.351315
 21
-44.482268
  0
LINE
  8
ゴム等
  6
CONTINUOUS
 10
-85.351315
 20
-44.482268
 11
-84.90601
 21
-45.320817
  0
LINE
  8
ゴム等
  6
CONTINUOUS
 10
-113.93311
 20
-72.002615
 11
-85.72502
 21
-43.794528
  0
LINE
  8
ゴム等
  6
CONTINUOUS
 10
-112.25884
 20
-71.38979
 11
-85.351315
 21
-44.482268
  0
LINE
  8
ゴム等
  6
CONTINUOUS
 10
-110.580087
 20
-70.994895
 11
-84.90601
 21
-45.320817
  0
LINE
  8
ゴム等
  6
CONTINUOUS
 10
-59.627825
 20
-44.482268
 11
-85.351315
 21
-44.482268
  0
TEXT
  7
TextStyle03
  8
文字
  6
CONTINUOUS
 10
-137.55
 20
96.5
  1
アンカーピッチ
 40
3.0
 72
     5
 11
-114.3
 21
96.5
  0
TEXT
  7
TextStyle03
  8
文字
  6
CONTINUOUS
 10
-136.975
 20
-4.725
  1
アンカーピッチ
 40
3.0
 50
90.0
 72
     5
 11
-136.975
 21
18.525
  0
TEXT
  7
TextStyle03
  8
文字
  6
CONTINUOUS
 10
-21.6
 20
0.175
  1
は排水穴位置を示す
 40
3.0
 72
     5
 11
8.4
 21
0.175
  0
TEXT
  7
TextStyle03
  8
文字
  6
CONTINUOUS
 10
156.3
 20
54.1
  1
×　右２枚
 40
4.0
 72
     5
 11
178.3
 21
54.1
  0
TEXT
  7
TextStyle03
  8
文字
  6
CONTINUOUS
 10
156.3
 20
49.6
  1
×　左２枚
 40
4.0
 72
     5
 11
178.3
 21
49.6
  0
TEXT
  7
TextStyle03
  8
文字
  6
CONTINUOUS
 10
156.3
 20
-8.05
  1
×　２枚
 40
4.0
 72
     5
 11
173.8
 21
-8.05
  0
TEXT
  7
TextStyle03
  8
文字
  6
CONTINUOUS
 10
60.1
 20
120.0
  1
シリーズ：ＤＦＹＫ
 40
5.0
 72
     5
 11
110.1
 21
120.0
  0
TEXT
  7
TextStyle03
  8
文字
  6
CONTINUOUS
 10
60.1
 20
114.375
  1
　　　　　山型四角錘（固定）1600×2400タイプ
 40
5.0
 72
     5
 11
183.225
 21
114.375
  0
TEXT
  7
TextStyle03
  8
文字
  6
CONTINUOUS
 10
60.1
 20
108.75
  1
図面名　：外観姿図
 40
5.0
 72
     5
 11
110.1
 21
108.75
  0
TEXT
  7
TextStyle03
  8
文字
  6
CONTINUOUS
 10
60.1
 20
103.125
  1

 40
5.0
 41
1.125
  0
TEXT
  7
TextStyle03
  8
文字
  6
CONTINUOUS
 10
60.1
 20
97.5
  1
ＮＳコード：ＮＳ４ＹＫ
 40
5.0
 72
     5
 11
121.35
 21
97.5
  0
TEXT
  7
TextStyle03
  8
文字
  6
CONTINUOUS
 10
84.175
 20
63.35
  1
ガラス寸法
 40
3.0
 72
     5
 11
100.675
 21
63.35
  0
TEXT
  7
TextStyle03
  8
文字
  6
CONTINUOUS
 10
85.85
 20
1.35
  1
ガラス寸法
 40
3.0
 72
     5
 11
102.35
 21
1.35
  0
INSERT
  2
*DIM_0002
  8
寸法
  6
CONTINUOUS
 10
0.0
 20
0.0
  0
INSERT
  2
*DIM_0003
  8
寸法
  6
CONTINUOUS
 10
0.0
 20
0.0
  0
LINE
  8
寸法
  6
CONTINUOUS
 10
-47.48957
 20
17.611188
 11
-46.113937
 21
15.228522
  0
LINE
  8
寸法
  6
CONTINUOUS
 10
-47.48957
 20
17.611188
 11
-48.865203
 21
15.228522
  0
LINE
  8
寸法
  6
CONTINUOUS
 10
-48.865203
 20
15.228522
 11
-46.113937
 21
15.228522
  0
LINE
  8
寸法
  6
CONTINUOUS
 10
-97.48957
 20
17.611188
 11
-98.865203
 21
15.228522
  0
LINE
  8
寸法
  6
CONTINUOUS
 10
-97.48957
 20
17.611188
 11
-96.113937
 21
15.228522
  0
LINE
  8
寸法
  6
CONTINUOUS
 10
-96.113937
 20
15.228522
 11
-98.865203
 21
15.228522
  0
INSERT
  2
*DIM_0004
  8
寸法
  6
CONTINUOUS
 10
0.0
 20
0.0
  0
LINE
  8
寸法
  6
CONTINUOUS
 10
-116.689563
 20
48.477855
 11
-119.072228
 21
47.102223
  0
LINE
  8
寸法
  6
CONTINUOUS
 10
-116.689563
 20
48.477855
 11
-119.072228
 21
49.853487
  0
LINE
  8
寸法
  6
CONTINUOUS
 10
-119.072228
 20
49.853487
 11
-119.072228
 21
47.102223
  0
LINE
  8
寸法
  6
CONTINUOUS
 10
-24.65417
 20
2.613172
 11
-23.278538
 21
0.230508
  0
LINE
  8
寸法
  6
CONTINUOUS
 10
-24.65417
 20
2.613172
 11
-26.029803
 21
0.230508
  0
LINE
  8
寸法
  6
CONTINUOUS
 10
-26.029803
 20
0.230508
 11
-23.278538
 21
0.230508
  0
LINE
  8
寸法
  6
CONTINUOUS
 10
-28.003658
 20
-1.421447
 11
10.071655
 21
-1.421447
  0
LINE
  8
寸法
  6
CONTINUOUS
 10
-47.48957
 20
79.344522
 11
-46.113937
 21
81.727188
  0
LINE
  8
寸法
  6
CONTINUOUS
 10
-47.48957
 20
79.344522
 11
-48.865203
 21
81.727188
  0
LINE
  8
寸法
  6
CONTINUOUS
 10
-48.865203
 20
81.727188
 11
-46.113937
 21
81.727188
  0
LINE
  8
寸法
  6
CONTINUOUS
 10
-97.48957
 20
79.344522
 11
-98.865203
 21
81.727188
  0
LINE
  8
寸法
  6
CONTINUOUS
 10
-97.48957
 20
79.344522
 11
-96.113937
 21
81.727188
  0
LINE
  8
寸法
  6
CONTINUOUS
 10
-96.113937
 20
81.727188
 11
-98.865203
 21
81.727188
  0
LINE
  8
寸法
  6
CONTINUOUS
 10
-28.289577
 20
48.477855
 11
-25.906912
 21
47.102223
  0
LINE
  8
寸法
  6
CONTINUOUS
 10
-28.289577
 20
48.477855
 11
-25.906912
 21
49.853487
  0
LINE
  8
寸法
  6
CONTINUOUS
 10
-25.906912
 20
49.853487
 11
-25.906912
 21
47.102223
  0
INSERT
  2
*DIM_0005
  8
寸法
  6
CONTINUOUS
 10
0.0
 20
0.0
  0
INSERT
  2
*DIM_0006
  8
寸法
  6
CONTINUOUS
 10
0.0
 20
0.0
  0
INSERT
  2
*DIM_0007
  8
寸法
  6
CONTINUOUS
 10
0.0
 20
0.0
  0
INSERT
  2
*DIM_0008
  8
寸法
  6
CONTINUOUS
 10
0.0
 20
0.0
  0
INSERT
  2
*DIM_0009
  8
寸法
  6
CONTINUOUS
 10
0.0
 20
0.0
  0
INSERT
  2
*DIM_0010
  8
寸法
  6
CONTINUOUS
 10
0.0
 20
0.0
  0
INSERT
  2
*DIM_0011
  8
寸法
  6
CONTINUOUS
 10
0.0
 20
0.0
  0
INSERT
  2
*DIM_0012
  8
寸法
  6
CONTINUOUS
 10
0.0
 20
0.0
  0
INSERT
  2
*DIM_0013
  8
寸法
  6
CONTINUOUS
 10
0.0
 20
0.0
  0
INSERT
  2
*DIM_0014
  8
寸法
  6
CONTINUOUS
 10
0.0
 20
0.0
  0
INSERT
  2
*DIM_0015
  8
寸法
  6
CONTINUOUS
 10
0.0
 20
0.0
  0
INSERT
  2
*DIM_0016
  8
寸法
  6
CONTINUOUS
 10
0.0
 20
0.0
  0
INSERT
  2
*DIM_0017
  8
寸法
  6
CONTINUOUS
 10
0.0
 20
0.0
  0
INSERT
  2
*DIM_0018
  8
寸法
  6
CONTINUOUS
 10
0.0
 20
0.0
  0
INSERT
  2
*DIM_0019
  8
寸法
  6
CONTINUOUS
 10
0.0
 20
0.0
  0
INSERT
  2
*DIM_0020
  8
寸法
  6
CONTINUOUS
 10
0.0
 20
0.0
  0
INSERT
  2
*DIM_0021
  8
寸法
  6
CONTINUOUS
 10
0.0
 20
0.0
  0
INSERT
  2
*DIM_0022
  8
寸法
  6
CONTINUOUS
 10
0.0
 20
0.0
  0
INSERT
  2
*DIM_0023
  8
寸法
  6
CONTINUOUS
 10
0.0
 20
0.0
  0
INSERT
  2
*DIM_0024
  8
寸法
  6
CONTINUOUS
 10
0.0
 20
0.0
  0
INSERT
  2
*DIM_0025
  8
寸法
  6
CONTINUOUS
 10
0.0
 20
0.0
  0
INSERT
  2
*DIM_0026
  8
寸法
  6
CONTINUOUS
 10
0.0
 20
0.0
  0
ENDSEC
  0
EOF
