  0
SECTION
  2
HEADER
  9
$EXTMIN
 10
-210.0
 20
-148.5
  9
$EXTMAX
 10
210.0
 20
148.5
  9
$PDMODE
 70
    32
  9
$PDSIZE
 40
1.5
  9
$LTSCALE
 40
10.0
  0
ENDSEC
  0
SECTION
  2
TABLES
  0
TABLE
  2
LTYPE
 70
    15
  0
LTYPE
  2
CONTINUOUS
 70
    64
  3
実線
 72
    65
 73
     0
 40
0.0
  0
LTYPE
  2
DASHED
 70
    64
  3
破線A
 72
    65
 73
     2
 40
0.6
 49
0.4
 49
-0.2
  0
LTYPE
  2
DASHEDX2
 70
    64
  3
破線B
 72
    65
 73
     2
 40
1.3
 49
0.9
 49
-0.4
  0
LTYPE
  2
DASHDOT
 70
    64
  3
１点鎖線A
 72
    65
 73
     4
 40
0.5375
 49
0.375
 49
-0.05
 49
0.0625
 49
-0.05
  0
LTYPE
  2
DASHDOTX2
 70
    64
  3
１点鎖線B
 72
    65
 73
     4
 40
1.075
 49
0.75
 49
-0.1
 49
0.125
 49
-0.1
  0
LTYPE
  2
DIVIDE2
 70
    64
  3
２点鎖線A
 72
    65
 73
     6
 40
0.5125
 49
0.3
 49
-0.0375
 49
0.05
 49
-0.0375
 49
0.05
 49
-0.0375
  0
LTYPE
  2
DIVIDE
 70
    64
  3
２点鎖線B
 72
    65
 73
     6
 40
1.05
 49
0.55
 49
-0.1
 49
0.1
 49
-0.1
 49
0.1
 49
-0.1
  0
LTYPE
  2
DOT
 70
    64
  3
点線A
 72
    65
 73
     2
 40
0.1125
 49
0.0625
 49
-0.05
  0
LTYPE
  2
DOTX2
 70
    64
  3
点線B
 72
    65
 73
     2
 40
0.275
 49
0.15
 49
-0.125
  0
LTYPE
  2
CONTINUOUS
 70
    64
  3
実線
 72
    65
 73
     0
 40
0.0
  0
LTYPE
  2
CONTINUOUS
 70
    64
  3
実線
 72
    65
 73
     0
 40
0.0
  0
LTYPE
  2
CONTINUOUS
 70
    64
  3
実線
 72
    65
 73
     0
 40
0.0
  0
LTYPE
  2
CONTINUOUS
 70
    64
  3
実線
 72
    65
 73
     0
 40
0.0
  0
LTYPE
  2
CONTINUOUS
 70
    64
  3
実線
 72
    65
 73
     0
 40
0.0
  0
LTYPE
  2
CONTINUOUS
 70
    64
  3
実線
 72
    65
 73
     0
 40
0.0
  0
ENDTAB
  0
TABLE
  2
LAYER
 70
    34
  0
LAYER
  2
通り芯
 70
     0
 62
    15
  6
CONTINUOUS
  0
LAYER
  2
補助線
 70
     0
 62
    16
  6
DOT
  0
LAYER
  2
躯体
 70
     0
 62
    31
  6
CONTINUOUS
  0
LAYER
  2
型材
 70
     0
 62
    32
  6
CONTINUOUS
  0
LAYER
  2
型材断面
 70
     0
 62
    47
  6
CONTINUOUS
  0
LAYER
  2
ガラス
 70
     0
 62
    48
  6
CONTINUOUS
  0
LAYER
  2
ゴム等
 70
     0
 62
    63
  6
CONTINUOUS
  0
LAYER
  2
ボルト／ビス
 70
     0
 62
    64
  6
CONTINUOUS
  0
LAYER
  2
文字
 70
     0
 62
    79
  6
CONTINUOUS
  0
LAYER
  2
寸法
 70
     0
 62
    80
  6
CONTINUOUS
  0
LAYER
  2
ﾊｯﾁﾝｸﾞ
 70
     0
 62
    95
  6
CONTINUOUS
  0
LAYER
  2
別途部材
 70
     0
 62
    96
  6
CONTINUOUS
  0
LAYER
  2
曲げ物
 70
     0
 62
   111
  6
CONTINUOUS
  0
LAYER
  2
鉄骨等
 70
     0
 62
   112
  6
CONTINUOUS
  0
LAYER
  2
St
 70
     0
 62
   127
  6
CONTINUOUS
  0
LAYER
  2
その他部品等
 70
     0
 62
   128
  6
CONTINUOUS
  0
LAYER
  2
ｶﾞｽｹｯﾄ
 70
     0
 62
   143
  6
CONTINUOUS
  0
LAYER
  2
ｽｹｯﾁ
 70
     0
 62
    14
  6
CONTINUOUS
  0
LAYER
  2
0
 70
     0
 62
    17
  6
CONTINUOUS
  0
LAYER
  2
1
 70
     0
 62
    30
  6
CONTINUOUS
  0
LAYER
  2
4
 70
     0
 62
    33
  6
CONTINUOUS
  0
LAYER
  2
ﾚｲﾔ3
 70
     0
 62
    46
  6
CONTINUOUS
  0
LAYER
  2
外形線
 70
     0
 62
    49
  6
CONTINUOUS
  0
LAYER
  2
部品
 70
     0
 62
    14
  6
CONTINUOUS
  0
LAYER
  2
サッシ芯
 70
     0
 62
    17
  6
DASHDOTX2
  0
LAYER
  2
寸法線
 70
     0
 62
    62
  6
CONTINUOUS
  0
LAYER
  2
姿図外形線
 70
     0
 62
    65
  6
CONTINUOUS
  0
LAYER
  2
姿補助線
 70
     0
 62
    30
  6
CONTINUOUS
  0
LAYER
  2
透視線
 70
     0
 62
    78
  6
DOT
  0
LAYER
  2
用紙
 70
     0
 62
    81
  6
CONTINUOUS
  0
LAYER
  2
実線図枠
 70
     0
 62
    94
  6
CONTINUOUS
  0
LAYER
  2
補助図枠
 70
     0
 62
    97
  6
CONTINUOUS
  0
LAYER
  2
建具記号
 70
     0
 62
   110
  6
CONTINUOUS
  0
LAYER
  2
補助文字
 70
     0
 62
   113
  6
CONTINUOUS
  0
ENDTAB
  0
TABLE
  2
STYLE
 70
    10
  0
STYLE
  2
STANDARD
 70
     0
 40
1.0
 41
1.0
 42
1.0
 50
0.0
 71
     0
  3
TXT
  4
BIGFONT
  0
STYLE
  2
TATE
 70
     4
 40
1.0
 41
1.0
 42
1.0
 50
0.0
 71
     0
  3
TXT
  4
BIGFONT
  0
STYLE
  2
TextStyle03
 70
     0
 40
1.0
 41
1.0
 42
1.0
 50
0.0
 71
     0
  3
MONOTXT
  4
BIGFONT
  0
STYLE
  2
TextStyle04
 70
     0
 40
1.0
 41
1.0
 42
1.0
 50
0.0
 71
     0
  3
MONOTXT
  4
BIGFONT
  0
STYLE
  2
TextStyle05
 70
     0
 40
1.0
 41
1.0
 42
1.0
 50
0.0
 71
     0
  3
MONOTXT
  4
BIGFONT
  0
STYLE
  2
TextStyle06
 70
     0
 40
1.0
 41
1.0
 42
1.0
 50
0.0
 71
     0
  3
MONOTXT
  4
BIGFONT
  0
STYLE
  2
TextStyle07
 70
     0
 40
1.0
 41
1.0
 42
1.0
 50
0.0
 71
     0
  3
MONOTXT
  4
BIGFONT
  0
STYLE
  2
TextStyle08
 70
     0
 40
1.0
 41
1.0
 42
1.0
 50
0.0
 71
     0
  3
MONOTXT
  4
BIGFONT
  0
STYLE
  2
TextStyle09
 70
     0
 40
1.0
 41
1.0
 42
1.0
 50
0.0
 71
     0
  3
MONOTXT
  4
BIGFONT
  0
STYLE
  2
TextStyle10
 70
     0
 40
1.0
 41
1.0
 42
1.0
 50
0.0
 71
     0
  3
MONOTXT
  4
BIGFONT
  0
ENDTAB
  0
ENDSEC
  0
SECTION
  2
BLOCKS
  0
BLOCK
  2
*GRP_0001
 70
    65
 10
0.0
 20
0.0
  0
LINE
  8
型材断面
  6
CONTINUOUS
 10
195.0
 20
133.5
 11
195.0
 21
-133.5
  0
LINE
  8
型材断面
  6
CONTINUOUS
 10
195.0
 20
-133.5
 11
-185.0
 21
-133.5
  0
LINE
  8
型材断面
  6
CONTINUOUS
 10
-185.0
 20
-133.5
 11
-185.0
 21
133.5
  0
LINE
  8
型材断面
  6
CONTINUOUS
 10
195.0
 20
133.5
 11
-185.0
 21
133.5
  0
LINE
  8
型材断面
  6
CONTINUOUS
 10
145.0
 20
-133.5
 11
145.0
 21
-118.5
  0
LINE
  8
型材断面
  6
CONTINUOUS
 10
195.0
 20
-118.5
 11
145.0
 21
-118.5
  0
ENDBLK
  0
BLOCK
  2
*DIM_0002
 70
    65
 10
0.0
 20
0.0
  0
LINE
  8
寸法
  6
BYBLOCK
 62
     0
 10
15.81096
 20
21.811188
 11
15.81096
 21
17.89452
  0
POINT
  8
寸法
 62
     0
 10
15.81096
 20
21.811188
  0
POINT
  8
寸法
 62
     0
 10
15.81096
 20
17.89452
  0
TEXT
  7
TextStyle03
  8
寸法
  6
CONTINUOUS
 62
     0
 10
15.425
 20
7.3
  1
117.5
 40
3.0
 50
90.0
 72
     5
 11
15.425
 21
15.55
  0
ENDBLK
  0
BLOCK
  2
*DIM_0003
 70
    65
 10
0.0
 20
0.0
  0
LINE
  8
寸法
  6
BYBLOCK
 62
     0
 10
58.001245
 20
14.89452
 11
58.001245
 21
-1.533403
  0
LINE
  8
寸法
  6
BYBLOCK
 62
     0
 10
55.867913
 20
14.89452
 11
55.867913
 21
-1.533403
  0
LINE
  8
寸法
  6
BYBLOCK
 62
     0
 10
58.001245
 20
-1.533403
 11
55.867913
 21
-1.533403
  0
POINT
  8
寸法
 62
     0
 10
58.001245
 20
-1.533403
  0
POINT
  8
寸法
 62
     0
 10
55.867913
 20
-1.533403
  0
TEXT
  7
TextStyle03
  8
寸法
  6
CONTINUOUS
 62
     0
 10
58.70625
 20
-1.175
  1
64
 40
3.0
 72
     5
 11
61.89375
 21
-1.175
  0
ENDBLK
  0
BLOCK
  2
*DIM_0004
 70
    65
 10
0.0
 20
0.0
  0
LINE
  8
寸法
  6
BYBLOCK
 62
     0
 10
-112.48957
 20
-24.875757
 11
-116.406238
 21
-24.875757
  0
POINT
  8
寸法
 62
     0
 10
-112.48957
 20
-24.875757
  0
POINT
  8
寸法
 62
     0
 10
-116.406238
 20
-24.875757
  0
TEXT
  7
TextStyle03
  8
寸法
  6
CONTINUOUS
 62
     0
 10
-127.0
 20
-24.525
  1
117.5
 40
3.0
 72
     5
 11
-118.75
 21
-24.525
  0
ENDBLK
  0
BLOCK
  2
*DIM_0005
 70
    65
 10
0.0
 20
0.0
  0
LINE
  8
寸法
  6
BYBLOCK
 62
     0
 10
52.867913
 20
17.89452
 11
10.061135
 21
17.89452
  0
LINE
  8
寸法
  6
BYBLOCK
 62
     0
 10
52.867913
 20
55.727855
 11
10.061135
 21
55.727855
  0
LINE
  8
寸法
  6
BYBLOCK
 62
     0
 10
10.061135
 20
17.89452
 11
10.061135
 21
55.727855
  0
POINT
  8
寸法
 62
     0
 10
10.061135
 20
17.89452
  0
POINT
  8
寸法
 62
     0
 10
10.061135
 20
55.727855
  0
TEXT
  7
TextStyle03
  8
寸法
  6
CONTINUOUS
 62
     0
 10
9.675
 20
33.51875
  1
1135
 40
3.0
 50
90.0
 72
     5
 11
9.675
 21
40.08125
  0
ENDBLK
  0
BLOCK
  2
*DIM_0006
 70
    65
 10
0.0
 20
0.0
  0
LINE
  8
寸法
  6
BYBLOCK
 62
     0
 10
15.81096
 20
21.811188
 11
15.81096
 21
51.811188
  0
POINT
  8
寸法
 62
     0
 10
15.81096
 20
21.811188
  0
POINT
  8
寸法
 62
     0
 10
15.81096
 20
51.811188
  0
TEXT
  7
TextStyle03
  8
寸法
  6
CONTINUOUS
 62
     0
 10
15.425
 20
25.925
  1
呼称寸法＝900
 40
3.0
 50
90.0
 72
     5
 11
15.425
 21
47.675
  0
ENDBLK
  0
BLOCK
  2
*DIM_0007
 70
    65
 10
0.0
 20
0.0
  0
LINE
  8
寸法
  6
BYBLOCK
 62
     0
 10
15.81096
 20
51.811188
 11
15.81096
 21
55.727858
  0
POINT
  8
寸法
 62
     0
 10
15.81096
 20
51.811188
  0
POINT
  8
寸法
 62
     0
 10
15.81096
 20
55.727858
  0
TEXT
  7
TextStyle03
  8
寸法
  6
CONTINUOUS
 62
     0
 10
15.425
 20
58.075
  1
117.5
 40
3.0
 50
90.0
 72
     5
 11
15.425
 21
66.325
  0
ENDBLK
  0
BLOCK
  2
*DIM_0008
 70
    65
 10
0.0
 20
0.0
  0
LINE
  8
寸法
  6
BYBLOCK
 62
     0
 10
36.833515
 20
33.811188
 11
36.833515
 21
-1.533403
  0
LINE
  8
寸法
  6
BYBLOCK
 62
     0
 10
55.867913
 20
-1.533403
 11
36.833515
 21
-1.533403
  0
POINT
  8
寸法
 62
     0
 10
55.867913
 20
-1.533403
  0
POINT
  8
寸法
 62
     0
 10
36.833515
 20
-1.533403
  0
TEXT
  7
TextStyle03
  8
寸法
  6
CONTINUOUS
 62
     0
 10
43.9125
 20
-1.175
  1
571
 40
3.0
 72
     5
 11
48.7875
 21
-1.175
  0
ENDBLK
  0
BLOCK
  2
*DIM_0009
 70
    65
 10
0.0
 20
0.0
  0
LINE
  8
寸法
  6
BYBLOCK
 62
     0
 10
-45.572902
 20
-74.362823
 11
-25.69874
 21
-74.362823
  0
LINE
  8
寸法
  6
BYBLOCK
 62
     0
 10
-45.572902
 20
-72.22949
 11
-25.69874
 21
-72.22949
  0
LINE
  8
寸法
  6
BYBLOCK
 62
     0
 10
-25.69874
 20
-74.362823
 11
-25.69874
 21
-72.22949
  0
POINT
  8
寸法
 62
     0
 10
-25.69874
 20
-74.362823
  0
POINT
  8
寸法
 62
     0
 10
-25.69874
 20
-72.22949
  0
TEXT
  7
TextStyle03
  8
寸法
  6
CONTINUOUS
 62
     0
 10
-26.075
 20
-78.26875
  1
64
 40
3.0
 50
90.0
 72
     5
 11
-26.075
 21
-75.08125
  0
ENDBLK
  0
BLOCK
  2
*DIM_0010
 70
    65
 10
0.0
 20
0.0
  0
LINE
  8
寸法
  6
BYBLOCK
 62
     0
 10
-64.489573
 20
-53.195093
 11
-25.69874
 21
-53.195093
  0
LINE
  8
寸法
  6
BYBLOCK
 62
     0
 10
-25.69874
 20
-72.22949
 11
-25.69874
 21
-53.195093
  0
POINT
  8
寸法
 62
     0
 10
-25.69874
 20
-72.22949
  0
POINT
  8
寸法
 62
     0
 10
-25.69874
 20
-53.195093
  0
TEXT
  7
TextStyle03
  8
寸法
  6
CONTINUOUS
 62
     0
 10
-26.075
 20
-65.1625
  1
571
 40
3.0
 50
90.0
 72
     5
 11
-26.075
 21
-60.2875
  0
ENDBLK
  0
BLOCK
  2
*DIM_0011
 70
    65
 10
0.0
 20
0.0
  0
LINE
  8
寸法
  6
CONTINUOUS
 62
     0
 10
-116.406238
 20
-69.22949
 11
-116.406238
 21
-18.81894
  0
LINE
  8
寸法
  6
CONTINUOUS
 62
     0
 10
-48.572902
 20
-69.22949
 11
-48.572902
 21
-18.81894
  0
LINE
  8
寸法
  6
CONTINUOUS
 62
     0
 10
-116.406238
 20
-18.81894
 11
-48.572902
 21
-18.81894
  0
POINT
  8
寸法
 62
     0
 10
-116.406238
 20
-18.81894
  0
POINT
  8
寸法
 62
     0
 10
-48.572902
 20
-18.81894
  0
TEXT
  7
TextStyle03
  8
寸法
  6
CONTINUOUS
 62
     0
 10
-85.78125
 20
-18.45
  1
2035
 40
3.0
 72
     5
 11
-79.21875
 21
-18.45
  0
ENDBLK
  0
BLOCK
  2
*DIM_0012
 70
    65
 10
0.0
 20
0.0
  0
LINE
  8
寸法
  6
BYBLOCK
 62
     0
 10
-112.48957
 20
-24.875757
 11
-52.48957
 21
-24.875757
  0
POINT
  8
寸法
 62
     0
 10
-112.48957
 20
-24.875757
  0
POINT
  8
寸法
 62
     0
 10
-52.48957
 20
-24.875757
  0
TEXT
  7
TextStyle03
  8
寸法
  6
CONTINUOUS
 62
     0
 10
-94.21875
 20
-24.525
  1
呼称寸法＝1800
 40
3.0
 72
     5
 11
-70.78125
 21
-24.525
  0
ENDBLK
  0
BLOCK
  2
*DIM_0013
 70
    65
 10
0.0
 20
0.0
  0
LINE
  8
寸法
  6
BYBLOCK
 62
     0
 10
-52.48957
 20
-24.875757
 11
-48.572902
 21
-24.875757
  0
POINT
  8
寸法
 62
     0
 10
-52.48957
 20
-24.875757
  0
POINT
  8
寸法
 62
     0
 10
-48.572902
 20
-24.875757
  0
TEXT
  7
TextStyle03
  8
寸法
  6
CONTINUOUS
 62
     0
 10
-46.25
 20
-24.525
  1
117.5
 40
3.0
 72
     5
 11
-38.0
 21
-24.525
  0
ENDBLK
  0
BLOCK
  2
*DIM_0014
 70
    65
 10
0.0
 20
0.0
  0
LINE
  8
寸法
  6
BYBLOCK
 62
     0
 10
106.097765
 20
76.884067
 11
106.097765
 21
81.953182
  0
LINE
  8
寸法
  6
BYBLOCK
 62
     0
 10
135.401245
 20
76.884067
 11
135.401245
 21
81.953182
  0
LINE
  8
寸法
  6
BYBLOCK
 62
     0
 10
106.097765
 20
81.953182
 11
135.401245
 21
81.953182
  0
POINT
  8
寸法
 62
     0
 10
106.097765
 20
81.953182
  0
POINT
  8
寸法
 62
     0
 10
135.401245
 20
81.953182
  0
TEXT
  7
TextStyle03
  8
寸法
  6
CONTINUOUS
 62
     0
 10
116.6
 20
82.325
  1
879.1
 40
3.0
 72
     5
 11
124.85
 21
82.325
  0
ENDBLK
  0
BLOCK
  2
*DIM_0015
 70
    65
 10
0.0
 20
0.0
  0
LINE
  8
寸法
  6
BYBLOCK
 62
     0
 10
89.896398
 20
47.971968
 11
89.896398
 21
42.930723
  0
LINE
  8
寸法
  6
BYBLOCK
 62
     0
 10
151.602613
 20
47.971968
 11
151.602613
 21
42.930723
  0
LINE
  8
寸法
  6
BYBLOCK
 62
     0
 10
89.896398
 20
42.930723
 11
151.602613
 21
42.930723
  0
POINT
  8
寸法
 62
     0
 10
89.896398
 20
42.930723
  0
POINT
  8
寸法
 62
     0
 10
151.602613
 20
42.930723
  0
TEXT
  7
TextStyle03
  8
寸法
  6
CONTINUOUS
 62
     0
 10
115.75625
 20
43.3
  1
1851.2
 40
3.0
 72
     5
 11
125.69375
 21
43.3
  0
ENDBLK
  0
BLOCK
  2
*DIM_0016
 70
    65
 10
0.0
 20
0.0
  0
LINE
  8
寸法
  6
BYBLOCK
 62
     0
 10
86.896398
 20
50.971968
 11
83.59314
 21
50.971968
  0
LINE
  8
寸法
  6
BYBLOCK
 62
     0
 10
103.097765
 20
73.884067
 11
83.59314
 21
73.884067
  0
LINE
  8
寸法
  6
BYBLOCK
 62
     0
 10
83.59314
 20
50.971968
 11
83.59314
 21
73.884067
  0
POINT
  8
寸法
 62
     0
 10
83.59314
 20
50.971968
  0
POINT
  8
寸法
 62
     0
 10
83.59314
 20
73.884067
  0
TEXT
  7
TextStyle03
  8
寸法
  6
CONTINUOUS
 62
     0
 10
83.2
 20
58.3
  1
687.4
 40
3.0
 50
90.0
 72
     5
 11
83.2
 21
66.55
  0
ENDBLK
  0
BLOCK
  2
*DIM_0017
 70
    65
 10
0.0
 20
0.0
  0
LINE
  8
寸法
  6
BYBLOCK
 62
     0
 10
104.89639
 20
-0.588895
 11
104.89639
 21
-4.609713
  0
LINE
  8
寸法
  6
BYBLOCK
 62
     0
 10
136.60262
 20
-0.588895
 11
136.60262
 21
-4.609713
  0
LINE
  8
寸法
  6
BYBLOCK
 62
     0
 10
104.89639
 20
-4.609713
 11
136.60262
 21
-4.609713
  0
POINT
  8
寸法
 62
     0
 10
104.89639
 20
-4.609713
  0
POINT
  8
寸法
 62
     0
 10
136.60262
 20
-4.609713
  0
TEXT
  7
TextStyle03
  8
寸法
  6
CONTINUOUS
 62
     0
 10
116.6
 20
-4.25
  1
951.2
 40
3.0
 72
     5
 11
124.85
 21
-4.25
  0
ENDBLK
  0
BLOCK
  2
*DIM_0018
 70
    65
 10
0.0
 20
0.0
  0
LINE
  8
寸法
  6
BYBLOCK
 62
     0
 10
101.89639
 20
2.411105
 11
88.52703
 21
2.411105
  0
LINE
  8
寸法
  6
BYBLOCK
 62
     0
 10
117.749505
 20
24.830708
 11
88.52703
 21
24.830708
  0
LINE
  8
寸法
  6
BYBLOCK
 62
     0
 10
88.52703
 20
2.411105
 11
88.52703
 21
24.830708
  0
POINT
  8
寸法
 62
     0
 10
88.52703
 20
2.411105
  0
POINT
  8
寸法
 62
     0
 10
88.52703
 20
24.830708
  0
TEXT
  7
TextStyle03
  8
寸法
  6
CONTINUOUS
 62
     0
 10
88.15
 20
9.475
  1
672.6
 40
3.0
 50
90.0
 72
     5
 11
88.15
 21
17.725
  0
ENDBLK
  0
BLOCK
  2
*DIM_0019
 70
    65
 10
0.0
 20
0.0
  0
ARC
  8
寸法
  6
BYBLOCK
 62
     0
 10
89.896398
 20
50.971968
 40
12.135909
 50
0.0
 51
54.735498
  0
POINT
  8
寸法
 62
     0
 10
96.903088
 20
60.880883
  0
POINT
  8
寸法
 62
     0
 10
102.032308
 20
50.971968
  0
TEXT
  7
TextStyle03
  8
寸法
  6
CONTINUOUS
 62
     0
 10
97.945707
 20
62.622225
  1
54.7355
 40
3.0
 50
297.37
 72
     5
 11
103.290125
 21
52.298571
  0
TEXT
  7
TextStyle03
  8
寸法
  6
CONTINUOUS
 62
     0
 10
103.373115
 20
52.12644
  1
ﾟ
 40
3.0
 50
297.37
 41
0.5625
  0
ENDBLK
  0
BLOCK
  2
*DIM_0020
 70
    65
 10
0.0
 20
0.0
  0
ARC
  8
寸法
  6
BYBLOCK
 62
     0
 10
151.602612
 20
50.971968
 40
12.135909
 50
125.264502
 51
180.0
  0
POINT
  8
寸法
 62
     0
 10
144.595923
 20
60.880883
  0
POINT
  8
寸法
 62
     0
 10
139.466703
 20
50.971968
  0
TEXT
  7
TextStyle03
  8
寸法
  6
CONTINUOUS
 62
     0
 10
137.409875
 20
50.798571
  1
54.7355
 40
3.0
 50
62.63
 72
     5
 11
142.754293
 21
61.122225
  0
TEXT
  7
TextStyle03
  8
寸法
  6
CONTINUOUS
 62
     0
 10
142.837283
 20
61.294356
  1
ﾟ
 40
3.0
 50
62.63
 41
0.5625
  0
ENDBLK
  0
BLOCK
  2
*DIM_0021
 70
    65
 10
0.0
 20
0.0
  0
ARC
  8
寸法
  6
BYBLOCK
 62
     0
 10
104.89639
 20
2.411105
 40
6.956737
 50
0.0
 51
54.735503
  0
POINT
  8
寸法
 62
     0
 10
108.912875
 20
8.09125
  0
POINT
  8
寸法
 62
     0
 10
111.853127
 20
2.411105
  0
TEXT
  7
TextStyle03
  8
寸法
  6
CONTINUOUS
 62
     0
 10
108.345707
 20
11.672225
  1
54.7355
 40
3.0
 50
297.37
 72
     5
 11
113.690125
 21
1.348571
  0
TEXT
  7
TextStyle03
  8
寸法
  6
CONTINUOUS
 62
     0
 10
113.773115
 20
1.20144
  1
ﾟ
 40
3.0
 50
297.37
 41
0.5625
  0
ENDBLK
  0
BLOCK
  2
*DIM_0022
 70
    65
 10
0.0
 20
0.0
  0
ARC
  8
寸法
  6
BYBLOCK
 62
     0
 10
136.60262
 20
2.411105
 40
6.956737
 50
125.264497
 51
180.0
  0
POINT
  8
寸法
 62
     0
 10
132.586135
 20
8.09125
  0
POINT
  8
寸法
 62
     0
 10
129.645882
 20
2.411105
  0
TEXT
  7
TextStyle03
  8
寸法
  6
CONTINUOUS
 62
     0
 10
127.009875
 20
-0.126429
  1
54.7355
 40
3.0
 50
62.63
 72
     5
 11
132.354293
 21
10.197225
  0
TEXT
  7
TextStyle03
  8
寸法
  6
CONTINUOUS
 62
     0
 10
132.437283
 20
10.344356
  1
ﾟ
 40
3.0
 50
62.63
 41
0.5625
  0
ENDBLK
  0
BLOCK
  2
*DIM_0023
 70
    65
 10
0.0
 20
0.0
  0
LINE
  8
寸法
  6
BYBLOCK
 62
     0
 10
-107.48957
 20
58.727855
 11
-107.48957
 21
66.052167
  0
LINE
  8
寸法
  6
BYBLOCK
 62
     0
 10
-90.822902
 20
58.727855
 11
-90.822902
 21
66.052167
  0
LINE
  8
寸法
  6
BYBLOCK
 62
     0
 10
-107.48957
 20
66.052167
 11
-90.822902
 21
66.052167
  0
POINT
  8
寸法
 62
     0
 10
-107.48957
 20
66.052167
  0
POINT
  8
寸法
 62
     0
 10
-90.822902
 20
66.052167
  0
TEXT
  7
TextStyle03
  8
寸法
  6
CONTINUOUS
 62
     0
 10
-101.6125
 20
66.425
  1
500
 40
3.0
 72
     5
 11
-96.7375
 21
66.425
  0
ENDBLK
  0
BLOCK
  2
*DIM_0024
 70
    65
 10
0.0
 20
0.0
  0
LINE
  8
寸法
  6
BYBLOCK
 62
     0
 10
-74.156235
 20
58.727855
 11
-74.156235
 21
66.052167
  0
LINE
  8
寸法
  6
BYBLOCK
 62
     0
 10
-90.822902
 20
58.727855
 11
-90.822902
 21
66.052167
  0
LINE
  8
寸法
  6
BYBLOCK
 62
     0
 10
-74.156235
 20
66.052167
 11
-90.822902
 21
66.052167
  0
POINT
  8
寸法
 62
     0
 10
-74.156235
 20
66.052167
  0
POINT
  8
寸法
 62
     0
 10
-90.822902
 20
66.052167
  0
TEXT
  7
TextStyle03
  8
寸法
  6
CONTINUOUS
 62
     0
 10
-84.9375
 20
66.425
  1
500
 40
3.0
 72
     5
 11
-80.0625
 21
66.425
  0
ENDBLK
  0
BLOCK
  2
*DIM_0025
 70
    65
 10
0.0
 20
0.0
  0
LINE
  8
寸法
  6
BYBLOCK
 62
     0
 10
-74.156235
 20
58.727855
 11
-74.156235
 21
66.052167
  0
LINE
  8
寸法
  6
BYBLOCK
 62
     0
 10
-57.489567
 20
58.727855
 11
-57.489567
 21
66.052167
  0
LINE
  8
寸法
  6
BYBLOCK
 62
     0
 10
-74.156235
 20
66.052167
 11
-57.489567
 21
66.052167
  0
POINT
  8
寸法
 62
     0
 10
-74.156235
 20
66.052167
  0
POINT
  8
寸法
 62
     0
 10
-57.489567
 20
66.052167
  0
TEXT
  7
TextStyle03
  8
寸法
  6
CONTINUOUS
 62
     0
 10
-68.2625
 20
66.425
  1
500
 40
3.0
 72
     5
 11
-63.3875
 21
66.425
  0
ENDBLK
  0
BLOCK
  2
*DIM_0026
 70
    65
 10
0.0
 20
0.0
  0
LINE
  8
寸法
  6
BYBLOCK
 62
     0
 10
-119.037147
 20
28.477852
 11
-126.36146
 21
28.477852
  0
LINE
  8
寸法
  6
BYBLOCK
 62
     0
 10
-119.037147
 20
45.14452
 11
-126.36146
 21
45.14452
  0
LINE
  8
寸法
  6
BYBLOCK
 62
     0
 10
-126.36146
 20
28.477852
 11
-126.36146
 21
45.14452
  0
POINT
  8
寸法
 62
     0
 10
-126.36146
 20
28.477852
 50
-90.0
  0
POINT
  8
寸法
 62
     0
 10
-126.36146
 20
45.14452
 50
-90.0
  0
TEXT
  7
TextStyle03
  8
寸法
  6
CONTINUOUS
 62
     0
 10
-126.75
 20
34.3625
  1
500
 40
3.0
 50
90.0
 72
     5
 11
-126.75
 21
39.2375
  0
ENDBLK
  0
ENDSEC
  0
SECTION
  2
ENTITIES
  0
POLYLINE
  8
通り芯
  6
CONTINUOUS
 66
     1
 70
     1
  0
VERTEX
  8
通り芯
 10
-210.0
 20
-148.5
  0
VERTEX
  8
通り芯
 10
210.0
 20
-148.5
  0
VERTEX
  8
通り芯
 10
210.0
 20
148.5
  0
VERTEX
  8
通り芯
 10
-210.0
 20
148.5
  0
SEQEND
  0
INSERT
  2
*GRP_0001
  8
型材断面
  6
CONTINUOUS
 10
0.0
 20
0.0
  0
LINE
  8
型材断面
  6
CONTINUOUS
 62
    47
 10
55.867913
 20
17.89452
 11
58.001245
 21
17.89452
  0
LINE
  8
型材断面
  6
CONTINUOUS
 10
55.867913
 20
17.89452
 11
55.809048
 21
17.835655
  0
LINE
  8
型材断面
  6
CONTINUOUS
 62
    47
 10
58.001245
 20
18.461188
 11
58.517913
 21
18.461188
  0
LINE
  8
型材断面
  6
DASHDOT
 10
-112.48957
 20
21.811188
 11
58.517913
 21
21.811188
  0
LINE
  8
型材断面
  6
CONTINUOUS
 62
    47
 10
-116.406238
 20
-72.22949
 11
-116.406238
 21
-74.362823
  0
LINE
  8
型材断面
  6
CONTINUOUS
 10
-116.406238
 20
-72.22949
 11
-116.465103
 21
-72.170625
  0
LINE
  8
型材断面
  6
CONTINUOUS
 62
    47
 10
-115.83957
 20
-74.362823
 11
-115.83957
 21
-74.87949
  0
LINE
  8
型材断面
  6
DASHDOT
 10
-112.48957
 20
36.811188
 11
58.517913
 21
36.811188
  0
LINE
  8
型材断面
  6
DASHDOT
 10
-112.48957
 20
51.811188
 11
58.517913
 21
51.811188
  0
LINE
  8
型材断面
  6
CONTINUOUS
 10
55.867913
 20
17.89452
 11
55.867913
 21
36.811188
  0
LINE
  8
型材断面
  6
CONTINUOUS
 62
    47
 10
58.001245
 20
17.89452
 11
58.001245
 21
36.811188
  0
LINE
  8
型材断面
  6
CONTINUOUS
 62
    47
 10
58.517913
 20
18.461188
 11
58.517913
 21
36.811188
  0
LINE
  8
型材断面
  6
CONTINUOUS
 10
38.34953
 20
35.271578
 11
38.34953
 21
36.208698
  0
LINE
  8
型材断面
  6
CONTINUOUS
 10
37.747042
 20
36.811188
 11
38.34953
 21
36.208698
  0
LINE
  8
型材断面
  6
CONTINUOUS
 10
38.34953
 20
35.271578
 11
36.809922
 21
36.811188
  0
LINE
  8
型材断面
  6
CONTINUOUS
 10
38.34953
 20
38.350798
 11
38.34953
 21
37.413678
  0
LINE
  8
型材断面
  6
CONTINUOUS
 10
37.747042
 20
36.811188
 11
38.34953
 21
37.413678
  0
LINE
  8
型材断面
  6
CONTINUOUS
 10
38.34953
 20
38.350798
 11
36.809922
 21
36.811188
  0
LINE
  8
型材断面
  6
CONTINUOUS
 10
55.809048
 20
17.835655
 11
36.833515
 21
36.811188
  0
LINE
  8
型材断面
  6
CONTINUOUS
 10
55.867913
 20
18.620478
 11
38.34953
 21
36.138858
  0
LINE
  8
型材断面
  6
CONTINUOUS
 62
    47
 10
55.867913
 20
55.727855
 11
58.001245
 21
55.727855
  0
LINE
  8
型材断面
  6
CONTINUOUS
 10
55.867913
 20
55.727855
 11
55.809048
 21
55.78672
  0
LINE
  8
型材断面
  6
CONTINUOUS
 62
    47
 10
58.001245
 20
55.161188
 11
58.517913
 21
55.161188
  0
LINE
  8
型材断面
  6
CONTINUOUS
 10
55.867913
 20
55.727855
 11
55.867913
 21
36.811188
  0
LINE
  8
型材断面
  6
CONTINUOUS
 62
    47
 10
58.001245
 20
55.727855
 11
58.001245
 21
36.811188
  0
LINE
  8
型材断面
  6
CONTINUOUS
 62
    47
 10
58.517913
 20
55.161188
 11
58.517913
 21
36.811188
  0
LINE
  8
型材断面
  6
CONTINUOUS
 10
55.809048
 20
55.78672
 11
36.833515
 21
36.811188
  0
LINE
  8
型材断面
  6
CONTINUOUS
 10
55.867913
 20
55.001898
 11
38.34953
 21
37.483518
  0
LINE
  8
型材断面
  6
CONTINUOUS
 10
-116.40623
 20
17.89452
 11
-116.40623
 21
36.811188
  0
LINE
  8
型材断面
  6
CONTINUOUS
 10
-113.151673
 20
23.735787
 11
-113.151673
 21
36.811188
  0
LINE
  8
型材断面
  6
CONTINUOUS
 10
-113.198812
 20
23.68865
 11
-113.198812
 21
36.811188
  0
LINE
  8
型材断面
  6
CONTINUOUS
 10
-113.046225
 20
23.841235
 11
-113.046225
 21
36.811188
  0
LINE
  8
型材断面
  6
CONTINUOUS
 10
-112.896225
 20
23.991235
 11
-112.896225
 21
36.811188
  0
LINE
  8
型材断面
  6
CONTINUOUS
 10
-99.02917
 20
35.27158
 11
-99.02917
 21
36.2087
  0
LINE
  8
型材断面
  6
CONTINUOUS
 10
-99.02917
 20
35.27158
 11
-98.09205
 21
35.27158
  0
LINE
  8
型材断面
  6
CONTINUOUS
 10
-98.426682
 20
36.811188
 11
-99.02917
 21
36.2087
  0
LINE
  8
型材断面
  6
CONTINUOUS
 10
-99.02917
 20
35.27158
 11
-97.489563
 21
36.811188
  0
LINE
  8
型材断面
  6
CONTINUOUS
 10
-98.09205
 20
35.27158
 11
-97.747452
 21
35.616178
  0
LINE
  8
型材断面
  6
CONTINUOUS
 10
-97.747452
 20
35.616178
 11
-97.489563
 21
36.811188
  0
LINE
  8
型材断面
  6
CONTINUOUS
 10
-115.615272
 20
17.89452
 11
-98.238213
 21
35.27158
  0
LINE
  8
型材断面
  6
CONTINUOUS
 10
-116.40623
 20
18.68548
 11
-99.02917
 21
36.062537
  0
LINE
  8
型材断面
  6
CONTINUOUS
 10
-116.40623
 20
17.89452
 11
-99.02917
 21
35.27158
  0
LINE
  8
型材断面
  6
DASHDOT
 10
-112.48957
 20
-74.87949
 11
-112.48957
 21
51.811188
  0
LINE
  8
型材断面
  6
CONTINUOUS
 10
-115.68028
 20
-72.22949
 11
-98.161898
 21
-54.711107
  0
LINE
  8
型材断面
  6
CONTINUOUS
 10
-116.465103
 20
-72.170625
 11
-97.489567
 21
-53.195093
  0
LINE
  8
型材断面
  6
DASHDOT
 10
-82.48957
 20
-74.87949
 11
-82.48957
 21
51.811188
  0
LINE
  8
型材断面
  6
DASHDOT
 10
-52.48957
 20
-74.87949
 11
-52.48957
 21
51.811188
  0
LINE
  8
型材断面
  6
CONTINUOUS
 10
-116.40623
 20
17.89452
 11
-82.48957
 21
17.89452
  0
LINE
  8
型材断面
  6
CONTINUOUS
 10
-110.612103
 20
21.10194
 11
-82.48957
 21
21.10194
  0
LINE
  8
型材断面
  6
CONTINUOUS
 10
-110.564963
 20
21.14908
 11
-82.48957
 21
21.14908
  0
LINE
  8
型材断面
  6
CONTINUOUS
 10
-110.459515
 20
21.254525
 11
-82.48957
 21
21.254525
  0
LINE
  8
型材断面
  6
CONTINUOUS
 10
-110.309515
 20
21.404525
 11
-82.48957
 21
21.404525
  0
LINE
  8
型材断面
  6
CONTINUOUS
 10
-95.728633
 20
35.69614
 11
-82.48957
 21
35.69614
  0
LINE
  8
型材断面
  6
CONTINUOUS
 10
-48.57291
 20
17.89452
 11
-48.57291
 21
36.811188
  0
LINE
  8
型材断面
  6
CONTINUOUS
 10
-51.827467
 20
23.735787
 11
-51.827467
 21
36.811188
  0
LINE
  8
型材断面
  6
CONTINUOUS
 10
-51.780328
 20
23.68865
 11
-51.780328
 21
36.811188
  0
LINE
  8
型材断面
  6
CONTINUOUS
 10
-51.932915
 20
23.841235
 11
-51.932915
 21
36.811188
  0
LINE
  8
型材断面
  6
CONTINUOUS
 10
-52.082915
 20
23.991235
 11
-52.082915
 21
36.811188
  0
LINE
  8
型材断面
  6
CONTINUOUS
 10
-65.94997
 20
35.27158
 11
-65.94997
 21
36.2087
  0
LINE
  8
型材断面
  6
CONTINUOUS
 10
-65.94997
 20
35.27158
 11
-66.88709
 21
35.27158
  0
LINE
  8
型材断面
  6
CONTINUOUS
 10
-66.552458
 20
36.811188
 11
-65.94997
 21
36.2087
  0
LINE
  8
型材断面
  6
CONTINUOUS
 10
-65.94997
 20
35.27158
 11
-67.489577
 21
36.811188
  0
LINE
  8
型材断面
  6
CONTINUOUS
 10
-66.88709
 20
35.27158
 11
-67.231688
 21
35.616178
  0
LINE
  8
型材断面
  6
CONTINUOUS
 10
-67.231688
 20
35.616178
 11
-67.489577
 21
36.811188
  0
LINE
  8
型材断面
  6
CONTINUOUS
 10
-49.363868
 20
17.89452
 11
-66.740927
 21
35.27158
  0
LINE
  8
型材断面
  6
CONTINUOUS
 10
-48.57291
 20
18.68548
 11
-65.94997
 21
36.062537
  0
LINE
  8
型材断面
  6
CONTINUOUS
 10
-48.57291
 20
17.89452
 11
-65.94997
 21
35.27158
  0
LINE
  8
型材断面
  6
CONTINUOUS
 10
-48.57291
 20
17.89452
 11
-82.48957
 21
17.89452
  0
LINE
  8
型材断面
  6
CONTINUOUS
 10
-54.367037
 20
21.10194
 11
-82.48957
 21
21.10194
  0
LINE
  8
型材断面
  6
CONTINUOUS
 10
-54.414178
 20
21.14908
 11
-82.48957
 21
21.14908
  0
LINE
  8
型材断面
  6
CONTINUOUS
 10
-54.519625
 20
21.254525
 11
-82.48957
 21
21.254525
  0
LINE
  8
型材断面
  6
CONTINUOUS
 10
-54.669625
 20
21.404525
 11
-82.48957
 21
21.404525
  0
LINE
  8
型材断面
  6
CONTINUOUS
 10
-69.250507
 20
35.69614
 11
-82.48957
 21
35.69614
  0
LINE
  8
型材断面
  6
CONTINUOUS
 10
-48.57291
 20
55.727855
 11
-48.57291
 21
36.811188
  0
LINE
  8
型材断面
  6
CONTINUOUS
 10
-51.827467
 20
49.886587
 11
-51.827467
 21
36.811188
  0
LINE
  8
型材断面
  6
CONTINUOUS
 10
-51.780328
 20
49.933725
 11
-51.780328
 21
36.811188
  0
LINE
  8
型材断面
  6
CONTINUOUS
 10
-51.932915
 20
49.78114
 11
-51.932915
 21
36.811188
  0
LINE
  8
型材断面
  6
CONTINUOUS
 10
-52.082915
 20
49.63114
 11
-52.082915
 21
36.811188
  0
LINE
  8
型材断面
  6
CONTINUOUS
 10
-65.94997
 20
38.350795
 11
-65.94997
 21
37.413675
  0
LINE
  8
型材断面
  6
CONTINUOUS
 10
-65.94997
 20
38.350795
 11
-66.88709
 21
38.350795
  0
LINE
  8
型材断面
  6
CONTINUOUS
 10
-66.552458
 20
36.811188
 11
-65.94997
 21
37.413675
  0
LINE
  8
型材断面
  6
CONTINUOUS
 10
-65.94997
 20
38.350795
 11
-67.489577
 21
36.811188
  0
LINE
  8
型材断面
  6
CONTINUOUS
 10
-66.88709
 20
38.350795
 11
-67.231688
 21
38.006198
  0
LINE
  8
型材断面
  6
CONTINUOUS
 10
-67.231688
 20
38.006198
 11
-67.489577
 21
36.811188
  0
LINE
  8
型材断面
  6
CONTINUOUS
 10
-49.363868
 20
55.727855
 11
-66.740927
 21
38.350795
  0
LINE
  8
型材断面
  6
CONTINUOUS
 10
-48.57291
 20
54.936895
 11
-65.94997
 21
37.559837
  0
LINE
  8
型材断面
  6
CONTINUOUS
 10
-48.57291
 20
55.727855
 11
-65.94997
 21
38.350795
  0
LINE
  8
型材断面
  6
CONTINUOUS
 10
-48.57291
 20
55.727855
 11
-82.48957
 21
55.727855
  0
LINE
  8
型材断面
  6
CONTINUOUS
 10
-54.367037
 20
52.520435
 11
-82.48957
 21
52.520435
  0
LINE
  8
型材断面
  6
CONTINUOUS
 10
-54.414178
 20
52.473295
 11
-82.48957
 21
52.473295
  0
LINE
  8
型材断面
  6
CONTINUOUS
 10
-54.519625
 20
52.36785
 11
-82.48957
 21
52.36785
  0
LINE
  8
型材断面
  6
CONTINUOUS
 10
-54.669625
 20
52.21785
 11
-82.48957
 21
52.21785
  0
LINE
  8
型材断面
  6
CONTINUOUS
 10
-69.250507
 20
37.926235
 11
-82.48957
 21
37.926235
  0
LINE
  8
型材断面
  6
CONTINUOUS
 10
-116.40623
 20
55.727855
 11
-116.40623
 21
36.811188
  0
LINE
  8
型材断面
  6
CONTINUOUS
 10
-113.151673
 20
49.886587
 11
-113.151673
 21
36.811188
  0
LINE
  8
型材断面
  6
CONTINUOUS
 10
-113.198812
 20
49.933725
 11
-113.198812
 21
36.811188
  0
LINE
  8
型材断面
  6
CONTINUOUS
 10
-113.046225
 20
49.78114
 11
-113.046225
 21
36.811188
  0
LINE
  8
型材断面
  6
CONTINUOUS
 10
-112.896225
 20
49.63114
 11
-112.896225
 21
36.811188
  0
LINE
  8
型材断面
  6
CONTINUOUS
 10
-99.02917
 20
38.350795
 11
-99.02917
 21
37.413675
  0
LINE
  8
型材断面
  6
CONTINUOUS
 10
-99.02917
 20
38.350795
 11
-98.09205
 21
38.350795
  0
LINE
  8
型材断面
  6
CONTINUOUS
 10
-98.426682
 20
36.811188
 11
-99.02917
 21
37.413675
  0
LINE
  8
型材断面
  6
CONTINUOUS
 10
-99.02917
 20
38.350795
 11
-97.489563
 21
36.811188
  0
LINE
  8
型材断面
  6
CONTINUOUS
 10
-98.09205
 20
38.350795
 11
-97.747452
 21
38.006198
  0
LINE
  8
型材断面
  6
CONTINUOUS
 10
-97.747452
 20
38.006198
 11
-97.489563
 21
36.811188
  0
LINE
  8
型材断面
  6
CONTINUOUS
 10
-115.615272
 20
55.727855
 11
-98.238213
 21
38.350795
  0
LINE
  8
型材断面
  6
CONTINUOUS
 10
-116.40623
 20
54.936895
 11
-99.02917
 21
37.559837
  0
LINE
  8
型材断面
  6
CONTINUOUS
 10
-116.40623
 20
55.727855
 11
-99.02917
 21
38.350795
  0
LINE
  8
型材断面
  6
CONTINUOUS
 10
-116.40623
 20
55.727855
 11
-82.48957
 21
55.727855
  0
LINE
  8
型材断面
  6
CONTINUOUS
 10
-110.612103
 20
52.520435
 11
-82.48957
 21
52.520435
  0
LINE
  8
型材断面
  6
CONTINUOUS
 10
-110.564963
 20
52.473295
 11
-82.48957
 21
52.473295
  0
LINE
  8
型材断面
  6
CONTINUOUS
 10
-110.459515
 20
52.36785
 11
-82.48957
 21
52.36785
  0
LINE
  8
型材断面
  6
CONTINUOUS
 10
-110.309515
 20
52.21785
 11
-82.48957
 21
52.21785
  0
LINE
  8
型材断面
  6
CONTINUOUS
 10
-95.728633
 20
37.926235
 11
-82.48957
 21
37.926235
  0
LINE
  8
型材断面
  6
CONTINUOUS
 10
-95.728705
 20
-54.311563
 11
-82.48957
 21
-54.311563
  0
LINE
  8
型材断面
  6
CONTINUOUS
 10
-97.489567
 20
-53.195093
 11
-82.48957
 21
-53.195093
  0
LINE
  8
型材断面
  6
CONTINUOUS
 10
-97.755173
 20
-54.374162
 11
-82.48957
 21
-54.374162
  0
LINE
  8
型材断面
  6
CONTINUOUS
 62
    47
 10
-115.83957
 20
-74.87949
 11
-82.48957
 21
-74.87949
  0
LINE
  8
型材断面
  6
CONTINUOUS
 62
    47
 10
-116.406238
 20
-74.362823
 11
-82.48957
 21
-74.362823
  0
LINE
  8
型材断面
  6
CONTINUOUS
 10
-116.406238
 20
-72.22949
 11
-82.48957
 21
-72.22949
  0
LINE
  8
型材断面
  6
CONTINUOUS
 62
    47
 10
-48.572902
 20
-72.22949
 11
-48.572902
 21
-74.362823
  0
LINE
  8
型材断面
  6
CONTINUOUS
 10
-48.572902
 20
-72.22949
 11
-48.514037
 21
-72.170625
  0
LINE
  8
型材断面
  6
CONTINUOUS
 62
    47
 10
-49.13957
 20
-74.362823
 11
-49.13957
 21
-74.87949
  0
LINE
  8
型材断面
  6
CONTINUOUS
 10
-49.29886
 20
-72.22949
 11
-66.817242
 21
-54.711107
  0
LINE
  8
型材断面
  6
CONTINUOUS
 10
-48.514037
 20
-72.170625
 11
-67.489573
 21
-53.195093
  0
LINE
  8
型材断面
  6
CONTINUOUS
 10
-69.250435
 20
-54.311563
 11
-82.48957
 21
-54.311563
  0
LINE
  8
型材断面
  6
CONTINUOUS
 10
-67.489573
 20
-53.195093
 11
-82.48957
 21
-53.195093
  0
LINE
  8
型材断面
  6
CONTINUOUS
 10
-67.223967
 20
-54.374162
 11
-82.48957
 21
-54.374162
  0
LINE
  8
型材断面
  6
CONTINUOUS
 62
    47
 10
-49.13957
 20
-74.87949
 11
-82.48957
 21
-74.87949
  0
LINE
  8
型材断面
  6
CONTINUOUS
 62
    47
 10
-48.572902
 20
-74.362823
 11
-82.48957
 21
-74.362823
  0
LINE
  8
型材断面
  6
CONTINUOUS
 10
-48.572902
 20
-72.22949
 11
-82.48957
 21
-72.22949
  0
LINE
  8
ゴム等
  6
CONTINUOUS
 10
54.76141
 20
21.976718
 11
55.097307
 21
20.669552
  0
LINE
  8
ゴム等
  6
CONTINUOUS
 10
55.097307
 20
20.669552
 11
55.149028
 21
20.430372
  0
LINE
  8
ゴム等
  6
CONTINUOUS
 10
55.149028
 20
20.430372
 11
55.867913
 21
18.620478
  0
LINE
  8
ゴム等
  6
CONTINUOUS
 10
-112.35864
 20
19.3554
 11
-113.631297
 21
18.71504
  0
LINE
  8
ゴム等
  6
CONTINUOUS
 10
-113.631297
 20
18.71504
 11
-113.816783
 21
18.599265
  0
LINE
  8
ゴム等
  6
CONTINUOUS
 10
-113.870467
 20
18.589842
 11
-115.615272
 21
17.89452
  0
LINE
  8
ゴム等
  6
CONTINUOUS
 10
-114.94535
 20
21.94211
 11
-115.585713
 21
20.669455
  0
LINE
  8
ゴム等
  6
CONTINUOUS
 10
-115.585713
 20
20.669455
 11
-115.701485
 21
20.48397
  0
LINE
  8
ゴム等
  6
CONTINUOUS
 10
-115.710908
 20
20.430285
 11
-116.40623
 21
18.68548
  0
LINE
  8
ゴム等
  6
CONTINUOUS
 10
-112.324038
 20
-71.122985
 11
-113.631203
 21
-71.458882
  0
LINE
  8
ゴム等
  6
CONTINUOUS
 10
-113.631203
 20
-71.458882
 11
-113.870385
 21
-71.510603
  0
LINE
  8
ゴム等
  6
CONTINUOUS
 10
-113.870385
 20
-71.510603
 11
-115.68028
 21
-72.22949
  0
LINE
  8
ゴム等
  6
CONTINUOUS
 10
55.097307
 20
20.669552
 11
55.097307
 21
36.811188
  0
LINE
  8
ゴム等
  6
CONTINUOUS
 10
54.76141
 20
21.976718
 11
54.76141
 21
36.811188
  0
LINE
  8
ゴム等
  6
CONTINUOUS
 10
55.149028
 20
20.430372
 11
55.149028
 21
36.811188
  0
LINE
  8
ゴム等
  6
CONTINUOUS
 10
55.097307
 20
20.669552
 11
38.95567
 21
36.811188
  0
LINE
  8
ゴム等
  6
CONTINUOUS
 10
55.149028
 20
20.430372
 11
38.76821
 21
36.811188
  0
LINE
  8
ゴム等
  6
CONTINUOUS
 10
54.76141
 20
21.976718
 11
39.926937
 21
36.811188
  0
LINE
  8
ゴム等
  6
CONTINUOUS
 10
54.76141
 20
51.645658
 11
55.097307
 21
52.952823
  0
LINE
  8
ゴム等
  6
CONTINUOUS
 10
55.097307
 20
52.952823
 11
55.149028
 21
53.192002
  0
LINE
  8
ゴム等
  6
CONTINUOUS
 10
55.149028
 20
53.192002
 11
55.867913
 21
55.001898
  0
LINE
  8
ゴム等
  6
CONTINUOUS
 10
55.097307
 20
52.952823
 11
55.097307
 21
36.811188
  0
LINE
  8
ゴム等
  6
CONTINUOUS
 10
54.76141
 20
51.645658
 11
54.76141
 21
36.811188
  0
LINE
  8
ゴム等
  6
CONTINUOUS
 10
55.149028
 20
53.192002
 11
55.149028
 21
36.811188
  0
LINE
  8
ゴム等
  6
CONTINUOUS
 10
55.097307
 20
52.952823
 11
38.95567
 21
36.811188
  0
LINE
  8
ゴム等
  6
CONTINUOUS
 10
55.149028
 20
53.192002
 11
38.76821
 21
36.811188
  0
LINE
  8
ゴム等
  6
CONTINUOUS
 10
54.76141
 20
51.645658
 11
39.926937
 21
36.811188
  0
LINE
  8
ゴム等
  6
CONTINUOUS
 10
-115.710908
 20
20.430285
 11
-115.710908
 21
36.811188
  0
LINE
  8
ゴム等
  6
CONTINUOUS
 10
-114.94535
 20
21.94211
 11
-114.94535
 21
36.811188
  0
LINE
  8
ゴム等
  6
CONTINUOUS
 10
-115.585713
 20
20.669455
 11
-115.585713
 21
36.811188
  0
LINE
  8
ゴム等
  6
CONTINUOUS
 10
-97.747452
 20
35.616178
 11
-95.728633
 21
35.616178
  0
LINE
  8
ゴム等
  6
CONTINUOUS
 10
-95.728633
 20
35.616178
 11
-95.728633
 21
36.811188
  0
LINE
  8
ゴム等
  6
CONTINUOUS
 10
-114.94535
 20
21.94211
 11
-100.076272
 21
36.811188
  0
LINE
  8
ゴム等
  6
CONTINUOUS
 10
-115.710908
 20
20.430285
 11
-99.330002
 21
36.811188
  0
LINE
  8
ゴム等
  6
CONTINUOUS
 10
-115.585713
 20
20.669455
 11
-99.443977
 21
36.811188
  0
LINE
  8
ゴム等
  6
CONTINUOUS
 10
-112.35864
 20
19.3554
 11
-96.954717
 21
34.759323
  0
LINE
  8
ゴム等
  6
CONTINUOUS
 10
-113.631297
 20
18.71504
 11
-97.252687
 21
35.093648
  0
LINE
  8
ゴム等
  6
CONTINUOUS
 10
-113.870467
 20
18.589842
 11
-97.306345
 21
35.153962
  0
LINE
  8
ゴム等
  6
CONTINUOUS
 10
-97.395373
 20
-53.077243
 11
-95.728705
 21
-53.077243
  0
LINE
  8
ゴム等
  6
CONTINUOUS
 10
-95.728705
 20
-53.077243
 11
-95.728705
 21
-54.319392
  0
LINE
  8
ゴム等
  6
CONTINUOUS
 10
-97.653262
 20
-54.272253
 11
-95.728705
 21
-54.272253
  0
LINE
  8
ゴム等
  6
CONTINUOUS
 10
-95.728705
 20
-54.319392
 11
-97.700403
 21
-54.319392
  0
LINE
  8
ゴム等
  6
CONTINUOUS
 10
-99.02924
 20
-54.711107
 11
-98.09212
 21
-54.711107
  0
LINE
  8
ゴム等
  6
CONTINUOUS
 10
-99.02924
 20
-54.711107
 11
-97.395373
 21
-53.077243
  0
LINE
  8
ゴム等
  6
CONTINUOUS
 10
-98.09212
 20
-54.711107
 11
-97.653262
 21
-54.272253
  0
LINE
  8
ゴム等
  6
CONTINUOUS
 10
-97.43625
 20
-55.076405
 11
-97.35997
 21
-55.187585
  0
LINE
  8
ゴム等
  6
CONTINUOUS
 10
-97.35997
 20
-55.187585
 11
-97.032593
 21
-55.831477
  0
LINE
  8
ゴム等
  6
CONTINUOUS
 10
-97.43625
 20
-55.076405
 11
-97.800127
 21
-54.419117
  0
LINE
  8
ゴム等
  6
CONTINUOUS
 10
-113.870385
 20
-71.510603
 11
-97.436225
 21
-55.076443
  0
LINE
  8
ゴム等
  6
CONTINUOUS
 10
-113.631203
 20
-71.458882
 11
-97.359945
 21
-55.187622
  0
LINE
  8
ゴム等
  6
CONTINUOUS
 10
-112.324038
 20
-71.122985
 11
-97.032572
 21
-55.83152
  0
LINE
  8
ゴム等
  6
CONTINUOUS
 10
-113.631297
 20
18.71504
 11
-82.48957
 21
18.71504
  0
LINE
  8
ゴム等
  6
CONTINUOUS
 10
-113.870467
 20
18.589842
 11
-82.48957
 21
18.589842
  0
LINE
  8
ゴム等
  6
CONTINUOUS
 10
-112.35864
 20
19.3554
 11
-82.48957
 21
19.3554
  0
LINE
  8
ゴム等
  6
CONTINUOUS
 10
-97.252687
 20
35.093648
 11
-82.48957
 21
35.093648
  0
LINE
  8
ゴム等
  6
CONTINUOUS
 10
-97.306345
 20
35.153962
 11
-82.48957
 21
35.153962
  0
LINE
  8
ゴム等
  6
CONTINUOUS
 10
-96.954717
 20
34.759323
 11
-82.48957
 21
34.759323
  0
LINE
  8
ゴム等
  6
CONTINUOUS
 10
-52.6205
 20
19.3554
 11
-51.347843
 21
18.71504
  0
LINE
  8
ゴム等
  6
CONTINUOUS
 10
-51.347843
 20
18.71504
 11
-51.162357
 21
18.599265
  0
LINE
  8
ゴム等
  6
CONTINUOUS
 10
-51.108673
 20
18.589842
 11
-49.363868
 21
17.89452
  0
LINE
  8
ゴム等
  6
CONTINUOUS
 10
-50.03379
 20
21.94211
 11
-49.393427
 21
20.669455
  0
LINE
  8
ゴム等
  6
CONTINUOUS
 10
-49.393427
 20
20.669455
 11
-49.277655
 21
20.48397
  0
LINE
  8
ゴム等
  6
CONTINUOUS
 10
-49.268232
 20
20.430285
 11
-48.57291
 21
18.68548
  0
LINE
  8
ゴム等
  6
CONTINUOUS
 10
-49.268232
 20
20.430285
 11
-49.268232
 21
36.811188
  0
LINE
  8
ゴム等
  6
CONTINUOUS
 10
-50.03379
 20
21.94211
 11
-50.03379
 21
36.811188
  0
LINE
  8
ゴム等
  6
CONTINUOUS
 10
-49.393427
 20
20.669455
 11
-49.393427
 21
36.811188
  0
LINE
  8
ゴム等
  6
CONTINUOUS
 10
-67.231688
 20
35.616178
 11
-69.250507
 21
35.616178
  0
LINE
  8
ゴム等
  6
CONTINUOUS
 10
-69.250507
 20
35.616178
 11
-69.250507
 21
36.811188
  0
LINE
  8
ゴム等
  6
CONTINUOUS
 10
-50.03379
 20
21.94211
 11
-64.902867
 21
36.811188
  0
LINE
  8
ゴム等
  6
CONTINUOUS
 10
-49.268232
 20
20.430285
 11
-65.649137
 21
36.811188
  0
LINE
  8
ゴム等
  6
CONTINUOUS
 10
-49.393427
 20
20.669455
 11
-65.535163
 21
36.811188
  0
LINE
  8
ゴム等
  6
CONTINUOUS
 10
-52.6205
 20
19.3554
 11
-68.024423
 21
34.759323
  0
LINE
  8
ゴム等
  6
CONTINUOUS
 10
-51.347843
 20
18.71504
 11
-67.726452
 21
35.093648
  0
LINE
  8
ゴム等
  6
CONTINUOUS
 10
-51.108673
 20
18.589842
 11
-67.672795
 21
35.153962
  0
LINE
  8
ゴム等
  6
CONTINUOUS
 10
-51.347843
 20
18.71504
 11
-82.48957
 21
18.71504
  0
LINE
  8
ゴム等
  6
CONTINUOUS
 10
-51.108673
 20
18.589842
 11
-82.48957
 21
18.589842
  0
LINE
  8
ゴム等
  6
CONTINUOUS
 10
-52.6205
 20
19.3554
 11
-82.48957
 21
19.3554
  0
LINE
  8
ゴム等
  6
CONTINUOUS
 10
-67.726452
 20
35.093648
 11
-82.48957
 21
35.093648
  0
LINE
  8
ゴム等
  6
CONTINUOUS
 10
-67.672795
 20
35.153962
 11
-82.48957
 21
35.153962
  0
LINE
  8
ゴム等
  6
CONTINUOUS
 10
-68.024423
 20
34.759323
 11
-82.48957
 21
34.759323
  0
LINE
  8
ゴム等
  6
CONTINUOUS
 10
-52.6205
 20
54.266975
 11
-51.347843
 21
54.907335
  0
LINE
  8
ゴム等
  6
CONTINUOUS
 10
-51.347843
 20
54.907335
 11
-51.162357
 21
55.02311
  0
LINE
  8
ゴム等
  6
CONTINUOUS
 10
-51.108673
 20
55.032532
 11
-49.363868
 21
55.727855
  0
LINE
  8
ゴム等
  6
CONTINUOUS
 10
-50.03379
 20
51.680265
 11
-49.393427
 21
52.95292
  0
LINE
  8
ゴム等
  6
CONTINUOUS
 10
-49.393427
 20
52.95292
 11
-49.277655
 21
53.138405
  0
LINE
  8
ゴム等
  6
CONTINUOUS
 10
-49.268232
 20
53.19209
 11
-48.57291
 21
54.936895
  0
LINE
  8
ゴム等
  6
CONTINUOUS
 10
-49.268232
 20
53.19209
 11
-49.268232
 21
36.811188
  0
LINE
  8
ゴム等
  6
CONTINUOUS
 10
-50.03379
 20
51.680265
 11
-50.03379
 21
36.811188
  0
LINE
  8
ゴム等
  6
CONTINUOUS
 10
-49.393427
 20
52.95292
 11
-49.393427
 21
36.811188
  0
LINE
  8
ゴム等
  6
CONTINUOUS
 10
-67.231688
 20
38.006198
 11
-69.250507
 21
38.006198
  0
LINE
  8
ゴム等
  6
CONTINUOUS
 10
-69.250507
 20
38.006198
 11
-69.250507
 21
36.811188
  0
LINE
  8
ゴム等
  6
CONTINUOUS
 10
-50.03379
 20
51.680265
 11
-64.902867
 21
36.811188
  0
LINE
  8
ゴム等
  6
CONTINUOUS
 10
-49.268232
 20
53.19209
 11
-65.649137
 21
36.811188
  0
LINE
  8
ゴム等
  6
CONTINUOUS
 10
-49.393427
 20
52.95292
 11
-65.535163
 21
36.811188
  0
LINE
  8
ゴム等
  6
CONTINUOUS
 10
-52.6205
 20
54.266975
 11
-68.024423
 21
38.863053
  0
LINE
  8
ゴム等
  6
CONTINUOUS
 10
-51.347843
 20
54.907335
 11
-67.726452
 21
38.528728
  0
LINE
  8
ゴム等
  6
CONTINUOUS
 10
-51.108673
 20
55.032532
 11
-67.672795
 21
38.468412
  0
LINE
  8
ゴム等
  6
CONTINUOUS
 10
-51.347843
 20
54.907335
 11
-82.48957
 21
54.907335
  0
LINE
  8
ゴム等
  6
CONTINUOUS
 10
-51.108673
 20
55.032532
 11
-82.48957
 21
55.032532
  0
LINE
  8
ゴム等
  6
CONTINUOUS
 10
-52.6205
 20
54.266975
 11
-82.48957
 21
54.266975
  0
LINE
  8
ゴム等
  6
CONTINUOUS
 10
-67.726452
 20
38.528728
 11
-82.48957
 21
38.528728
  0
LINE
  8
ゴム等
  6
CONTINUOUS
 10
-67.672795
 20
38.468412
 11
-82.48957
 21
38.468412
  0
LINE
  8
ゴム等
  6
CONTINUOUS
 10
-68.024423
 20
38.863053
 11
-82.48957
 21
38.863053
  0
LINE
  8
ゴム等
  6
CONTINUOUS
 10
-112.35864
 20
54.266975
 11
-113.631297
 21
54.907335
  0
LINE
  8
ゴム等
  6
CONTINUOUS
 10
-113.631297
 20
54.907335
 11
-113.816783
 21
55.02311
  0
LINE
  8
ゴム等
  6
CONTINUOUS
 10
-113.870467
 20
55.032532
 11
-115.615272
 21
55.727855
  0
LINE
  8
ゴム等
  6
CONTINUOUS
 10
-114.94535
 20
51.680265
 11
-115.585713
 21
52.95292
  0
LINE
  8
ゴム等
  6
CONTINUOUS
 10
-115.585713
 20
52.95292
 11
-115.701485
 21
53.138405
  0
LINE
  8
ゴム等
  6
CONTINUOUS
 10
-115.710908
 20
53.19209
 11
-116.40623
 21
54.936895
  0
LINE
  8
ゴム等
  6
CONTINUOUS
 10
-115.710908
 20
53.19209
 11
-115.710908
 21
36.811188
  0
LINE
  8
ゴム等
  6
CONTINUOUS
 10
-114.94535
 20
51.680265
 11
-114.94535
 21
36.811188
  0
LINE
  8
ゴム等
  6
CONTINUOUS
 10
-115.585713
 20
52.95292
 11
-115.585713
 21
36.811188
  0
LINE
  8
ゴム等
  6
CONTINUOUS
 10
-97.747452
 20
38.006198
 11
-95.728633
 21
38.006198
  0
LINE
  8
ゴム等
  6
CONTINUOUS
 10
-95.728633
 20
38.006198
 11
-95.728633
 21
36.811188
  0
LINE
  8
ゴム等
  6
CONTINUOUS
 10
-114.94535
 20
51.680265
 11
-100.076272
 21
36.811188
  0
LINE
  8
ゴム等
  6
CONTINUOUS
 10
-115.710908
 20
53.19209
 11
-99.330002
 21
36.811188
  0
LINE
  8
ゴム等
  6
CONTINUOUS
 10
-115.585713
 20
52.95292
 11
-99.443977
 21
36.811188
  0
LINE
  8
ゴム等
  6
CONTINUOUS
 10
-112.35864
 20
54.266975
 11
-96.954717
 21
38.863053
  0
LINE
  8
ゴム等
  6
CONTINUOUS
 10
-113.631297
 20
54.907335
 11
-97.252687
 21
38.528728
  0
LINE
  8
ゴム等
  6
CONTINUOUS
 10
-113.870467
 20
55.032532
 11
-97.306345
 21
38.468412
  0
LINE
  8
ゴム等
  6
CONTINUOUS
 10
-113.631297
 20
54.907335
 11
-82.48957
 21
54.907335
  0
LINE
  8
ゴム等
  6
CONTINUOUS
 10
-113.870467
 20
55.032532
 11
-82.48957
 21
55.032532
  0
LINE
  8
ゴム等
  6
CONTINUOUS
 10
-112.35864
 20
54.266975
 11
-82.48957
 21
54.266975
  0
LINE
  8
ゴム等
  6
CONTINUOUS
 10
-97.252687
 20
38.528728
 11
-82.48957
 21
38.528728
  0
LINE
  8
ゴム等
  6
CONTINUOUS
 10
-97.306345
 20
38.468412
 11
-82.48957
 21
38.468412
  0
LINE
  8
ゴム等
  6
CONTINUOUS
 10
-96.954717
 20
38.863053
 11
-82.48957
 21
38.863053
  0
LINE
  8
ゴム等
  6
CONTINUOUS
 10
-97.032593
 20
-55.831477
 11
-82.48957
 21
-55.831477
  0
LINE
  8
ゴム等
  6
CONTINUOUS
 10
-97.43625
 20
-55.076405
 11
-82.48957
 21
-55.076405
  0
LINE
  8
ゴム等
  6
CONTINUOUS
 10
-97.35997
 20
-55.187585
 11
-82.48957
 21
-55.187585
  0
LINE
  8
ゴム等
  6
CONTINUOUS
 10
-113.631203
 20
-71.458882
 11
-82.48957
 21
-71.458882
  0
LINE
  8
ゴム等
  6
CONTINUOUS
 10
-113.870385
 20
-71.510603
 11
-82.48957
 21
-71.510603
  0
LINE
  8
ゴム等
  6
CONTINUOUS
 10
-112.324038
 20
-71.122985
 11
-82.48957
 21
-71.122985
  0
LINE
  8
ゴム等
  6
CONTINUOUS
 10
-52.655102
 20
-71.122985
 11
-51.347937
 21
-71.458882
  0
LINE
  8
ゴム等
  6
CONTINUOUS
 10
-51.347937
 20
-71.458882
 11
-51.108755
 21
-71.510603
  0
LINE
  8
ゴム等
  6
CONTINUOUS
 10
-51.108755
 20
-71.510603
 11
-49.29886
 21
-72.22949
  0
LINE
  8
ゴム等
  6
CONTINUOUS
 10
-67.583767
 20
-53.077243
 11
-69.250435
 21
-53.077243
  0
LINE
  8
ゴム等
  6
CONTINUOUS
 10
-69.250435
 20
-53.077243
 11
-69.250435
 21
-54.319392
  0
LINE
  8
ゴム等
  6
CONTINUOUS
 10
-67.325878
 20
-54.272253
 11
-69.250435
 21
-54.272253
  0
LINE
  8
ゴム等
  6
CONTINUOUS
 10
-69.250435
 20
-54.319392
 11
-67.278737
 21
-54.319392
  0
LINE
  8
ゴム等
  6
CONTINUOUS
 10
-65.9499
 20
-54.711107
 11
-66.88702
 21
-54.711107
  0
LINE
  8
ゴム等
  6
CONTINUOUS
 10
-65.9499
 20
-54.711107
 11
-67.583767
 21
-53.077243
  0
LINE
  8
ゴム等
  6
CONTINUOUS
 10
-66.88702
 20
-54.711107
 11
-67.325878
 21
-54.272253
  0
LINE
  8
ゴム等
  6
CONTINUOUS
 10
-67.54289
 20
-55.076405
 11
-67.61917
 21
-55.187585
  0
LINE
  8
ゴム等
  6
CONTINUOUS
 10
-67.61917
 20
-55.187585
 11
-67.946547
 21
-55.831477
  0
LINE
  8
ゴム等
  6
CONTINUOUS
 10
-67.54289
 20
-55.076405
 11
-67.179013
 21
-54.419117
  0
LINE
  8
ゴム等
  6
CONTINUOUS
 10
-51.108755
 20
-71.510603
 11
-67.542915
 21
-55.076443
  0
LINE
  8
ゴム等
  6
CONTINUOUS
 10
-51.347937
 20
-71.458882
 11
-67.619195
 21
-55.187622
  0
LINE
  8
ゴム等
  6
CONTINUOUS
 10
-52.655102
 20
-71.122985
 11
-67.946568
 21
-55.83152
  0
LINE
  8
ゴム等
  6
CONTINUOUS
 10
-67.946547
 20
-55.831477
 11
-82.48957
 21
-55.831477
  0
LINE
  8
ゴム等
  6
CONTINUOUS
 10
-67.54289
 20
-55.076405
 11
-82.48957
 21
-55.076405
  0
LINE
  8
ゴム等
  6
CONTINUOUS
 10
-67.61917
 20
-55.187585
 11
-82.48957
 21
-55.187585
  0
LINE
  8
ゴム等
  6
CONTINUOUS
 10
-51.347937
 20
-71.458882
 11
-82.48957
 21
-71.458882
  0
LINE
  8
ゴム等
  6
CONTINUOUS
 10
-51.108755
 20
-71.510603
 11
-82.48957
 21
-71.510603
  0
LINE
  8
ゴム等
  6
CONTINUOUS
 10
-52.655102
 20
-71.122985
 11
-82.48957
 21
-71.122985
  0
TEXT
  7
TextStyle03
  8
文字
  6
CONTINUOUS
 10
-37.8
 20
0.175
  1
は排水穴位置を示す
 40
3.0
 72
     5
 11
-7.8
 21
0.175
  0
TEXT
  7
TextStyle03
  8
文字
  6
CONTINUOUS
 10
155.975
 20
11.2
  1
×　２枚
 40
4.0
 72
     5
 11
173.475
 21
11.2
  0
TEXT
  7
TextStyle03
  8
文字
  6
CONTINUOUS
 10
155.975
 20
59.0
  1
×　２枚
 40
4.0
 72
     5
 11
173.475
 21
59.0
  0
TEXT
  7
TextStyle03
  8
文字
  6
CONTINUOUS
 10
-136.0
 20
64.55
  1
アンカーピッチ
 40
3.0
 72
     5
 11
-112.75
 21
64.55
  0
TEXT
  7
TextStyle03
  8
文字
  6
CONTINUOUS
 10
-124.875
 20
-0.325
  1
アンカーピッチ
 40
3.0
 50
90.0
 72
     5
 11
-124.875
 21
22.925
  0
TEXT
  7
TextStyle03
  8
文字
  6
CONTINUOUS
 10
69.925
 20
118.225
  1
シリーズ：ＤＦＹＫ
 40
5.0
 72
     5
 11
119.925
 21
118.225
  0
TEXT
  7
TextStyle03
  8
文字
  6
CONTINUOUS
 10
69.925
 20
112.6
  1
　　　　　山型四角錘（固定）900×1800タイプ
 40
5.0
 72
     5
 11
190.2375
 21
112.6
  0
TEXT
  7
TextStyle03
  8
文字
  6
CONTINUOUS
 10
69.925
 20
106.975
  1
図面名　：外観姿図
 40
5.0
 72
     5
 11
119.925
 21
106.975
  0
TEXT
  7
TextStyle03
  8
文字
  6
CONTINUOUS
 10
69.925
 20
101.35
  1

 40
5.0
 41
1.125
  0
TEXT
  7
TextStyle03
  8
文字
  6
CONTINUOUS
 10
69.925
 20
95.725
  1
ＮＳコード：ＮＳ４ＹＫ
 40
5.0
 72
     5
 11
131.175
 21
95.725
  0
INSERT
  2
*DIM_0002
  8
寸法
  6
CONTINUOUS
 10
0.0
 20
0.0
  0
INSERT
  2
*DIM_0003
  8
寸法
  6
CONTINUOUS
 10
0.0
 20
0.0
  0
INSERT
  2
*DIM_0004
  8
寸法
  6
CONTINUOUS
 10
0.0
 20
0.0
  0
INSERT
  2
*DIM_0005
  8
寸法
  6
CONTINUOUS
 10
0.0
 20
0.0
  0
INSERT
  2
*DIM_0006
  8
寸法
  6
CONTINUOUS
 10
0.0
 20
0.0
  0
INSERT
  2
*DIM_0007
  8
寸法
  6
CONTINUOUS
 10
0.0
 20
0.0
  0
INSERT
  2
*DIM_0008
  8
寸法
  6
CONTINUOUS
 10
0.0
 20
0.0
  0
INSERT
  2
*DIM_0009
  8
寸法
  6
CONTINUOUS
 10
0.0
 20
0.0
  0
INSERT
  2
*DIM_0010
  8
寸法
  6
CONTINUOUS
 10
0.0
 20
0.0
  0
INSERT
  2
*DIM_0011
  8
寸法
  6
CONTINUOUS
 10
0.0
 20
0.0
  0
INSERT
  2
*DIM_0012
  8
寸法
  6
CONTINUOUS
 10
0.0
 20
0.0
  0
INSERT
  2
*DIM_0013
  8
寸法
  6
CONTINUOUS
 10
0.0
 20
0.0
  0
LINE
  8
寸法
  6
CONTINUOUS
 10
-82.48957
 20
17.89452
 11
-83.865203
 21
15.511855
  0
LINE
  8
寸法
  6
CONTINUOUS
 10
-82.48957
 20
17.89452
 11
-81.113937
 21
15.511855
  0
LINE
  8
寸法
  6
CONTINUOUS
 10
-81.113937
 20
15.511855
 11
-83.865203
 21
15.511855
  0
LINE
  8
寸法
  6
CONTINUOUS
 10
-82.48957
 20
55.727855
 11
-83.865203
 21
58.11052
  0
LINE
  8
寸法
  6
CONTINUOUS
 10
-82.48957
 20
55.727855
 11
-81.113937
 21
58.11052
  0
LINE
  8
寸法
  6
CONTINUOUS
 10
-81.113937
 20
58.11052
 11
-83.865203
 21
58.11052
  0
LINE
  8
寸法
  6
CONTINUOUS
 10
-48.57291
 20
36.811188
 11
-46.190245
 21
35.435555
  0
LINE
  8
寸法
  6
CONTINUOUS
 10
-48.57291
 20
36.811188
 11
-46.190245
 21
38.18682
  0
LINE
  8
寸法
  6
CONTINUOUS
 10
-46.190245
 20
38.18682
 11
-46.190245
 21
35.435555
  0
LINE
  8
寸法
  6
CONTINUOUS
 10
-116.40623
 20
36.811188
 11
-118.788895
 21
35.435555
  0
LINE
  8
寸法
  6
CONTINUOUS
 10
-116.40623
 20
36.811188
 11
-118.788895
 21
38.18682
  0
LINE
  8
寸法
  6
CONTINUOUS
 10
-118.788895
 20
38.18682
 11
-118.788895
 21
35.435555
  0
LINE
  8
寸法
  6
CONTINUOUS
 10
-40.87686
 20
2.613172
 11
-39.501228
 21
0.230508
  0
LINE
  8
寸法
  6
CONTINUOUS
 10
-40.87686
 20
2.613172
 11
-42.252492
 21
0.230508
  0
LINE
  8
寸法
  6
CONTINUOUS
 10
-42.252492
 20
0.230508
 11
-39.501228
 21
0.230508
  0
LINE
  8
寸法
  6
CONTINUOUS
 10
-44.226347
 20
-1.421447
 11
-6.151035
 21
-1.421447
  0
INSERT
  2
*DIM_0014
  8
寸法
  6
CONTINUOUS
 10
0.0
 20
0.0
  0
INSERT
  2
*DIM_0015
  8
寸法
  6
CONTINUOUS
 10
0.0
 20
0.0
  0
INSERT
  2
*DIM_0016
  8
寸法
  6
CONTINUOUS
 10
0.0
 20
0.0
  0
INSERT
  2
*DIM_0017
  8
寸法
  6
CONTINUOUS
 10
0.0
 20
0.0
  0
INSERT
  2
*DIM_0018
  8
寸法
  6
CONTINUOUS
 10
0.0
 20
0.0
  0
INSERT
  2
*DIM_0019
  8
寸法
  6
CONTINUOUS
 10
0.0
 20
0.0
  0
INSERT
  2
*DIM_0020
  8
寸法
  6
CONTINUOUS
 10
0.0
 20
0.0
  0
INSERT
  2
*DIM_0021
  8
寸法
  6
CONTINUOUS
 10
0.0
 20
0.0
  0
INSERT
  2
*DIM_0022
  8
寸法
  6
CONTINUOUS
 10
0.0
 20
0.0
  0
INSERT
  2
*DIM_0023
  8
寸法
  6
CONTINUOUS
 10
0.0
 20
0.0
  0
INSERT
  2
*DIM_0024
  8
寸法
  6
CONTINUOUS
 10
0.0
 20
0.0
  0
INSERT
  2
*DIM_0025
  8
寸法
  6
CONTINUOUS
 10
0.0
 20
0.0
  0
INSERT
  2
*DIM_0026
  8
寸法
  6
CONTINUOUS
 10
0.0
 20
0.0
  0
LINE
  8
曲げ物
  6
CONTINUOUS
 10
89.896398
 20
50.971968
 11
106.097765
 21
73.884067
  0
LINE
  8
曲げ物
  6
CONTINUOUS
 10
135.401245
 20
73.884067
 11
151.602613
 21
50.971968
  0
LINE
  8
曲げ物
  6
CONTINUOUS
 10
89.896398
 20
50.971968
 11
151.602613
 21
50.971968
  0
LINE
  8
曲げ物
  6
CONTINUOUS
 10
106.097765
 20
73.884067
 11
135.401245
 21
73.884067
  0
LINE
  8
曲げ物
  6
CONTINUOUS
 10
104.89639
 20
2.411105
 11
136.60262
 21
2.411105
  0
LINE
  8
曲げ物
  6
CONTINUOUS
 10
104.89639
 20
2.411105
 11
120.749505
 21
24.830708
  0
LINE
  8
曲げ物
  6
CONTINUOUS
 10
136.60262
 20
2.411105
 11
120.749505
 21
24.830708
  0
LINE
  8
曲げ物
  6
CONTINUOUS
 10
116.390645
 20
57.90491
 11
124.251965
 21
65.76623
  0
LINE
  8
曲げ物
  6
CONTINUOUS
 10
122.074532
 20
62.261787
 11
119.895088
 21
60.082343
  0
LINE
  8
曲げ物
  6
CONTINUOUS
 10
120.747523
 20
63.588797
 11
118.568078
 21
61.409353
  0
LINE
  8
曲げ物
  6
CONTINUOUS
 10
116.390645
 20
7.537628
 11
124.251965
 21
15.398948
  0
LINE
  8
曲げ物
  6
CONTINUOUS
 10
122.074532
 20
11.894505
 11
119.895088
 21
9.71506
  0
LINE
  8
曲げ物
  6
CONTINUOUS
 10
120.747523
 20
13.221515
 11
118.568078
 21
11.04207
  0
ENDSEC
  0
EOF
