  0
SECTION
  2
HEADER
  9
$EXTMIN
 10
-210.0
 20
-148.5
  9
$EXTMAX
 10
210.0
 20
148.5
  9
$PDMODE
 70
    32
  9
$PDSIZE
 40
1.5
  9
$LTSCALE
 40
10.0
  0
ENDSEC
  0
SECTION
  2
TABLES
  0
TABLE
  2
LTYPE
 70
    15
  0
LTYPE
  2
CONTINUOUS
 70
    64
  3
実線
 72
    65
 73
     0
 40
0.0
  0
LTYPE
  2
DASHED
 70
    64
  3
破線A
 72
    65
 73
     2
 40
0.6
 49
0.4
 49
-0.2
  0
LTYPE
  2
DASHEDX2
 70
    64
  3
破線B
 72
    65
 73
     2
 40
1.3
 49
0.9
 49
-0.4
  0
LTYPE
  2
DASHDOT
 70
    64
  3
１点鎖線A
 72
    65
 73
     4
 40
0.5375
 49
0.375
 49
-0.05
 49
0.0625
 49
-0.05
  0
LTYPE
  2
DASHDOTX2
 70
    64
  3
１点鎖線B
 72
    65
 73
     4
 40
1.075
 49
0.75
 49
-0.1
 49
0.125
 49
-0.1
  0
LTYPE
  2
DIVIDE2
 70
    64
  3
２点鎖線A
 72
    65
 73
     6
 40
0.5125
 49
0.3
 49
-0.0375
 49
0.05
 49
-0.0375
 49
0.05
 49
-0.0375
  0
LTYPE
  2
DIVIDE
 70
    64
  3
２点鎖線B
 72
    65
 73
     6
 40
1.05
 49
0.55
 49
-0.1
 49
0.1
 49
-0.1
 49
0.1
 49
-0.1
  0
LTYPE
  2
DOT
 70
    64
  3
点線A
 72
    65
 73
     2
 40
0.1125
 49
0.0625
 49
-0.05
  0
LTYPE
  2
DOTX2
 70
    64
  3
点線B
 72
    65
 73
     2
 40
0.275
 49
0.15
 49
-0.125
  0
LTYPE
  2
CONTINUOUS
 70
    64
  3
実線
 72
    65
 73
     0
 40
0.0
  0
LTYPE
  2
CONTINUOUS
 70
    64
  3
実線
 72
    65
 73
     0
 40
0.0
  0
LTYPE
  2
CONTINUOUS
 70
    64
  3
実線
 72
    65
 73
     0
 40
0.0
  0
LTYPE
  2
CONTINUOUS
 70
    64
  3
実線
 72
    65
 73
     0
 40
0.0
  0
LTYPE
  2
CONTINUOUS
 70
    64
  3
実線
 72
    65
 73
     0
 40
0.0
  0
LTYPE
  2
CONTINUOUS
 70
    64
  3
実線
 72
    65
 73
     0
 40
0.0
  0
ENDTAB
  0
TABLE
  2
LAYER
 70
    34
  0
LAYER
  2
通り芯
 70
     0
 62
    15
  6
CONTINUOUS
  0
LAYER
  2
補助線
 70
     0
 62
    16
  6
DOT
  0
LAYER
  2
躯体
 70
     0
 62
    31
  6
CONTINUOUS
  0
LAYER
  2
型材
 70
     0
 62
    32
  6
CONTINUOUS
  0
LAYER
  2
型材断面
 70
     0
 62
    47
  6
CONTINUOUS
  0
LAYER
  2
ガラス
 70
     0
 62
    48
  6
CONTINUOUS
  0
LAYER
  2
ゴム等
 70
     0
 62
    63
  6
CONTINUOUS
  0
LAYER
  2
ボルト／ビス
 70
     0
 62
    64
  6
CONTINUOUS
  0
LAYER
  2
文字
 70
     0
 62
    79
  6
CONTINUOUS
  0
LAYER
  2
寸法
 70
     0
 62
    80
  6
CONTINUOUS
  0
LAYER
  2
ﾊｯﾁﾝｸﾞ
 70
     0
 62
    95
  6
CONTINUOUS
  0
LAYER
  2
別途部材
 70
     0
 62
    96
  6
CONTINUOUS
  0
LAYER
  2
曲げ物
 70
     0
 62
   111
  6
CONTINUOUS
  0
LAYER
  2
鉄骨等
 70
     0
 62
   112
  6
CONTINUOUS
  0
LAYER
  2
St
 70
     0
 62
   127
  6
CONTINUOUS
  0
LAYER
  2
その他部品等
 70
     0
 62
   128
  6
CONTINUOUS
  0
LAYER
  2
ｶﾞｽｹｯﾄ
 70
     0
 62
   143
  6
CONTINUOUS
  0
LAYER
  2
ｽｹｯﾁ
 70
     0
 62
    14
  6
CONTINUOUS
  0
LAYER
  2
0
 70
     0
 62
    17
  6
CONTINUOUS
  0
LAYER
  2
1
 70
     0
 62
    30
  6
CONTINUOUS
  0
LAYER
  2
4
 70
     0
 62
    33
  6
CONTINUOUS
  0
LAYER
  2
ﾚｲﾔ3
 70
     0
 62
    46
  6
CONTINUOUS
  0
LAYER
  2
外形線
 70
     0
 62
    49
  6
CONTINUOUS
  0
LAYER
  2
部品
 70
     0
 62
    14
  6
CONTINUOUS
  0
LAYER
  2
サッシ芯
 70
     0
 62
    17
  6
DASHDOTX2
  0
LAYER
  2
寸法線
 70
     0
 62
    62
  6
CONTINUOUS
  0
LAYER
  2
姿図外形線
 70
     0
 62
    65
  6
CONTINUOUS
  0
LAYER
  2
姿補助線
 70
     0
 62
    30
  6
CONTINUOUS
  0
LAYER
  2
透視線
 70
     0
 62
    78
  6
DOT
  0
LAYER
  2
用紙
 70
     0
 62
    81
  6
CONTINUOUS
  0
LAYER
  2
実線図枠
 70
     0
 62
    94
  6
CONTINUOUS
  0
LAYER
  2
補助図枠
 70
     0
 62
    97
  6
CONTINUOUS
  0
LAYER
  2
建具記号
 70
     0
 62
   110
  6
CONTINUOUS
  0
LAYER
  2
補助文字
 70
     0
 62
   113
  6
CONTINUOUS
  0
ENDTAB
  0
TABLE
  2
STYLE
 70
    10
  0
STYLE
  2
STANDARD
 70
     0
 40
1.0
 41
1.0
 42
1.0
 50
0.0
 71
     0
  3
TXT
  4
BIGFONT
  0
STYLE
  2
TATE
 70
     4
 40
1.0
 41
1.0
 42
1.0
 50
0.0
 71
     0
  3
TXT
  4
BIGFONT
  0
STYLE
  2
TextStyle03
 70
     0
 40
1.0
 41
1.0
 42
1.0
 50
0.0
 71
     0
  3
MONOTXT
  4
BIGFONT
  0
STYLE
  2
TextStyle04
 70
     0
 40
1.0
 41
1.0
 42
1.0
 50
0.0
 71
     0
  3
MONOTXT
  4
BIGFONT
  0
STYLE
  2
TextStyle05
 70
     0
 40
1.0
 41
1.0
 42
1.0
 50
0.0
 71
     0
  3
MONOTXT
  4
BIGFONT
  0
STYLE
  2
TextStyle06
 70
     0
 40
1.0
 41
1.0
 42
1.0
 50
0.0
 71
     0
  3
MONOTXT
  4
BIGFONT
  0
STYLE
  2
TextStyle07
 70
     0
 40
1.0
 41
1.0
 42
1.0
 50
0.0
 71
     0
  3
MONOTXT
  4
BIGFONT
  0
STYLE
  2
TextStyle08
 70
     0
 40
1.0
 41
1.0
 42
1.0
 50
0.0
 71
     0
  3
MONOTXT
  4
BIGFONT
  0
STYLE
  2
TextStyle09
 70
     0
 40
1.0
 41
1.0
 42
1.0
 50
0.0
 71
     0
  3
MONOTXT
  4
BIGFONT
  0
STYLE
  2
TextStyle10
 70
     0
 40
1.0
 41
1.0
 42
1.0
 50
0.0
 71
     0
  3
MONOTXT
  4
BIGFONT
  0
ENDTAB
  0
ENDSEC
  0
SECTION
  2
BLOCKS
  0
BLOCK
  2
*GRP_0001
 70
    65
 10
0.0
 20
0.0
  0
LINE
  8
型材断面
  6
CONTINUOUS
 10
195.0
 20
133.5
 11
195.0
 21
-133.5
  0
LINE
  8
型材断面
  6
CONTINUOUS
 10
195.0
 20
-133.5
 11
-185.0
 21
-133.5
  0
LINE
  8
型材断面
  6
CONTINUOUS
 10
-185.0
 20
-133.5
 11
-185.0
 21
133.5
  0
LINE
  8
型材断面
  6
CONTINUOUS
 10
195.0
 20
133.5
 11
-185.0
 21
133.5
  0
LINE
  8
型材断面
  6
CONTINUOUS
 10
145.0
 20
-133.5
 11
145.0
 21
-118.5
  0
LINE
  8
型材断面
  6
CONTINUOUS
 10
195.0
 20
-118.5
 11
145.0
 21
-118.5
  0
ENDBLK
  0
BLOCK
  2
*DIM_0002
 70
    65
 10
0.0
 20
0.0
  0
LINE
  8
寸法
  6
BYBLOCK
 62
     0
 10
15.81096
 20
21.811188
 11
15.81096
 21
51.811188
  0
POINT
  8
寸法
 62
     0
 10
15.81096
 20
21.811188
  0
POINT
  8
寸法
 62
     0
 10
15.81096
 20
51.811188
  0
TEXT
  7
TextStyle03
  8
寸法
  6
CONTINUOUS
 62
     0
 10
15.425
 20
25.925
  1
呼称寸法＝900
 40
3.0
 50
90.0
 72
     5
 11
15.425
 21
47.675
  0
ENDBLK
  0
BLOCK
  2
*DIM_0003
 70
    65
 10
0.0
 20
0.0
  0
LINE
  8
寸法
  6
BYBLOCK
 62
     0
 10
-112.48957
 20
-24.875757
 11
-52.48957
 21
-24.875757
  0
POINT
  8
寸法
 62
     0
 10
-112.48957
 20
-24.875757
  0
POINT
  8
寸法
 62
     0
 10
-52.48957
 20
-24.875757
  0
TEXT
  7
TextStyle03
  8
寸法
  6
CONTINUOUS
 62
     0
 10
-94.21875
 20
-24.525
  1
呼称寸法＝1800
 40
3.0
 72
     5
 11
-70.78125
 21
-24.525
  0
ENDBLK
  0
BLOCK
  2
*DIM_0004
 70
    65
 10
0.0
 20
0.0
  0
LINE
  8
寸法
  6
BYBLOCK
 62
     0
 10
-107.48957
 20
58.727855
 11
-107.48957
 21
66.052167
  0
LINE
  8
寸法
  6
BYBLOCK
 62
     0
 10
-90.822902
 20
58.727855
 11
-90.822902
 21
66.052167
  0
LINE
  8
寸法
  6
BYBLOCK
 62
     0
 10
-107.48957
 20
66.052167
 11
-90.822902
 21
66.052167
  0
POINT
  8
寸法
 62
     0
 10
-107.48957
 20
66.052167
  0
POINT
  8
寸法
 62
     0
 10
-90.822902
 20
66.052167
  0
TEXT
  7
TextStyle03
  8
寸法
  6
CONTINUOUS
 62
     0
 10
-101.6125
 20
66.425
  1
500
 40
3.0
 72
     5
 11
-96.7375
 21
66.425
  0
ENDBLK
  0
BLOCK
  2
*DIM_0005
 70
    65
 10
0.0
 20
0.0
  0
LINE
  8
寸法
  6
BYBLOCK
 62
     0
 10
-74.156235
 20
58.727855
 11
-74.156235
 21
66.052167
  0
LINE
  8
寸法
  6
BYBLOCK
 62
     0
 10
-90.822902
 20
58.727855
 11
-90.822902
 21
66.052167
  0
LINE
  8
寸法
  6
BYBLOCK
 62
     0
 10
-74.156235
 20
66.052167
 11
-90.822902
 21
66.052167
  0
POINT
  8
寸法
 62
     0
 10
-74.156235
 20
66.052167
  0
POINT
  8
寸法
 62
     0
 10
-90.822902
 20
66.052167
  0
TEXT
  7
TextStyle03
  8
寸法
  6
CONTINUOUS
 62
     0
 10
-84.9375
 20
66.425
  1
500
 40
3.0
 72
     5
 11
-80.0625
 21
66.425
  0
ENDBLK
  0
BLOCK
  2
*DIM_0006
 70
    65
 10
0.0
 20
0.0
  0
LINE
  8
寸法
  6
BYBLOCK
 62
     0
 10
-74.156235
 20
58.727855
 11
-74.156235
 21
66.052167
  0
LINE
  8
寸法
  6
BYBLOCK
 62
     0
 10
-57.489567
 20
58.727855
 11
-57.489567
 21
66.052167
  0
LINE
  8
寸法
  6
BYBLOCK
 62
     0
 10
-74.156235
 20
66.052167
 11
-57.489567
 21
66.052167
  0
POINT
  8
寸法
 62
     0
 10
-74.156235
 20
66.052167
  0
POINT
  8
寸法
 62
     0
 10
-57.489567
 20
66.052167
  0
TEXT
  7
TextStyle03
  8
寸法
  6
CONTINUOUS
 62
     0
 10
-68.2625
 20
66.425
  1
500
 40
3.0
 72
     5
 11
-63.3875
 21
66.425
  0
ENDBLK
  0
BLOCK
  2
*DIM_0007
 70
    65
 10
0.0
 20
0.0
  0
LINE
  8
寸法
  6
BYBLOCK
 62
     0
 10
-119.037147
 20
28.477852
 11
-126.36146
 21
28.477852
  0
LINE
  8
寸法
  6
BYBLOCK
 62
     0
 10
-119.037147
 20
45.14452
 11
-126.36146
 21
45.14452
  0
LINE
  8
寸法
  6
BYBLOCK
 62
     0
 10
-126.36146
 20
28.477852
 11
-126.36146
 21
45.14452
  0
POINT
  8
寸法
 62
     0
 10
-126.36146
 20
28.477852
 50
-90.0
  0
POINT
  8
寸法
 62
     0
 10
-126.36146
 20
45.14452
 50
-90.0
  0
TEXT
  7
TextStyle03
  8
寸法
  6
CONTINUOUS
 62
     0
 10
-126.75
 20
34.3625
  1
500
 40
3.0
 50
90.0
 72
     5
 11
-126.75
 21
39.2375
  0
ENDBLK
  0
BLOCK
  2
*DIM_0008
 70
    65
 10
0.0
 20
0.0
  0
LINE
  8
寸法
  6
CONTINUOUS
 10
-115.122905
 20
-71.15136
 11
-115.122905
 21
-18.81894
  0
LINE
  8
寸法
  6
CONTINUOUS
 10
-49.856235
 20
-71.15136
 11
-49.856235
 21
-18.81894
  0
LINE
  8
寸法
  6
CONTINUOUS
 10
-115.122905
 20
-18.81894
 11
-49.856235
 21
-18.81894
  0
POINT
  8
寸法
 10
-115.122905
 20
-18.81894
  0
POINT
  8
寸法
 10
-49.856235
 20
-18.81894
  0
TEXT
  7
TextStyle03
  8
寸法
  6
CONTINUOUS
 10
-85.78125
 20
-18.45
  1
1958
 40
3.0
 72
     5
 11
-79.21875
 21
-18.45
  0
ENDBLK
  0
BLOCK
  2
*DIM_0009
 70
    65
 10
0.0
 20
0.0
  0
LINE
  8
寸法
  6
CONTINUOUS
 10
-112.48957
 20
-24.875757
 11
-115.122905
 21
-24.875757
  0
POINT
  8
寸法
 10
-112.48957
 20
-24.875757
  0
POINT
  8
寸法
 10
-115.122905
 20
-24.875757
  0
TEXT
  7
TextStyle03
  8
寸法
  6
CONTINUOUS
 10
-118.79375
 20
-24.525
  1
79
 40
3.0
 72
     5
 11
-115.60625
 21
-24.525
  0
ENDBLK
  0
BLOCK
  2
*DIM_0010
 70
    65
 10
0.0
 20
0.0
  0
LINE
  8
寸法
  6
CONTINUOUS
 10
-52.48957
 20
-24.875757
 11
-49.856235
 21
-24.875757
  0
POINT
  8
寸法
 10
-52.48957
 20
-24.875757
  0
POINT
  8
寸法
 10
-49.856235
 20
-24.875757
  0
TEXT
  7
TextStyle03
  8
寸法
  6
CONTINUOUS
 10
-49.39375
 20
-24.525
  1
79
 40
3.0
 72
     5
 11
-46.20625
 21
-24.525
  0
ENDBLK
  0
BLOCK
  2
*DIM_0011
 70
    65
 10
0.0
 20
0.0
  0
LINE
  8
寸法
  6
CONTINUOUS
 10
-48.856235
 20
-74.362823
 11
-25.69874
 21
-74.362823
  0
LINE
  8
寸法
  6
CONTINUOUS
 10
-48.856235
 20
-72.15136
 11
-25.69874
 21
-72.15136
  0
LINE
  8
寸法
  6
CONTINUOUS
 10
-25.69874
 20
-74.362823
 11
-25.69874
 21
-72.15136
  0
POINT
  8
寸法
 10
-25.69874
 20
-74.362823
  0
POINT
  8
寸法
 10
-25.69874
 20
-72.15136
  0
TEXT
  7
TextStyle03
  8
寸法
  6
CONTINUOUS
 10
-22.7
 20
-76.55625
  1
66.3
 40
3.0
 50
90.0
 72
     5
 11
-22.7
 21
-69.99375
  0
ENDBLK
  0
BLOCK
  2
*DIM_0012
 70
    65
 10
0.0
 20
0.0
  0
LINE
  8
寸法
  6
CONTINUOUS
 10
-68.368412
 20
-54.282182
 11
-25.69874
 21
-54.282182
  0
LINE
  8
寸法
  6
CONTINUOUS
 10
-25.69874
 20
-72.15136
 11
-25.69874
 21
-54.282182
  0
POINT
  8
寸法
 10
-25.69874
 20
-54.282182
  0
TEXT
  7
TextStyle03
  8
寸法
  6
CONTINUOUS
 10
-26.075
 20
-67.35
  1
536.1
 40
3.0
 50
90.0
 72
     5
 11
-26.075
 21
-59.1
  0
ENDBLK
  0
BLOCK
  2
*DIM_0013
 70
    65
 10
0.0
 20
0.0
  0
LINE
  8
寸法
  6
CONTINUOUS
 10
54.789783
 20
54.444522
 11
10.044338
 21
54.444522
  0
LINE
  8
寸法
  6
CONTINUOUS
 10
54.789783
 20
19.177855
 11
10.044338
 21
19.177855
  0
LINE
  8
寸法
  6
CONTINUOUS
 10
10.044338
 20
54.444522
 11
10.044338
 21
19.177855
  0
POINT
  8
寸法
 10
10.044338
 20
54.444522
  0
POINT
  8
寸法
 10
10.044338
 20
19.177855
  0
TEXT
  7
TextStyle03
  8
寸法
  6
CONTINUOUS
 10
9.65
 20
33.51875
  1
1058
 40
3.0
 50
90.0
 72
     5
 11
9.65
 21
40.08125
  0
ENDBLK
  0
BLOCK
  2
*DIM_0014
 70
    65
 10
0.0
 20
0.0
  0
LINE
  8
寸法
  6
CONTINUOUS
 10
15.81096
 20
51.811188
 11
15.81096
 21
54.444522
  0
POINT
  8
寸法
 10
15.81096
 20
51.811188
  0
POINT
  8
寸法
 10
15.81096
 20
54.444522
  0
TEXT
  7
TextStyle03
  8
寸法
  6
CONTINUOUS
 10
15.425
 20
54.90625
  1
79
 40
3.0
 50
90.0
 72
     5
 11
15.425
 21
58.09375
  0
ENDBLK
  0
BLOCK
  2
*DIM_0015
 70
    65
 10
0.0
 20
0.0
  0
LINE
  8
寸法
  6
CONTINUOUS
 10
15.81096
 20
21.811188
 11
15.81096
 21
19.177855
  0
POINT
  8
寸法
 10
15.81096
 20
21.811188
  0
POINT
  8
寸法
 10
15.81096
 20
19.177855
  0
TEXT
  7
TextStyle03
  8
寸法
  6
CONTINUOUS
 10
15.425
 20
15.50625
  1
79
 40
3.0
 50
90.0
 72
     5
 11
15.425
 21
18.69375
  0
ENDBLK
  0
BLOCK
  2
*DIM_0016
 70
    65
 10
0.0
 20
0.0
  0
LINE
  8
寸法
  6
CONTINUOUS
 10
58.001245
 20
18.177855
 11
58.001245
 21
-1.533403
  0
LINE
  8
寸法
  6
CONTINUOUS
 10
55.789783
 20
18.177855
 11
55.789783
 21
-1.533403
  0
LINE
  8
寸法
  6
CONTINUOUS
 10
58.001245
 20
-1.533403
 11
55.789783
 21
-1.533403
  0
POINT
  8
寸法
 10
58.001245
 20
-1.533403
  0
POINT
  8
寸法
 10
55.789783
 20
-1.533403
  0
TEXT
  7
TextStyle03
  8
寸法
  6
CONTINUOUS
 10
53.59375
 20
-4.55
  1
66.3
 40
3.0
 72
     5
 11
60.15625
 21
-4.55
  0
ENDBLK
  0
BLOCK
  2
*DIM_0017
 70
    65
 10
0.0
 20
0.0
  0
LINE
  8
寸法
  6
CONTINUOUS
 10
37.920605
 20
35.811185
 11
37.920605
 21
-1.533403
  0
LINE
  8
寸法
  6
CONTINUOUS
 10
55.789783
 20
-1.533403
 11
37.920605
 21
-1.533403
  0
POINT
  8
寸法
 10
37.920605
 20
-1.533403
  0
TEXT
  7
TextStyle03
  8
寸法
  6
CONTINUOUS
 10
42.725
 20
-1.175
  1
536.1
 40
3.0
 72
     5
 11
50.975
 21
-1.175
  0
ENDBLK
  0
BLOCK
  2
*DIM_0018
 70
    65
 10
0.0
 20
0.0
  0
LINE
  8
寸法
  6
CONTINUOUS
 10
108.060275
 20
-21.174028
 11
108.060275
 21
-27.188577
  0
LINE
  8
寸法
  6
CONTINUOUS
 10
136.54232
 20
-21.174028
 11
136.54232
 21
-27.188577
  0
LINE
  8
寸法
  6
CONTINUOUS
 10
108.060275
 20
-27.188577
 11
136.54232
 21
-27.188577
  0
POINT
  8
寸法
 10
108.060275
 20
-27.188577
  0
POINT
  8
寸法
 10
136.54232
 20
-27.188577
  0
TEXT
  7
TextStyle03
  8
寸法
  6
CONTINUOUS
 10
117.30625
 20
-26.775
  1
854.46
 40
3.0
 72
     5
 11
127.24375
 21
-26.775
  0
ENDBLK
  0
BLOCK
  2
*DIM_0019
 70
    65
 10
0.0
 20
0.0
  0
LINE
  8
寸法
  6
CONTINUOUS
 10
137.54232
 20
-20.174028
 11
145.436635
 21
-20.174028
  0
LINE
  8
寸法
  6
CONTINUOUS
 10
123.301297
 20
-0.034185
 11
145.436635
 21
-0.034185
  0
LINE
  8
寸法
  6
CONTINUOUS
 10
145.436635
 20
-20.174028
 11
145.436635
 21
-0.034185
  0
POINT
  8
寸法
 10
145.436635
 20
-20.174028
  0
POINT
  8
寸法
 10
145.436635
 20
-0.034185
  0
TEXT
  7
TextStyle03
  8
寸法
  6
CONTINUOUS
 10
145.025
 20
-14.2
  1
604.2
 40
3.0
 50
90.0
 72
     5
 11
145.025
 21
-5.95
  0
ENDBLK
  0
BLOCK
  2
*DIM_0020
 70
    65
 10
0.0
 20
0.0
  0
LINE
  8
寸法
  6
CONTINUOUS
 10
89.35538
 20
30.485425
 11
89.35538
 21
24.98245
  0
LINE
  8
寸法
  6
CONTINUOUS
 10
147.83743
 20
30.485425
 11
147.83743
 21
24.98245
  0
LINE
  8
寸法
  6
CONTINUOUS
 10
89.35538
 20
24.98245
 11
147.83743
 21
24.98245
  0
POINT
  8
寸法
 10
89.35538
 20
24.98245
  0
POINT
  8
寸法
 10
147.83743
 20
24.98245
  0
TEXT
  7
TextStyle03
  8
寸法
  6
CONTINUOUS
 10
113.60625
 20
25.35
  1
1754.5
 40
3.0
 72
     5
 11
123.54375
 21
25.35
  0
ENDBLK
  0
BLOCK
  2
*DIM_0021
 70
    65
 10
0.0
 20
0.0
  0
LINE
  8
寸法
  6
CONTINUOUS
 10
148.83743
 20
31.485425
 11
156.20261
 21
31.485425
  0
LINE
  8
寸法
  6
CONTINUOUS
 10
133.962257
 20
52.522092
 11
156.20261
 21
52.522092
  0
LINE
  8
寸法
  6
CONTINUOUS
 10
156.20261
 20
31.485425
 11
156.20261
 21
52.522092
  0
POINT
  8
寸法
 10
156.20261
 20
31.485425
  0
POINT
  8
寸法
 10
156.20261
 20
52.522092
  0
TEXT
  7
TextStyle03
  8
寸法
  6
CONTINUOUS
 10
155.8
 20
37.875
  1
631.1
 40
3.0
 50
90.0
 72
     5
 11
155.8
 21
46.125
  0
ENDBLK
  0
BLOCK
  2
*DIM_0022
 70
    65
 10
0.0
 20
0.0
  0
LINE
  8
寸法
  6
CONTINUOUS
 10
104.230552
 20
53.522092
 11
104.230552
 21
61.743692
  0
LINE
  8
寸法
  6
CONTINUOUS
 10
132.962257
 20
53.522092
 11
132.962257
 21
61.743692
  0
LINE
  8
寸法
  6
CONTINUOUS
 10
104.230552
 20
61.743692
 11
132.962257
 21
61.743692
  0
POINT
  8
寸法
 10
104.230552
 20
61.743692
  0
POINT
  8
寸法
 10
132.962257
 20
61.743692
  0
TEXT
  7
TextStyle03
  8
寸法
  6
CONTINUOUS
 10
116.1375
 20
62.125
  1
862
 40
3.0
 72
     5
 11
121.0125
 21
62.125
  0
ENDBLK
  0
ENDSEC
  0
SECTION
  2
ENTITIES
  0
POLYLINE
  8
通り芯
  6
CONTINUOUS
 66
     1
 70
     1
  0
VERTEX
  8
通り芯
 10
-210.0
 20
-148.5
  0
VERTEX
  8
通り芯
 10
210.0
 20
-148.5
  0
VERTEX
  8
通り芯
 10
210.0
 20
148.5
  0
VERTEX
  8
通り芯
 10
-210.0
 20
148.5
  0
SEQEND
  0
INSERT
  2
*GRP_0001
  8
型材断面
  6
CONTINUOUS
 10
0.0
 20
0.0
  0
LINE
  8
型材断面
  6
DASHDOT
 10
-82.48957
 20
51.811188
 11
-82.48957
 21
-74.362823
  0
LINE
  8
型材断面
  6
DASHDOT
 10
-112.48957
 20
51.811188
 11
-112.48957
 21
-74.362823
  0
LINE
  8
型材断面
  6
DASHDOT
 10
-52.48957
 20
51.811188
 11
-52.48957
 21
-74.362823
  0
LINE
  8
型材断面
  6
DASHDOT
 10
-112.48957
 20
21.811188
 11
58.001245
 21
21.811188
  0
LINE
  8
型材断面
  6
DASHDOT
 10
-112.48957
 20
36.811188
 11
58.001245
 21
36.811188
  0
LINE
  8
型材断面
  6
DASHDOT
 10
-112.48957
 20
51.811188
 11
58.001245
 21
51.811188
  0
LINE
  8
型材断面
  6
CONTINUOUS
 10
-65.94996
 20
35.27158
 11
-65.94996
 21
36.2087
  0
LINE
  8
型材断面
  6
CONTINUOUS
 10
-65.94996
 20
35.27158
 11
-66.88708
 21
35.27158
  0
LINE
  8
型材断面
  6
CONTINUOUS
 10
-66.552448
 20
36.811188
 11
-65.94996
 21
36.2087
  0
LINE
  8
型材断面
  6
CONTINUOUS
 10
-65.94996
 20
35.27158
 11
-67.489567
 21
36.811188
  0
LINE
  8
型材断面
  6
CONTINUOUS
 10
-66.88708
 20
35.27158
 11
-67.231678
 21
35.616178
  0
LINE
  8
型材断面
  6
CONTINUOUS
 10
-67.231678
 20
35.616178
 11
-67.489567
 21
36.811188
  0
LINE
  8
型材断面
  6
CONTINUOUS
 10
-65.94996
 20
38.350795
 11
-65.94996
 21
37.413675
  0
LINE
  8
型材断面
  6
CONTINUOUS
 10
-65.94996
 20
38.350795
 11
-66.88708
 21
38.350795
  0
LINE
  8
型材断面
  6
CONTINUOUS
 10
-66.552448
 20
36.811188
 11
-65.94996
 21
37.413675
  0
LINE
  8
型材断面
  6
CONTINUOUS
 10
-65.94996
 20
38.350795
 11
-67.489567
 21
36.811188
  0
LINE
  8
型材断面
  6
CONTINUOUS
 10
-66.88708
 20
38.350795
 11
-67.231678
 21
38.006198
  0
LINE
  8
型材断面
  6
CONTINUOUS
 10
-67.231678
 20
38.006198
 11
-67.489567
 21
36.811188
  0
LINE
  8
型材断面
  6
CONTINUOUS
 10
-49.856238
 20
54.444518
 11
-49.856238
 21
19.177858
  0
LINE
  8
型材断面
  6
CONTINUOUS
 10
-67.489567
 20
36.811188
 11
-49.856238
 21
54.444518
  0
LINE
  8
型材断面
  6
CONTINUOUS
 10
-67.489567
 20
36.811188
 11
-49.856238
 21
19.177858
  0
LINE
  8
型材断面
  6
CONTINUOUS
 10
-99.02918
 20
35.27158
 11
-99.02918
 21
36.2087
  0
LINE
  8
型材断面
  6
CONTINUOUS
 10
-99.02918
 20
35.27158
 11
-98.09206
 21
35.27158
  0
LINE
  8
型材断面
  6
CONTINUOUS
 10
-98.426692
 20
36.811188
 11
-99.02918
 21
36.2087
  0
LINE
  8
型材断面
  6
CONTINUOUS
 10
-99.02918
 20
35.27158
 11
-97.489573
 21
36.811188
  0
LINE
  8
型材断面
  6
CONTINUOUS
 10
-98.09206
 20
35.27158
 11
-97.747462
 21
35.616178
  0
LINE
  8
型材断面
  6
CONTINUOUS
 10
-97.747462
 20
35.616178
 11
-97.489573
 21
36.811188
  0
LINE
  8
型材断面
  6
CONTINUOUS
 10
-99.02918
 20
38.350795
 11
-99.02918
 21
37.413675
  0
LINE
  8
型材断面
  6
CONTINUOUS
 10
-99.02918
 20
38.350795
 11
-98.09206
 21
38.350795
  0
LINE
  8
型材断面
  6
CONTINUOUS
 10
-98.426692
 20
36.811188
 11
-99.02918
 21
37.413675
  0
LINE
  8
型材断面
  6
CONTINUOUS
 10
-99.02918
 20
38.350795
 11
-97.489573
 21
36.811188
  0
LINE
  8
型材断面
  6
CONTINUOUS
 10
-98.09206
 20
38.350795
 11
-97.747462
 21
38.006198
  0
LINE
  8
型材断面
  6
CONTINUOUS
 10
-97.747462
 20
38.006198
 11
-97.489573
 21
36.811188
  0
LINE
  8
型材断面
  6
CONTINUOUS
 10
-115.122902
 20
19.177858
 11
-115.122902
 21
54.444518
  0
LINE
  8
型材断面
  6
CONTINUOUS
 10
-97.489573
 20
36.811188
 11
-115.122902
 21
54.444518
  0
LINE
  8
型材断面
  6
CONTINUOUS
 10
-97.489573
 20
36.811188
 11
-115.122902
 21
19.177858
  0
LINE
  8
型材断面
  6
CONTINUOUS
 10
-49.856238
 20
19.177858
 11
-115.122902
 21
19.177858
  0
LINE
  8
型材断面
  6
CONTINUOUS
 10
-49.856238
 20
54.444518
 11
-115.122902
 21
54.444518
  0
LINE
  8
型材断面
  6
CONTINUOUS
 10
-95.728643
 20
35.695587
 11
-69.250497
 21
35.695587
  0
LINE
  8
型材断面
  6
CONTINUOUS
 10
-95.728643
 20
37.926787
 11
-69.250497
 21
37.926787
  0
LINE
  8
型材断面
  6
CONTINUOUS
 10
-49.856235
 20
-72.15136
 11
-49.856235
 21
-74.362823
  0
LINE
  8
型材断面
  6
CONTINUOUS
 10
-50.689567
 20
-74.36281
 11
-50.689567
 21
-74.829478
  0
LINE
  8
型材断面
  6
CONTINUOUS
 10
-49.82088
 20
-72.068847
 11
-66.091533
 21
-55.798197
  0
LINE
  8
型材断面
  6
CONTINUOUS
 10
-49.856235
 20
-72.104205
 11
-66.162245
 21
-55.798197
  0
LINE
  8
型材断面
  6
CONTINUOUS
 10
-115.122905
 20
-72.15136
 11
-115.122905
 21
-74.362823
  0
LINE
  8
型材断面
  6
CONTINUOUS
 10
-114.289573
 20
-74.36281
 11
-114.289573
 21
-74.829478
  0
LINE
  8
型材断面
  6
CONTINUOUS
 10
-115.15826
 20
-72.068847
 11
-98.887608
 21
-55.798197
  0
LINE
  8
型材断面
  6
CONTINUOUS
 10
-115.122905
 20
-72.104205
 11
-98.816895
 21
-55.798197
  0
LINE
  8
型材断面
  6
CONTINUOUS
 10
-50.689567
 20
-74.829478
 11
-114.289573
 21
-74.829478
  0
LINE
  8
型材断面
  6
CONTINUOUS
 10
-49.856235
 20
-74.362823
 11
-115.122905
 21
-74.362823
  0
LINE
  8
型材断面
  6
CONTINUOUS
 10
-49.856235
 20
-72.15136
 11
-115.122905
 21
-72.15136
  0
LINE
  8
型材断面
  6
CONTINUOUS
 10
-69.368412
 20
-54.282182
 11
-95.610728
 21
-54.282182
  0
LINE
  8
型材断面
  6
CONTINUOUS
 10
-67.342003
 20
-55.461195
 11
-97.637137
 21
-55.461195
  0
LINE
  8
型材断面
  6
CONTINUOUS
 10
55.742627
 20
54.444522
 11
55.70727
 21
54.479877
  0
LINE
  8
型材断面
  6
CONTINUOUS
 10
55.789783
 20
54.444522
 11
58.001245
 21
54.444522
  0
LINE
  8
型材断面
  6
CONTINUOUS
 10
58.001232
 20
53.611188
 11
58.4679
 21
53.611188
  0
LINE
  8
型材断面
  6
CONTINUOUS
 10
55.789783
 20
19.177855
 11
58.001245
 21
19.177855
  0
LINE
  8
型材断面
  6
CONTINUOUS
 10
58.001232
 20
20.011188
 11
58.4679
 21
20.011188
  0
LINE
  8
型材断面
  6
CONTINUOUS
 10
55.789783
 20
54.444522
 11
55.789783
 21
19.177855
  0
LINE
  8
型材断面
  6
CONTINUOUS
 10
58.001245
 20
54.444522
 11
58.001245
 21
19.177855
  0
LINE
  8
型材断面
  6
CONTINUOUS
 10
58.4679
 20
53.611188
 11
58.4679
 21
20.011188
  0
LINE
  8
型材断面
  6
CONTINUOUS
 10
55.742627
 20
19.177855
 11
38.109295
 21
36.81119
  0
LINE
  8
型材断面
  6
CONTINUOUS
 10
55.742627
 20
54.444522
 11
38.109295
 21
36.81119
  0
LINE
  8
型材断面
  6
CONTINUOUS
 10
55.70727
 20
54.479877
 11
38.038585
 21
36.811188
  0
LINE
  8
型材断面
  6
CONTINUOUS
 10
55.70727
 20
19.1425
 11
38.038585
 21
36.811188
  0
LINE
  8
型材断面
  6
CONTINUOUS
 10
38.745415
 20
36.811185
 11
37.802605
 21
36.811185
  0
LINE
  8
型材断面
  6
CONTINUOUS
 10
38.745415
 20
36.811185
 11
37.802605
 21
36.811185
  0
LINE
  8
型材断面
  6
CONTINUOUS
 10
39.302605
 20
35.311185
 11
39.349745
 21
35.358325
  0
LINE
  8
型材断面
  6
CONTINUOUS
 10
39.349745
 20
35.358325
 11
39.349745
 21
36.206853
  0
LINE
  8
型材断面
  6
CONTINUOUS
 10
37.802605
 20
36.811185
 11
39.302605
 21
35.311185
  0
LINE
  8
型材断面
  6
CONTINUOUS
 10
38.745413
 20
36.811185
 11
39.349745
 21
36.206853
  0
LINE
  8
型材断面
  6
CONTINUOUS
 10
39.302605
 20
38.311575
 11
39.349745
 21
38.264435
  0
LINE
  8
型材断面
  6
CONTINUOUS
 10
39.349745
 20
38.264435
 11
39.349745
 21
37.415907
  0
LINE
  8
型材断面
  6
CONTINUOUS
 10
38.745413
 20
36.811185
 11
39.349745
 21
37.415515
  0
LINE
  8
型材断面
  6
CONTINUOUS
 10
37.802605
 20
36.811185
 11
39.3028
 21
38.31138
  0
LINE
  8
型材断面
  6
CONTINUOUS
 10
39.021333
 20
37.911915
 11
39.080322
 21
37.852925
  0
LINE
  8
型材断面
  6
CONTINUOUS
 10
39.021333
 20
37.911915
 11
37.920605
 21
36.811185
  0
LINE
  8
型材断面
  6
CONTINUOUS
 10
39.021333
 20
35.710455
 11
39.080322
 21
35.769445
  0
LINE
  8
型材断面
  6
CONTINUOUS
 10
39.021333
 20
35.710455
 11
37.920605
 21
36.811185
  0
LINE
  8
型材断面
  6
CONTINUOUS
 10
96.87944
 20
-1.243065
 11
112.833855
 21
-1.243065
  0
LINE
  8
型材断面
  6
CONTINUOUS
 10
80.398635
 20
52.309815
 11
96.35305
 21
52.309815
  0
LINE
  8
ガラス
  6
CONTINUOUS
 10
108.060275
 20
-20.174028
 11
136.54232
 21
-20.174028
  0
LINE
  8
ガラス
  6
CONTINUOUS
 10
136.54232
 20
-20.174028
 11
122.301297
 21
-0.034185
  0
LINE
  8
ガラス
  6
CONTINUOUS
 10
108.060275
 20
-20.174028
 11
122.301297
 21
-0.034185
  0
LINE
  8
ガラス
  6
CONTINUOUS
 10
104.230552
 20
52.522092
 11
132.962257
 21
52.522092
  0
LINE
  8
ガラス
  6
CONTINUOUS
 10
132.962257
 20
52.522092
 11
147.83743
 21
31.485425
  0
LINE
  8
ガラス
  6
CONTINUOUS
 10
147.83743
 20
31.485425
 11
89.35538
 21
31.485425
  0
LINE
  8
ガラス
  6
CONTINUOUS
 10
104.230552
 20
52.522092
 11
89.35538
 21
31.485425
  0
LINE
  8
ガラス
  6
CONTINUOUS
 10
-80.553252
 20
46.69515
 11
-84.425885
 21
42.822515
  0
LINE
  8
ガラス
  6
CONTINUOUS
 10
-81.433572
 20
45.096793
 11
-82.82753
 21
43.702837
  0
LINE
  8
ガラス
  6
CONTINUOUS
 10
-82.151607
 20
45.814825
 11
-83.545565
 21
44.420873
  0
LINE
  8
ガラス
  6
CONTINUOUS
 10
-80.553252
 20
30.226115
 11
-84.425885
 21
26.35348
  0
LINE
  8
ガラス
  6
CONTINUOUS
 10
-81.433572
 20
28.627758
 11
-82.82753
 21
27.233802
  0
LINE
  8
ガラス
  6
CONTINUOUS
 10
-82.151607
 20
29.34579
 11
-83.545565
 21
27.951837
  0
LINE
  8
ガラス
  6
CONTINUOUS
 10
-54.789408
 20
38.747505
 11
-58.66204
 21
34.87487
  0
LINE
  8
ガラス
  6
CONTINUOUS
 10
-55.669728
 20
37.149148
 11
-57.063685
 21
35.755192
  0
LINE
  8
ガラス
  6
CONTINUOUS
 10
-56.387763
 20
37.86718
 11
-57.78172
 21
36.473228
  0
LINE
  8
ガラス
  6
CONTINUOUS
 10
-106.059085
 20
38.747505
 11
-109.931718
 21
34.87487
  0
LINE
  8
ガラス
  6
CONTINUOUS
 10
-106.939405
 20
37.149148
 11
-108.333363
 21
35.755192
  0
LINE
  8
ガラス
  6
CONTINUOUS
 10
-107.65744
 20
37.86718
 11
-109.051397
 21
36.473228
  0
LINE
  8
ガラス
  6
CONTINUOUS
 10
51.797348
 20
38.747505
 11
47.924715
 21
34.87487
  0
LINE
  8
ガラス
  6
CONTINUOUS
 10
50.917028
 20
37.149148
 11
49.52307
 21
35.755192
  0
LINE
  8
ガラス
  6
CONTINUOUS
 10
50.198992
 20
37.86718
 11
48.805035
 21
36.473228
  0
LINE
  8
ガラス
  6
CONTINUOUS
 10
-80.553252
 20
-62.502685
 11
-84.425885
 21
-66.37532
  0
LINE
  8
ガラス
  6
CONTINUOUS
 10
-81.433572
 20
-64.101043
 11
-82.82753
 21
-65.494998
  0
LINE
  8
ガラス
  6
CONTINUOUS
 10
-82.151607
 20
-63.38301
 11
-83.545565
 21
-64.776962
  0
LINE
  8
ゴム等
  6
CONTINUOUS
 10
-67.961122
 20
38.465818
 11
-68.404867
 21
38.863788
  0
LINE
  8
ゴム等
  6
CONTINUOUS
 10
-67.961122
 20
35.156558
 11
-68.404867
 21
34.758588
  0
LINE
  8
ゴム等
  6
CONTINUOUS
 10
-67.231678
 20
35.616178
 11
-69.250497
 21
35.616178
  0
LINE
  8
ゴム等
  6
CONTINUOUS
 10
-69.250497
 20
35.616178
 11
-69.250497
 21
36.811188
  0
LINE
  8
ゴム等
  6
CONTINUOUS
 10
-67.231678
 20
38.006198
 11
-69.250497
 21
38.006198
  0
LINE
  8
ゴム等
  6
CONTINUOUS
 10
-69.250497
 20
38.006198
 11
-69.250497
 21
36.811188
  0
LINE
  8
ゴム等
  6
CONTINUOUS
 10
-67.961122
 20
38.465818
 11
-67.438707
 21
37.926787
  0
LINE
  8
ゴム等
  6
CONTINUOUS
 10
-67.961122
 20
35.156558
 11
-67.438707
 21
35.695587
  0
LINE
  8
ゴム等
  6
CONTINUOUS
 10
-68.404867
 20
34.758588
 11
-54.400725
 21
20.754445
  0
LINE
  8
ゴム等
  6
CONTINUOUS
 10
-67.961122
 20
35.156558
 11
-52.720292
 21
19.915725
  0
LINE
  8
ゴム等
  6
CONTINUOUS
 10
-67.438707
 20
35.695587
 11
-51.04602
 21
19.3029
  0
LINE
  8
ゴム等
  6
CONTINUOUS
 10
-64.521667
 20
36.811188
 11
-51.432825
 21
23.722345
  0
LINE
  8
ゴム等
  6
CONTINUOUS
 10
-65.363382
 20
36.811188
 11
-50.594107
 21
22.04191
  0
LINE
  8
ゴム等
  6
CONTINUOUS
 10
-66.424827
 20
36.811188
 11
-49.98128
 21
20.36764
  0
LINE
  8
ゴム等
  6
CONTINUOUS
 10
-64.521667
 20
36.811188
 11
-51.432825
 21
49.90003
  0
LINE
  8
ゴム等
  6
CONTINUOUS
 10
-51.432825
 20
23.722345
 11
-51.432825
 21
49.90003
  0
LINE
  8
ゴム等
  6
CONTINUOUS
 10
-65.363382
 20
36.811188
 11
-50.594107
 21
51.580465
  0
LINE
  8
ゴム等
  6
CONTINUOUS
 10
-50.594107
 20
22.04191
 11
-50.594107
 21
51.580465
  0
LINE
  8
ゴム等
  6
CONTINUOUS
 10
-66.424827
 20
36.811188
 11
-49.98128
 21
53.254735
  0
LINE
  8
ゴム等
  6
CONTINUOUS
 10
-49.98128
 20
20.36764
 11
-49.98128
 21
53.254735
  0
LINE
  8
ゴム等
  6
CONTINUOUS
 10
-68.404867
 20
38.863788
 11
-54.400725
 21
52.86793
  0
LINE
  8
ゴム等
  6
CONTINUOUS
 10
-67.961122
 20
38.465818
 11
-52.720292
 21
53.70665
  0
LINE
  8
ゴム等
  6
CONTINUOUS
 10
-67.438707
 20
37.926787
 11
-51.04602
 21
54.319475
  0
LINE
  8
ゴム等
  6
CONTINUOUS
 10
-97.540433
 20
37.926787
 11
-97.018018
 21
38.465818
  0
LINE
  8
ゴム等
  6
CONTINUOUS
 10
-97.018018
 20
38.465818
 11
-96.574273
 21
38.863788
  0
LINE
  8
ゴム等
  6
CONTINUOUS
 10
-97.540433
 20
35.695587
 11
-97.018018
 21
35.156558
  0
LINE
  8
ゴム等
  6
CONTINUOUS
 10
-97.018018
 20
35.156558
 11
-96.574273
 21
34.758588
  0
LINE
  8
ゴム等
  6
CONTINUOUS
 10
-97.747462
 20
35.616178
 11
-95.728643
 21
35.616178
  0
LINE
  8
ゴム等
  6
CONTINUOUS
 10
-95.728643
 20
35.616178
 11
-95.728643
 21
36.811188
  0
LINE
  8
ゴム等
  6
CONTINUOUS
 10
-97.747462
 20
38.006198
 11
-95.728643
 21
38.006198
  0
LINE
  8
ゴム等
  6
CONTINUOUS
 10
-95.728643
 20
38.006198
 11
-95.728643
 21
36.811188
  0
LINE
  8
ゴム等
  6
CONTINUOUS
 10
-96.574273
 20
38.863788
 11
-110.578415
 21
52.86793
  0
LINE
  8
ゴム等
  6
CONTINUOUS
 10
-97.018018
 20
38.465818
 11
-112.258847
 21
53.70665
  0
LINE
  8
ゴム等
  6
CONTINUOUS
 10
-97.540433
 20
37.926787
 11
-113.93312
 21
54.319475
  0
LINE
  8
ゴム等
  6
CONTINUOUS
 10
-100.457473
 20
36.811188
 11
-113.546315
 21
49.90003
  0
LINE
  8
ゴム等
  6
CONTINUOUS
 10
-99.615758
 20
36.811188
 11
-114.385033
 21
51.580465
  0
LINE
  8
ゴム等
  6
CONTINUOUS
 10
-98.554313
 20
36.811188
 11
-114.99786
 21
53.254735
  0
LINE
  8
ゴム等
  6
CONTINUOUS
 10
-113.546315
 20
49.90003
 11
-113.546315
 21
23.722345
  0
LINE
  8
ゴム等
  6
CONTINUOUS
 10
-100.457473
 20
36.811188
 11
-113.546315
 21
23.722345
  0
LINE
  8
ゴム等
  6
CONTINUOUS
 10
-99.615758
 20
36.811188
 11
-114.385033
 21
22.04191
  0
LINE
  8
ゴム等
  6
CONTINUOUS
 10
-114.385033
 20
51.580465
 11
-114.385033
 21
22.04191
  0
LINE
  8
ゴム等
  6
CONTINUOUS
 10
-114.99786
 20
53.254735
 11
-114.99786
 21
20.36764
  0
LINE
  8
ゴム等
  6
CONTINUOUS
 10
-98.554313
 20
36.811188
 11
-114.99786
 21
20.36764
  0
LINE
  8
ゴム等
  6
CONTINUOUS
 10
-96.574273
 20
34.758588
 11
-110.578415
 21
20.754445
  0
LINE
  8
ゴム等
  6
CONTINUOUS
 10
-97.018018
 20
35.156558
 11
-112.258847
 21
19.915725
  0
LINE
  8
ゴム等
  6
CONTINUOUS
 10
-97.540433
 20
35.695587
 11
-113.93312
 21
19.3029
  0
LINE
  8
ゴム等
  6
CONTINUOUS
 10
-112.258847
 20
19.915725
 11
-52.720292
 21
19.915725
  0
LINE
  8
ゴム等
  6
CONTINUOUS
 10
-113.93312
 20
19.3029
 11
-51.04602
 21
19.3029
  0
LINE
  8
ゴム等
  6
CONTINUOUS
 10
-112.258847
 20
53.70665
 11
-52.720292
 21
53.70665
  0
LINE
  8
ゴム等
  6
CONTINUOUS
 10
-113.93312
 20
54.319475
 11
-51.04602
 21
54.319475
  0
LINE
  8
ゴム等
  6
CONTINUOUS
 10
-97.018018
 20
38.465818
 11
-67.961122
 21
38.465818
  0
LINE
  8
ゴム等
  6
CONTINUOUS
 10
-97.018018
 20
35.156558
 11
-67.961122
 21
35.156558
  0
LINE
  8
ゴム等
  6
CONTINUOUS
 10
-96.574273
 20
34.758588
 11
-68.404867
 21
34.758588
  0
LINE
  8
ゴム等
  6
CONTINUOUS
 10
-96.574273
 20
38.863788
 11
-68.404867
 21
38.863788
  0
LINE
  8
ゴム等
  6
CONTINUOUS
 10
-110.578415
 20
20.754445
 11
-54.400725
 21
20.754445
  0
LINE
  8
ゴム等
  6
CONTINUOUS
 10
-110.578415
 20
52.86793
 11
-54.400725
 21
52.86793
  0
LINE
  8
ゴム等
  6
CONTINUOUS
 10
-49.98128
 20
53.254735
 11
-50.594107
 21
51.580465
  0
LINE
  8
ゴム等
  6
CONTINUOUS
 10
-50.594107
 20
51.580465
 11
-51.432825
 21
49.90003
  0
LINE
  8
ゴム等
  6
CONTINUOUS
 10
-51.04602
 20
54.319475
 11
-52.720292
 21
53.70665
  0
LINE
  8
ゴム等
  6
CONTINUOUS
 10
-52.720292
 20
53.70665
 11
-54.400725
 21
52.86793
  0
LINE
  8
ゴム等
  6
CONTINUOUS
 10
-49.98128
 20
20.36764
 11
-50.594107
 21
22.04191
  0
LINE
  8
ゴム等
  6
CONTINUOUS
 10
-50.594107
 20
22.04191
 11
-51.432825
 21
23.722345
  0
LINE
  8
ゴム等
  6
CONTINUOUS
 10
-51.04602
 20
19.3029
 11
-52.720292
 21
19.915725
  0
LINE
  8
ゴム等
  6
CONTINUOUS
 10
-52.720292
 20
19.915725
 11
-54.400725
 21
20.754445
  0
LINE
  8
ゴム等
  6
CONTINUOUS
 10
-114.99786
 20
53.254735
 11
-114.385033
 21
51.580465
  0
LINE
  8
ゴム等
  6
CONTINUOUS
 10
-114.385033
 20
51.580465
 11
-113.546315
 21
49.90003
  0
LINE
  8
ゴム等
  6
CONTINUOUS
 10
-113.93312
 20
54.319475
 11
-112.258847
 21
53.70665
  0
LINE
  8
ゴム等
  6
CONTINUOUS
 10
-112.258847
 20
53.70665
 11
-110.578415
 21
52.86793
  0
LINE
  8
ゴム等
  6
CONTINUOUS
 10
-114.99786
 20
20.36764
 11
-114.385033
 21
22.04191
  0
LINE
  8
ゴム等
  6
CONTINUOUS
 10
-114.385033
 20
22.04191
 11
-113.546315
 21
23.722345
  0
LINE
  8
ゴム等
  6
CONTINUOUS
 10
-113.93312
 20
19.3029
 11
-112.258847
 21
19.915725
  0
LINE
  8
ゴム等
  6
CONTINUOUS
 10
-112.258847
 20
19.915725
 11
-110.578415
 21
20.754445
  0
LINE
  8
ゴム等
  6
CONTINUOUS
 10
-51.04603
 20
-72.002615
 11
-52.7203
 21
-71.38979
  0
LINE
  8
ゴム等
  6
CONTINUOUS
 10
-52.7203
 20
-71.38979
 11
-54.399053
 21
-70.994895
  0
LINE
  8
ゴム等
  6
CONTINUOUS
 10
-67.701745
 20
-54.164333
 11
-69.368412
 21
-54.164333
  0
LINE
  8
ゴム等
  6
CONTINUOUS
 10
-69.368412
 20
-54.164333
 11
-69.368412
 21
-55.406483
  0
LINE
  8
ゴム等
  6
CONTINUOUS
 10
-67.443855
 20
-55.359343
 11
-69.368412
 21
-55.359343
  0
LINE
  8
ゴム等
  6
CONTINUOUS
 10
-69.368412
 20
-55.406483
 11
-67.396715
 21
-55.406483
  0
LINE
  8
ゴム等
  6
CONTINUOUS
 10
-66.067878
 20
-55.798197
 11
-67.004997
 21
-55.798197
  0
LINE
  8
ゴム等
  6
CONTINUOUS
 10
-66.067878
 20
-55.798197
 11
-67.701745
 21
-54.164333
  0
LINE
  8
ゴム等
  6
CONTINUOUS
 10
-67.004997
 20
-55.798197
 11
-67.443855
 21
-55.359343
  0
LINE
  8
ゴム等
  6
CONTINUOUS
 10
-67.587453
 20
-55.461195
 11
-67.961157
 21
-56.148935
  0
LINE
  8
ゴム等
  6
CONTINUOUS
 10
-67.961157
 20
-56.148935
 11
-68.406463
 21
-56.987485
  0
LINE
  8
ゴム等
  6
CONTINUOUS
 10
-52.7203
 20
-71.38979
 11
-67.961157
 21
-56.148935
  0
LINE
  8
ゴム等
  6
CONTINUOUS
 10
-54.399053
 20
-70.994895
 11
-68.406463
 21
-56.987485
  0
LINE
  8
ゴム等
  6
CONTINUOUS
 10
-51.04603
 20
-72.002615
 11
-67.587453
 21
-55.461195
  0
LINE
  8
ゴム等
  6
CONTINUOUS
 10
-113.93311
 20
-72.002615
 11
-112.25884
 21
-71.38979
  0
LINE
  8
ゴム等
  6
CONTINUOUS
 10
-112.25884
 20
-71.38979
 11
-110.580087
 21
-70.994895
  0
LINE
  8
ゴム等
  6
CONTINUOUS
 10
-97.277395
 20
-54.164333
 11
-95.610728
 21
-54.164333
  0
LINE
  8
ゴム等
  6
CONTINUOUS
 10
-95.610728
 20
-54.164333
 11
-95.610728
 21
-55.406483
  0
LINE
  8
ゴム等
  6
CONTINUOUS
 10
-97.535285
 20
-55.359343
 11
-95.610728
 21
-55.359343
  0
LINE
  8
ゴム等
  6
CONTINUOUS
 10
-95.610728
 20
-55.406483
 11
-97.582425
 21
-55.406483
  0
LINE
  8
ゴム等
  6
CONTINUOUS
 10
-98.911262
 20
-55.798197
 11
-97.974143
 21
-55.798197
  0
LINE
  8
ゴム等
  6
CONTINUOUS
 10
-98.911262
 20
-55.798197
 11
-97.277395
 21
-54.164333
  0
LINE
  8
ゴム等
  6
CONTINUOUS
 10
-97.974143
 20
-55.798197
 11
-97.535285
 21
-55.359343
  0
LINE
  8
ゴム等
  6
CONTINUOUS
 10
-97.391687
 20
-55.461195
 11
-97.017983
 21
-56.148935
  0
LINE
  8
ゴム等
  6
CONTINUOUS
 10
-97.017983
 20
-56.148935
 11
-96.572678
 21
-56.987485
  0
LINE
  8
ゴム等
  6
CONTINUOUS
 10
-110.580087
 20
-70.994895
 11
-96.572678
 21
-56.987485
  0
LINE
  8
ゴム等
  6
CONTINUOUS
 10
-112.25884
 20
-71.38979
 11
-97.017983
 21
-56.148935
  0
LINE
  8
ゴム等
  6
CONTINUOUS
 10
-113.93311
 20
-72.002615
 11
-97.391687
 21
-55.461195
  0
LINE
  8
ゴム等
  6
CONTINUOUS
 10
-112.25884
 20
-71.38979
 11
-52.7203
 21
-71.38979
  0
LINE
  8
ゴム等
  6
CONTINUOUS
 10
-113.93311
 20
-72.002615
 11
-51.04603
 21
-72.002615
  0
LINE
  8
ゴム等
  6
CONTINUOUS
 10
-67.961157
 20
-56.148935
 11
-97.017983
 21
-56.148935
  0
LINE
  8
ゴム等
  6
CONTINUOUS
 10
-96.572678
 20
-56.987485
 11
-68.406463
 21
-56.987485
  0
LINE
  8
ゴム等
  6
CONTINUOUS
 10
-110.580087
 20
-70.994895
 11
-54.399053
 21
-70.994895
  0
LINE
  8
ゴム等
  6
CONTINUOUS
 10
54.633317
 20
49.901705
 11
55.028212
 21
51.580458
  0
LINE
  8
ゴム等
  6
CONTINUOUS
 10
55.028212
 20
51.580458
 11
55.641037
 21
53.254728
  0
LINE
  8
ゴム等
  6
CONTINUOUS
 10
55.641037
 20
20.36765
 11
55.028212
 21
22.04192
  0
LINE
  8
ゴム等
  6
CONTINUOUS
 10
55.028212
 20
22.04192
 11
54.633317
 21
23.720672
  0
LINE
  8
ゴム等
  6
CONTINUOUS
 10
54.633317
 20
23.720672
 11
41.542802
 21
36.811188
  0
LINE
  8
ゴム等
  6
CONTINUOUS
 10
54.633317
 20
49.901705
 11
41.542802
 21
36.811188
  0
LINE
  8
ゴム等
  6
CONTINUOUS
 10
55.028212
 20
51.580458
 11
40.258948
 21
36.811188
  0
LINE
  8
ゴム等
  6
CONTINUOUS
 10
55.028212
 20
22.04192
 11
40.258948
 21
36.811188
  0
LINE
  8
ゴム等
  6
CONTINUOUS
 10
55.641037
 20
20.36765
 11
39.197502
 21
36.811188
  0
LINE
  8
ゴム等
  6
CONTINUOUS
 10
55.641037
 20
53.254728
 11
39.197502
 21
36.811188
  0
LINE
  8
ゴム等
  6
CONTINUOUS
 10
54.633317
 20
23.720672
 11
54.633317
 21
49.901705
  0
LINE
  8
ゴム等
  6
CONTINUOUS
 10
55.028212
 20
22.04192
 11
55.028212
 21
51.580458
  0
LINE
  8
ゴム等
  6
CONTINUOUS
 10
55.641037
 20
20.36765
 11
55.641037
 21
53.254728
  0
TEXT
  7
TextStyle03
  8
文字
  6
CONTINUOUS
 10
-37.8
 20
0.175
  1
は排水穴位置を示す
 40
3.0
 72
     5
 11
-7.8
 21
0.175
  0
TEXT
  7
TextStyle03
  8
文字
  6
CONTINUOUS
 10
-136.0
 20
64.55
  1
アンカーピッチ
 40
3.0
 72
     5
 11
-112.75
 21
64.55
  0
TEXT
  7
TextStyle03
  8
文字
  6
CONTINUOUS
 10
-124.875
 20
-0.325
  1
アンカーピッチ
 40
3.0
 50
90.0
 72
     5
 11
-124.875
 21
22.925
  0
TEXT
  7
TextStyle03
  8
文字
  6
CONTINUOUS
 10
69.925
 20
118.225
  1
シリーズ：ＤＦＹＫ
 40
5.0
 72
     5
 11
119.925
 21
118.225
  0
TEXT
  7
TextStyle03
  8
文字
  6
CONTINUOUS
 10
69.925
 20
112.6
  1
　　　　　山型四角錘（固定）900×1800タイプ
 40
5.0
 72
     5
 11
190.2375
 21
112.6
  0
TEXT
  7
TextStyle03
  8
文字
  6
CONTINUOUS
 10
69.925
 20
106.975
  1
図面名　：外観姿図
 40
5.0
 72
     5
 11
119.925
 21
106.975
  0
TEXT
  7
TextStyle03
  8
文字
  6
CONTINUOUS
 10
69.925
 20
101.35
  1

 40
5.0
 41
1.125
  0
TEXT
  7
TextStyle03
  8
文字
  6
CONTINUOUS
 10
69.925
 20
95.725
  1
ＮＳコード：ＮＳ４ＹＫ
 40
5.0
 72
     5
 11
131.175
 21
95.725
  0
TEXT
  7
TextStyle03
  8
文字
  6
CONTINUOUS
 10
165.375
 20
-8.425
  1
×　２枚
 40
4.0
 72
     5
 11
182.875
 21
-8.425
  0
TEXT
  7
TextStyle03
  8
文字
  6
CONTINUOUS
 10
165.375
 20
39.375
  1
×　２枚
 40
4.0
 72
     5
 11
182.875
 21
39.375
  0
TEXT
  7
TextStyle03
  8
文字
  6
CONTINUOUS
 10
79.825
 20
53.125
  1
ガラス寸法
 40
3.0
 72
     5
 11
96.325
 21
53.125
  0
TEXT
  7
TextStyle03
  8
文字
  6
CONTINUOUS
 10
96.725
 20
-0.35
  1
ガラス寸法
 40
3.0
 72
     5
 11
113.225
 21
-0.35
  0
INSERT
  2
*DIM_0002
  8
寸法
  6
CONTINUOUS
 10
0.0
 20
0.0
  0
INSERT
  2
*DIM_0003
  8
寸法
  6
CONTINUOUS
 10
0.0
 20
0.0
  0
LINE
  8
寸法
  6
CONTINUOUS
 10
-82.48957
 20
17.89452
 11
-83.865203
 21
15.511855
  0
LINE
  8
寸法
  6
CONTINUOUS
 10
-82.48957
 20
17.89452
 11
-81.113937
 21
15.511855
  0
LINE
  8
寸法
  6
CONTINUOUS
 10
-81.113937
 20
15.511855
 11
-83.865203
 21
15.511855
  0
LINE
  8
寸法
  6
CONTINUOUS
 10
-82.48957
 20
55.727855
 11
-83.865203
 21
58.11052
  0
LINE
  8
寸法
  6
CONTINUOUS
 10
-82.48957
 20
55.727855
 11
-81.113937
 21
58.11052
  0
LINE
  8
寸法
  6
CONTINUOUS
 10
-81.113937
 20
58.11052
 11
-83.865203
 21
58.11052
  0
LINE
  8
寸法
  6
CONTINUOUS
 10
-48.57291
 20
36.811188
 11
-46.190245
 21
35.435555
  0
LINE
  8
寸法
  6
CONTINUOUS
 10
-48.57291
 20
36.811188
 11
-46.190245
 21
38.18682
  0
LINE
  8
寸法
  6
CONTINUOUS
 10
-46.190245
 20
38.18682
 11
-46.190245
 21
35.435555
  0
LINE
  8
寸法
  6
CONTINUOUS
 10
-116.40623
 20
36.811188
 11
-118.788895
 21
35.435555
  0
LINE
  8
寸法
  6
CONTINUOUS
 10
-116.40623
 20
36.811188
 11
-118.788895
 21
38.18682
  0
LINE
  8
寸法
  6
CONTINUOUS
 10
-118.788895
 20
38.18682
 11
-118.788895
 21
35.435555
  0
LINE
  8
寸法
  6
CONTINUOUS
 10
-40.87686
 20
2.613172
 11
-39.501228
 21
0.230508
  0
LINE
  8
寸法
  6
CONTINUOUS
 10
-40.87686
 20
2.613172
 11
-42.252492
 21
0.230508
  0
LINE
  8
寸法
  6
CONTINUOUS
 10
-42.252492
 20
0.230508
 11
-39.501228
 21
0.230508
  0
LINE
  8
寸法
  6
CONTINUOUS
 10
-44.226347
 20
-1.421447
 11
-6.151035
 21
-1.421447
  0
INSERT
  2
*DIM_0004
  8
寸法
  6
CONTINUOUS
 10
0.0
 20
0.0
  0
INSERT
  2
*DIM_0005
  8
寸法
  6
CONTINUOUS
 10
0.0
 20
0.0
  0
INSERT
  2
*DIM_0006
  8
寸法
  6
CONTINUOUS
 10
0.0
 20
0.0
  0
INSERT
  2
*DIM_0007
  8
寸法
  6
CONTINUOUS
 10
0.0
 20
0.0
  0
INSERT
  2
*DIM_0008
  8
寸法
  6
CONTINUOUS
 10
0.0
 20
0.0
  0
INSERT
  2
*DIM_0009
  8
寸法
  6
CONTINUOUS
 10
0.0
 20
0.0
  0
INSERT
  2
*DIM_0010
  8
寸法
  6
CONTINUOUS
 10
0.0
 20
0.0
  0
INSERT
  2
*DIM_0011
  8
寸法
  6
CONTINUOUS
 10
0.0
 20
0.0
  0
INSERT
  2
*DIM_0012
  8
寸法
  6
CONTINUOUS
 10
0.0
 20
0.0
  0
INSERT
  2
*DIM_0013
  8
寸法
  6
CONTINUOUS
 10
0.0
 20
0.0
  0
INSERT
  2
*DIM_0014
  8
寸法
  6
CONTINUOUS
 10
0.0
 20
0.0
  0
INSERT
  2
*DIM_0015
  8
寸法
  6
CONTINUOUS
 10
0.0
 20
0.0
  0
INSERT
  2
*DIM_0016
  8
寸法
  6
CONTINUOUS
 10
0.0
 20
0.0
  0
INSERT
  2
*DIM_0017
  8
寸法
  6
CONTINUOUS
 10
0.0
 20
0.0
  0
INSERT
  2
*DIM_0018
  8
寸法
  6
CONTINUOUS
 10
0.0
 20
0.0
  0
INSERT
  2
*DIM_0019
  8
寸法
  6
CONTINUOUS
 10
0.0
 20
0.0
  0
INSERT
  2
*DIM_0020
  8
寸法
  6
CONTINUOUS
 10
0.0
 20
0.0
  0
INSERT
  2
*DIM_0021
  8
寸法
  6
CONTINUOUS
 10
0.0
 20
0.0
  0
INSERT
  2
*DIM_0022
  8
寸法
  6
CONTINUOUS
 10
0.0
 20
0.0
  0
ENDSEC
  0
EOF
