  0
SECTION
  2
HEADER
  9
$EXTMIN
 10
-210.0
 20
-148.5
  9
$EXTMAX
 10
210.0
 20
148.5
  9
$PDMODE
 70
    32
  9
$PDSIZE
 40
1.5
  9
$LTSCALE
 40
10.0
  0
ENDSEC
  0
SECTION
  2
TABLES
  0
TABLE
  2
LTYPE
 70
    15
  0
LTYPE
  2
CONTINUOUS
 70
    64
  3
実線
 72
    65
 73
     0
 40
0.0
  0
LTYPE
  2
DASHED
 70
    64
  3
破線A
 72
    65
 73
     2
 40
0.6
 49
0.4
 49
-0.2
  0
LTYPE
  2
DASHEDX2
 70
    64
  3
破線B
 72
    65
 73
     2
 40
1.3
 49
0.9
 49
-0.4
  0
LTYPE
  2
DASHDOT
 70
    64
  3
１点鎖線A
 72
    65
 73
     4
 40
0.5375
 49
0.375
 49
-0.05
 49
0.0625
 49
-0.05
  0
LTYPE
  2
DASHDOTX2
 70
    64
  3
１点鎖線B
 72
    65
 73
     4
 40
1.075
 49
0.75
 49
-0.1
 49
0.125
 49
-0.1
  0
LTYPE
  2
DIVIDE2
 70
    64
  3
２点鎖線A
 72
    65
 73
     6
 40
0.5125
 49
0.3
 49
-0.0375
 49
0.05
 49
-0.0375
 49
0.05
 49
-0.0375
  0
LTYPE
  2
DIVIDE
 70
    64
  3
２点鎖線B
 72
    65
 73
     6
 40
1.05
 49
0.55
 49
-0.1
 49
0.1
 49
-0.1
 49
0.1
 49
-0.1
  0
LTYPE
  2
DOT
 70
    64
  3
点線A
 72
    65
 73
     2
 40
0.1125
 49
0.0625
 49
-0.05
  0
LTYPE
  2
DOTX2
 70
    64
  3
点線B
 72
    65
 73
     2
 40
0.275
 49
0.15
 49
-0.125
  0
LTYPE
  2
CONTINUOUS
 70
    64
  3
実線
 72
    65
 73
     0
 40
0.0
  0
LTYPE
  2
CONTINUOUS
 70
    64
  3
実線
 72
    65
 73
     0
 40
0.0
  0
LTYPE
  2
CONTINUOUS
 70
    64
  3
実線
 72
    65
 73
     0
 40
0.0
  0
LTYPE
  2
CONTINUOUS
 70
    64
  3
実線
 72
    65
 73
     0
 40
0.0
  0
LTYPE
  2
CONTINUOUS
 70
    64
  3
実線
 72
    65
 73
     0
 40
0.0
  0
LTYPE
  2
CONTINUOUS
 70
    64
  3
実線
 72
    65
 73
     0
 40
0.0
  0
ENDTAB
  0
TABLE
  2
LAYER
 70
    34
  0
LAYER
  2
通り芯
 70
     0
 62
    15
  6
CONTINUOUS
  0
LAYER
  2
補助線
 70
     0
 62
    16
  6
DOT
  0
LAYER
  2
躯体
 70
     0
 62
    31
  6
CONTINUOUS
  0
LAYER
  2
型材
 70
     0
 62
    32
  6
CONTINUOUS
  0
LAYER
  2
型材断面
 70
     0
 62
    47
  6
CONTINUOUS
  0
LAYER
  2
ガラス
 70
     0
 62
    48
  6
CONTINUOUS
  0
LAYER
  2
ゴム等
 70
     0
 62
    63
  6
CONTINUOUS
  0
LAYER
  2
ボルト／ビス
 70
     0
 62
    64
  6
CONTINUOUS
  0
LAYER
  2
文字
 70
     0
 62
    79
  6
CONTINUOUS
  0
LAYER
  2
寸法
 70
     0
 62
    80
  6
CONTINUOUS
  0
LAYER
  2
ﾊｯﾁﾝｸﾞ
 70
     0
 62
    95
  6
CONTINUOUS
  0
LAYER
  2
別途部材
 70
     0
 62
    96
  6
CONTINUOUS
  0
LAYER
  2
曲げ物
 70
     0
 62
   111
  6
CONTINUOUS
  0
LAYER
  2
鉄骨等
 70
     0
 62
   112
  6
CONTINUOUS
  0
LAYER
  2
St
 70
     0
 62
   127
  6
CONTINUOUS
  0
LAYER
  2
その他部品等
 70
     0
 62
   128
  6
CONTINUOUS
  0
LAYER
  2
ｶﾞｽｹｯﾄ
 70
     0
 62
   143
  6
CONTINUOUS
  0
LAYER
  2
ｽｹｯﾁ
 70
     0
 62
    14
  6
CONTINUOUS
  0
LAYER
  2
0
 70
     0
 62
    17
  6
CONTINUOUS
  0
LAYER
  2
1
 70
     0
 62
    30
  6
CONTINUOUS
  0
LAYER
  2
4
 70
     0
 62
    33
  6
CONTINUOUS
  0
LAYER
  2
ﾚｲﾔ3
 70
     0
 62
    46
  6
CONTINUOUS
  0
LAYER
  2
外形線
 70
     0
 62
    49
  6
CONTINUOUS
  0
LAYER
  2
部品
 70
     0
 62
    14
  6
CONTINUOUS
  0
LAYER
  2
サッシ芯
 70
     0
 62
    17
  6
DASHDOTX2
  0
LAYER
  2
寸法線
 70
     0
 62
    62
  6
CONTINUOUS
  0
LAYER
  2
姿図外形線
 70
     0
 62
    65
  6
CONTINUOUS
  0
LAYER
  2
姿補助線
 70
     0
 62
    30
  6
CONTINUOUS
  0
LAYER
  2
透視線
 70
     0
 62
    78
  6
DOT
  0
LAYER
  2
用紙
 70
     0
 62
    81
  6
CONTINUOUS
  0
LAYER
  2
実線図枠
 70
     0
 62
    94
  6
CONTINUOUS
  0
LAYER
  2
補助図枠
 70
     0
 62
    97
  6
CONTINUOUS
  0
LAYER
  2
建具記号
 70
     0
 62
   110
  6
CONTINUOUS
  0
LAYER
  2
補助文字
 70
     0
 62
   113
  6
CONTINUOUS
  0
ENDTAB
  0
TABLE
  2
STYLE
 70
    10
  0
STYLE
  2
STANDARD
 70
     0
 40
1.0
 41
1.0
 42
1.0
 50
0.0
 71
     0
  3
TXT
  4
BIGFONT
  0
STYLE
  2
TATE
 70
     4
 40
1.0
 41
1.0
 42
1.0
 50
0.0
 71
     0
  3
TXT
  4
BIGFONT
  0
STYLE
  2
TextStyle03
 70
     0
 40
1.0
 41
1.0
 42
1.0
 50
0.0
 71
     0
  3
MONOTXT
  4
BIGFONT
  0
STYLE
  2
TextStyle04
 70
     0
 40
1.0
 41
1.0
 42
1.0
 50
0.0
 71
     0
  3
MONOTXT
  4
BIGFONT
  0
STYLE
  2
TextStyle05
 70
     0
 40
1.0
 41
1.0
 42
1.0
 50
0.0
 71
     0
  3
MONOTXT
  4
BIGFONT
  0
STYLE
  2
TextStyle06
 70
     0
 40
1.0
 41
1.0
 42
1.0
 50
0.0
 71
     0
  3
MONOTXT
  4
BIGFONT
  0
STYLE
  2
TextStyle07
 70
     0
 40
1.0
 41
1.0
 42
1.0
 50
0.0
 71
     0
  3
MONOTXT
  4
BIGFONT
  0
STYLE
  2
TextStyle08
 70
     0
 40
1.0
 41
1.0
 42
1.0
 50
0.0
 71
     0
  3
MONOTXT
  4
BIGFONT
  0
STYLE
  2
TextStyle09
 70
     0
 40
1.0
 41
1.0
 42
1.0
 50
0.0
 71
     0
  3
MONOTXT
  4
BIGFONT
  0
STYLE
  2
TextStyle10
 70
     0
 40
1.0
 41
1.0
 42
1.0
 50
0.0
 71
     0
  3
MONOTXT
  4
BIGFONT
  0
ENDTAB
  0
ENDSEC
  0
SECTION
  2
BLOCKS
  0
BLOCK
  2
*HAT_0001
 70
    65
 10
0.0
 20
0.0
  0
LINE
  8
ゴム等
 10
-16.15
 20
-21.925
 11
-18.175
 21
-21.925
  0
LINE
  8
ゴム等
 10
-22.525
 20
-21.925
 11
-23.5
 21
-21.925
  0
LINE
  8
ゴム等
 10
-15.175
 20
-20.95
 11
-19.525
 21
-20.95
  0
LINE
  8
ゴム等
 10
-21.55
 20
-20.95
 11
-24.475
 21
-20.95
  0
LINE
  8
ゴム等
 10
-14.8
 20
-19.9
 11
-16.45
 21
-19.975
  0
LINE
  8
ゴム等
 10
-18.4
 20
-19.9
 11
-20.5
 21
-19.9
  0
LINE
  8
ゴム等
 10
-20.575
 20
-19.975
 11
-25.45
 21
-19.975
  0
LINE
  8
ゴム等
 10
-14.95
 20
-18.925
 11
-16.525
 21
-18.925
  0
LINE
  8
ゴム等
 10
-19.075
 20
-18.925
 11
-26.5
 21
-18.925
  0
LINE
  8
ゴム等
 10
-15.025
 20
-17.95
 11
-17.575
 21
-17.95
  0
LINE
  8
ゴム等
 10
-18.475
 20
-17.95
 11
-27.025
 21
-17.95
  0
LINE
  8
ゴム等
 10
-16.375
 20
-16.9
 11
-26.05
 21
-16.9
  0
LINE
  8
ゴム等
 10
-16.525
 20
-15.925
 11
-24.325
 21
-16.0
  0
LINE
  8
ゴム等
 10
-15.55
 20
-14.95
 11
-23.35
 21
-14.95
  0
LINE
  8
ゴム等
 10
-14.575
 20
-13.975
 11
-22.3
 21
-13.975
  0
LINE
  8
ゴム等
 10
-15.475
 20
-12.925
 11
-21.325
 21
-12.925
  0
LINE
  8
ゴム等
 10
-16.525
 20
-11.95
 11
-20.275
 21
-11.95
  0
LINE
  8
ゴム等
 10
-17.5
 20
-10.975
 11
-20.05
 21
-10.975
  0
LINE
  8
ゴム等
 10
-18.475
 20
-10.0
 11
-19.075
 21
-9.925
  0
ENDBLK
  0
BLOCK
  2
*HAT_0002
 70
    65
 10
0.0
 20
0.0
  0
LINE
  8
ゴム等
 10
-16.15
 20
-21.925
 11
-18.175
 21
-21.925
  0
LINE
  8
ゴム等
 10
-22.525
 20
-21.925
 11
-23.5
 21
-21.925
  0
LINE
  8
ゴム等
 10
-15.175
 20
-20.95
 11
-19.525
 21
-20.95
  0
LINE
  8
ゴム等
 10
-21.55
 20
-20.95
 11
-24.475
 21
-20.95
  0
LINE
  8
ゴム等
 10
-14.8
 20
-19.9
 11
-16.45
 21
-19.975
  0
LINE
  8
ゴム等
 10
-18.4
 20
-19.9
 11
-20.5
 21
-19.9
  0
LINE
  8
ゴム等
 10
-20.575
 20
-19.975
 11
-25.45
 21
-19.975
  0
LINE
  8
ゴム等
 10
-14.95
 20
-18.925
 11
-16.525
 21
-18.925
  0
LINE
  8
ゴム等
 10
-19.075
 20
-18.925
 11
-26.5
 21
-18.925
  0
LINE
  8
ゴム等
 10
-15.025
 20
-17.95
 11
-17.575
 21
-17.95
  0
LINE
  8
ゴム等
 10
-18.475
 20
-17.95
 11
-27.025
 21
-17.95
  0
LINE
  8
ゴム等
 10
-16.375
 20
-16.9
 11
-26.05
 21
-16.9
  0
LINE
  8
ゴム等
 10
-16.525
 20
-15.925
 11
-24.325
 21
-16.0
  0
LINE
  8
ゴム等
 10
-15.55
 20
-14.95
 11
-23.35
 21
-14.95
  0
LINE
  8
ゴム等
 10
-14.575
 20
-13.975
 11
-22.3
 21
-13.975
  0
LINE
  8
ゴム等
 10
-15.475
 20
-12.925
 11
-21.325
 21
-12.925
  0
LINE
  8
ゴム等
 10
-16.525
 20
-11.95
 11
-20.275
 21
-11.95
  0
LINE
  8
ゴム等
 10
-17.5
 20
-10.975
 11
-20.05
 21
-10.975
  0
LINE
  8
ゴム等
 10
-18.475
 20
-10.0
 11
-19.075
 21
-9.925
  0
ENDBLK
  0
BLOCK
  2
*HAT_0003
 70
    65
 10
0.0
 20
0.0
  0
LINE
  8
ゴム等
 10
-30.15
 20
-22.075
 11
-30.125
 21
-20.175
  0
LINE
  8
ゴム等
 10
-31.125
 20
-23.075
 11
-31.125
 21
-19.2
  0
LINE
  8
ゴム等
 10
-32.125
 20
-22.425
 11
-32.125
 21
-18.175
  0
LINE
  8
ゴム等
 10
-33.1
 20
-21.45
 11
-33.1
 21
-17.2
  0
LINE
  8
ゴム等
 10
-34.125
 20
-20.425
 11
-34.125
 21
-16.2
  0
LINE
  8
ゴム等
 10
-35.1
 20
-19.45
 11
-35.1
 21
-15.2
  0
LINE
  8
ゴム等
 10
-36.125
 20
-18.425
 11
-36.125
 21
-14.2
  0
LINE
  8
ゴム等
 10
-37.1
 20
-17.45
 11
-37.1
 21
-13.2
  0
LINE
  8
ゴム等
 10
-38.125
 20
-16.425
 11
-38.125
 21
-12.2
  0
LINE
  8
ゴム等
 10
-39.1
 20
-15.45
 11
-39.1
 21
-11.2
  0
LINE
  8
ゴム等
 10
-40.125
 20
-14.45
 11
-40.125
 21
-10.2
  0
LINE
  8
ゴム等
 10
-41.1
 20
-13.45
 11
-41.1
 21
-9.2
  0
LINE
  8
ゴム等
 10
-42.1
 20
-12.45
 11
-42.1
 21
-8.625
  0
LINE
  8
ゴム等
 10
-43.1
 20
-11.45
 11
-43.1
 21
-9.6
  0
ENDBLK
  0
BLOCK
  2
*HAT_0004
 70
    65
 10
0.0
 20
0.0
  0
LINE
  8
ゴム等
 10
-33.975
 20
-25.0
 11
-33.975
 21
-23.45
  0
LINE
  8
ゴム等
 10
-34.975
 20
-26.025
 11
-34.975
 21
-22.45
  0
LINE
  8
ゴム等
 10
-35.95
 20
-27.0
 11
-35.95
 21
-21.45
  0
LINE
  8
ゴム等
 10
-36.975
 20
-28.025
 11
-36.975
 21
-20.45
  0
LINE
  8
ゴム等
 10
-37.95
 20
-29.0
 11
-37.95
 21
-19.45
  0
LINE
  8
ゴム等
 10
-38.975
 20
-30.0
 11
-38.975
 21
-18.45
  0
LINE
  8
ゴム等
 10
-39.95
 20
-30.2
 11
-39.95
 21
-17.45
  0
LINE
  8
ゴム等
 10
-40.975
 20
-29.175
 11
-40.975
 21
-16.45
  0
LINE
  8
ゴム等
 10
-41.95
 20
-28.2
 11
-41.95
 21
-15.475
  0
LINE
  8
ゴム等
 10
-42.95
 20
-27.175
 11
-42.95
 21
-14.45
  0
LINE
  8
ゴム等
 10
-43.95
 20
-26.2
 11
-43.975
 21
-20.35
  0
LINE
  8
ゴム等
 10
-44.95
 20
-25.175
 11
-44.95
 21
-21.325
  0
LINE
  8
ゴム等
 10
-45.95
 20
-24.2
 11
-45.975
 21
-22.35
  0
LINE
  8
ゴム等
 10
-43.95
 20
-19.125
 11
-43.95
 21
-13.5
  0
LINE
  8
ゴム等
 10
-44.95
 20
-18.125
 11
-44.95
 21
-14.5
  0
LINE
  8
ゴム等
 10
-45.95
 20
-17.125
 11
-45.975
 21
-15.475
  0
ENDBLK
  0
BLOCK
  2
*HAT_0005
 70
    65
 10
0.0
 20
0.0
  0
LINE
  8
ゴム等
 10
-23.55
 20
-33.075
 11
-23.55
 21
-31.75
  0
LINE
  8
ゴム等
 10
-24.575
 20
-32.875
 11
-24.575
 21
-30.75
  0
LINE
  8
ゴム等
 10
-25.55
 20
-35.075
 11
-25.55
 21
-34.725
  0
LINE
  8
ゴム等
 10
-26.55
 20
-36.05
 11
-26.575
 21
-33.7
  0
LINE
  8
ゴム等
 10
-25.55
 20
-31.875
 11
-25.55
 21
-29.775
  0
LINE
  8
ゴム等
 10
-26.575
 20
-30.875
 11
-26.575
 21
-28.75
  0
LINE
  8
ゴム等
 10
-27.55
 20
-36.95
 11
-27.55
 21
-32.725
  0
LINE
  8
ゴム等
 10
-27.55
 20
-29.875
 11
-27.55
 21
-27.775
  0
LINE
  8
ゴム等
 10
-28.575
 20
-35.95
 11
-28.55
 21
-31.625
  0
LINE
  8
ゴム等
 10
-28.55
 20
-29.7
 11
-28.575
 21
-26.75
  0
LINE
  8
ゴム等
 10
-29.55
 20
-34.95
 11
-29.55
 21
-25.775
  0
LINE
  8
ゴム等
 10
-30.55
 20
-33.95
 11
-30.55
 21
-24.75
  0
LINE
  8
ゴム等
 10
-31.55
 20
-33.625
 11
-31.525
 21
-25.65
  0
LINE
  8
ゴム等
 10
-32.55
 20
-33.7
 11
-32.55
 21
-27.35
  0
LINE
  8
ゴム等
 10
-33.55
 20
-33.8
 11
-33.525
 21
-28.325
  0
LINE
  8
ゴム等
 10
-34.55
 20
-32.775
 11
-34.55
 21
-29.35
  0
LINE
  8
ゴム等
 10
-35.55
 20
-31.8
 11
-35.55
 21
-30.125
  0
LINE
  8
ゴム等
 10
-36.525
 20
-30.8
 11
-36.525
 21
-30.625
  0
ENDBLK
  0
BLOCK
  2
*HAT_0006
 70
    65
 10
0.0
 20
0.0
  0
LINE
  8
ゴム等
 10
-44.275
 20
-31.35
 11
-44.275
 21
-29.125
  0
LINE
  8
ゴム等
 10
-44.275
 20
-27.825
 11
-44.275
 21
-25.9
  0
LINE
  8
ゴム等
 10
-45.275
 20
-32.35
 11
-45.275
 21
-24.9
  0
LINE
  8
ゴム等
 10
-46.275
 20
-33.35
 11
-46.275
 21
-23.925
  0
LINE
  8
ゴム等
 10
-47.275
 20
-33.525
 11
-47.275
 21
-23.75
  0
LINE
  8
ゴム等
 10
-48.275
 20
-32.875
 11
-48.275
 21
-24.75
  0
LINE
  8
ゴム等
 10
-49.275
 20
-32.8
 11
-49.275
 21
-25.725
  0
LINE
  8
ゴム等
 10
-50.275
 20
-33.825
 11
-50.275
 21
-27.2
  0
LINE
  8
ゴム等
 10
-51.275
 20
-33.05
 11
-51.25
 21
-27.725
  0
LINE
  8
ゴム等
 10
-52.275
 20
-32.075
 11
-52.275
 21
-28.75
  0
LINE
  8
ゴム等
 10
-53.275
 20
-31.05
 11
-53.25
 21
-29.725
  0
ENDBLK
  0
BLOCK
  2
*HAT_0007
 70
    65
 10
0.0
 20
0.0
  0
LINE
  8
ゴム等
 10
-138.85
 20
77.425
 11
-140.85
 21
77.425
  0
LINE
  8
ゴム等
 10
-145.2
 20
77.425
 11
-146.15
 21
77.425
  0
LINE
  8
ゴム等
 10
-137.825
 20
78.425
 11
-142.175
 21
78.425
  0
LINE
  8
ゴム等
 10
-144.2
 20
78.425
 11
-147.175
 21
78.425
  0
LINE
  8
ゴム等
 10
-137.475
 20
79.425
 11
-139.1
 21
79.375
  0
LINE
  8
ゴム等
 10
-141.075
 20
79.425
 11
-143.15
 21
79.475
  0
LINE
  8
ゴム等
 10
-143.25
 20
79.375
 11
-148.125
 21
79.375
  0
LINE
  8
ゴム等
 10
-137.625
 20
80.45
 11
-139.225
 21
80.45
  0
LINE
  8
ゴム等
 10
-141.75
 20
80.45
 11
-149.175
 21
80.45
  0
LINE
  8
ゴム等
 10
-137.675
 20
81.45
 11
-140.225
 21
81.45
  0
LINE
  8
ゴム等
 10
-141.125
 20
81.4
 11
-149.725
 21
81.4
  0
LINE
  8
ゴム等
 10
-139.0
 20
82.45
 11
-148.7
 21
82.5
  0
LINE
  8
ゴム等
 10
-139.15
 20
83.45
 11
-147.0
 21
83.35
  0
LINE
  8
ゴム等
 10
-138.2
 20
84.425
 11
-146.05
 21
84.425
  0
LINE
  8
ゴム等
 10
-137.25
 20
85.375
 11
-145.0
 21
85.375
  0
LINE
  8
ゴム等
 10
-138.1
 20
86.425
 11
-143.975
 21
86.475
  0
LINE
  8
ゴム等
 10
-139.225
 20
87.45
 11
-142.925
 21
87.45
  0
LINE
  8
ゴム等
 10
-140.175
 20
88.4
 11
-142.725
 21
88.4
  0
LINE
  8
ゴム等
 10
-141.125
 20
89.35
 11
-141.75
 21
89.45
  0
ENDBLK
  0
BLOCK
  2
*HAT_0008
 70
    65
 10
0.0
 20
0.0
  0
LINE
  8
ゴム等
 10
-138.5
 20
58.525
 11
-138.5
 21
59.85
  0
LINE
  8
ゴム等
 10
-139.525
 20
58.725
 11
-139.525
 21
60.85
  0
LINE
  8
ゴム等
 10
-140.5
 20
56.525
 11
-140.5
 21
56.875
  0
LINE
  8
ゴム等
 10
-141.5
 20
55.55
 11
-141.525
 21
57.9
  0
LINE
  8
ゴム等
 10
-140.5
 20
59.725
 11
-140.5
 21
61.825
  0
LINE
  8
ゴム等
 10
-141.525
 20
60.725
 11
-141.525
 21
62.85
  0
LINE
  8
ゴム等
 10
-142.5
 20
54.65
 11
-142.5
 21
58.875
  0
LINE
  8
ゴム等
 10
-142.5
 20
61.725
 11
-142.5
 21
63.825
  0
LINE
  8
ゴム等
 10
-143.525
 20
55.65
 11
-143.5
 21
59.975
  0
LINE
  8
ゴム等
 10
-143.5
 20
61.9
 11
-143.525
 21
64.85
  0
LINE
  8
ゴム等
 10
-144.5
 20
56.65
 11
-144.5
 21
65.825
  0
LINE
  8
ゴム等
 10
-145.5
 20
57.65
 11
-145.5
 21
66.85
  0
LINE
  8
ゴム等
 10
-146.5
 20
57.975
 11
-146.475
 21
65.95
  0
LINE
  8
ゴム等
 10
-147.5
 20
57.9
 11
-147.5
 21
64.25
  0
LINE
  8
ゴム等
 10
-148.5
 20
57.8
 11
-148.475
 21
63.275
  0
LINE
  8
ゴム等
 10
-149.5
 20
58.825
 11
-149.5
 21
62.25
  0
LINE
  8
ゴム等
 10
-150.5
 20
59.8
 11
-150.5
 21
61.475
  0
LINE
  8
ゴム等
 10
-151.475
 20
60.8
 11
-151.475
 21
60.975
  0
ENDBLK
  0
BLOCK
  2
*HAT_0009
 70
    65
 10
0.0
 20
0.0
  0
LINE
  8
ゴム等
 10
-145.05
 20
69.525
 11
-145.025
 21
71.425
  0
LINE
  8
ゴム等
 10
-146.025
 20
68.525
 11
-146.025
 21
72.4
  0
LINE
  8
ゴム等
 10
-147.025
 20
69.175
 11
-147.025
 21
73.425
  0
LINE
  8
ゴム等
 10
-148.0
 20
70.15
 11
-148.0
 21
74.4
  0
LINE
  8
ゴム等
 10
-149.025
 20
71.175
 11
-149.025
 21
75.4
  0
LINE
  8
ゴム等
 10
-150.0
 20
72.15
 11
-150.0
 21
76.4
  0
LINE
  8
ゴム等
 10
-151.025
 20
73.175
 11
-151.025
 21
77.4
  0
LINE
  8
ゴム等
 10
-152.0
 20
74.15
 11
-152.0
 21
78.4
  0
LINE
  8
ゴム等
 10
-153.025
 20
75.175
 11
-153.025
 21
79.4
  0
LINE
  8
ゴム等
 10
-154.0
 20
76.15
 11
-154.0
 21
80.4
  0
LINE
  8
ゴム等
 10
-155.025
 20
77.15
 11
-155.025
 21
81.4
  0
LINE
  8
ゴム等
 10
-156.0
 20
78.15
 11
-156.0
 21
82.4
  0
LINE
  8
ゴム等
 10
-157.0
 20
79.15
 11
-157.0
 21
82.975
  0
LINE
  8
ゴム等
 10
-158.0
 20
80.15
 11
-158.0
 21
82.0
  0
ENDBLK
  0
BLOCK
  2
*HAT_0010
 70
    65
 10
0.0
 20
0.0
  0
LINE
  8
St
  6
CONTINUOUS
 10
-65.5
 20
-25.175
 11
-62.6
 21
-25.175
  0
LINE
  8
St
  6
CONTINUOUS
 10
-71.6
 20
-24.675
 11
-71.325
 21
-24.675
  0
LINE
  8
St
  6
CONTINUOUS
 10
-70.95
 20
-24.675
 11
-70.25
 21
-24.675
  0
LINE
  8
St
  6
CONTINUOUS
 10
-65.65
 20
-24.675
 11
-62.575
 21
-24.675
  0
LINE
  8
St
  6
CONTINUOUS
 10
-72.25
 20
-24.175
 11
-69.775
 21
-24.175
  0
LINE
  8
St
  6
CONTINUOUS
 10
-66.55
 20
-24.175
 11
-62.625
 21
-24.175
  0
LINE
  8
St
  6
CONTINUOUS
 10
-71.75
 20
-23.675
 11
-69.35
 21
-23.675
  0
LINE
  8
St
  6
CONTINUOUS
 10
-66.65
 20
-23.675
 11
-63.65
 21
-23.675
  0
LINE
  8
St
  6
CONTINUOUS
 10
-71.25
 20
-23.175
 11
-68.9
 21
-23.175
  0
LINE
  8
St
  6
CONTINUOUS
 10
-67.625
 20
-23.175
 11
-63.625
 21
-23.175
  0
LINE
  8
St
  6
CONTINUOUS
 10
-70.75
 20
-22.675
 11
-68.45
 21
-22.675
  0
LINE
  8
St
  6
CONTINUOUS
 10
-67.65
 20
-22.675
 11
-64.825
 21
-22.675
  0
LINE
  8
St
  6
CONTINUOUS
 10
-70.25
 20
-22.175
 11
-65.3
 21
-22.175
  0
LINE
  8
St
  6
CONTINUOUS
 10
-62.1
 20
-22.175
 11
-59.225
 21
-22.175
  0
LINE
  8
St
  6
CONTINUOUS
 10
-69.75
 20
-21.675
 11
-65.8
 21
-21.675
  0
LINE
  8
St
  6
CONTINUOUS
 10
-69.25
 20
-21.175
 11
-65.3
 21
-21.175
  0
LINE
  8
St
  6
CONTINUOUS
 10
-62.175
 20
-21.675
 11
-58.725
 21
-21.675
  0
LINE
  8
St
  6
CONTINUOUS
 10
-61.75
 20
-21.175
 11
-58.225
 21
-21.175
  0
LINE
  8
St
  6
CONTINUOUS
 10
-68.75
 20
-20.675
 11
-64.8
 21
-20.675
  0
LINE
  8
St
  6
CONTINUOUS
 10
-68.25
 20
-20.175
 11
-64.3
 21
-20.175
  0
LINE
  8
St
  6
CONTINUOUS
 10
-67.75
 20
-19.675
 11
-63.8
 21
-19.675
  0
LINE
  8
St
  6
CONTINUOUS
 10
-62.2
 20
-20.675
 11
-57.725
 21
-20.675
  0
LINE
  8
St
  6
CONTINUOUS
 10
-62.7
 20
-20.175
 11
-57.225
 21
-20.175
  0
LINE
  8
St
  6
CONTINUOUS
 10
-63.225
 20
-19.675
 11
-56.725
 21
-19.675
  0
LINE
  8
St
  6
CONTINUOUS
 10
-67.25
 20
-19.175
 11
-60.175
 21
-19.175
  0
LINE
  8
St
  6
CONTINUOUS
 10
-66.75
 20
-18.675
 11
-60.65
 21
-18.675
  0
LINE
  8
St
  6
CONTINUOUS
 10
-58.35
 20
-19.175
 11
-56.225
 21
-19.175
  0
LINE
  8
St
  6
CONTINUOUS
 10
-57.85
 20
-18.675
 11
-55.725
 21
-18.675
  0
LINE
  8
St
  6
CONTINUOUS
 10
-66.25
 20
-18.175
 11
-61.15
 21
-18.175
  0
LINE
  8
St
  6
CONTINUOUS
 10
-57.575
 20
-18.175
 11
-55.225
 21
-18.175
  0
LINE
  8
St
  6
CONTINUOUS
 10
-65.75
 20
-17.675
 11
-61.3
 21
-17.675
  0
LINE
  8
St
  6
CONTINUOUS
 10
-57.6
 20
-17.675
 11
-54.775
 21
-17.675
  0
LINE
  8
St
  6
CONTINUOUS
 10
-65.25
 20
-17.175
 11
-61.2
 21
-17.175
  0
LINE
  8
St
  6
CONTINUOUS
 10
-57.925
 20
-17.175
 11
-54.8
 21
-17.175
  0
LINE
  8
St
  6
CONTINUOUS
 10
-64.75
 20
-16.675
 11
-60.8
 21
-16.675
  0
LINE
  8
St
  6
CONTINUOUS
 10
-58.45
 20
-16.675
 11
-54.825
 21
-16.675
  0
LINE
  8
St
  6
CONTINUOUS
 10
-64.275
 20
-16.175
 11
-60.25
 21
-16.175
  0
LINE
  8
St
  6
CONTINUOUS
 10
-58.95
 20
-16.175
 11
-54.825
 21
-16.175
  0
LINE
  8
St
  6
CONTINUOUS
 10
-63.775
 20
-15.675
 11
-54.875
 21
-15.675
  0
LINE
  8
St
  6
CONTINUOUS
 10
-63.275
 20
-15.175
 11
-56.4
 21
-15.175
  0
LINE
  8
St
  6
CONTINUOUS
 10
-55.775
 20
-15.175
 11
-54.975
 21
-15.175
  0
LINE
  8
St
  6
CONTINUOUS
 10
-62.775
 20
-14.675
 11
-56.9
 21
-14.675
  0
LINE
  8
St
  6
CONTINUOUS
 10
-52.9
 20
-14.675
 11
-52.85
 21
-14.675
  0
LINE
  8
St
  6
CONTINUOUS
 10
-62.275
 20
-14.175
 11
-57.4
 21
-14.175
  0
LINE
  8
St
  6
CONTINUOUS
 10
-53.125
 20
-14.175
 11
-51.65
 21
-14.175
  0
LINE
  8
St
  6
CONTINUOUS
 10
-61.775
 20
-13.675
 11
-57.8
 21
-13.675
  0
LINE
  8
St
  6
CONTINUOUS
 10
-53.3
 20
-13.675
 11
-51.625
 21
-13.675
  0
LINE
  8
St
  6
CONTINUOUS
 10
-61.275
 20
-13.175
 11
-57.3
 21
-13.175
  0
LINE
  8
St
  6
CONTINUOUS
 10
-54.175
 20
-13.175
 11
-51.625
 21
-13.175
  0
LINE
  8
St
  6
CONTINUOUS
 10
-60.775
 20
-12.675
 11
-56.8
 21
-12.675
  0
LINE
  8
St
  6
CONTINUOUS
 10
-60.275
 20
-12.175
 11
-56.3
 21
-12.175
  0
LINE
  8
St
  6
CONTINUOUS
 10
-54.3
 20
-12.675
 11
-51.6
 21
-12.675
  0
LINE
  8
St
  6
CONTINUOUS
 10
-54.8
 20
-12.175
 11
-51.6
 21
-12.175
  0
LINE
  8
St
  6
CONTINUOUS
 10
-59.775
 20
-11.7
 11
-55.8
 21
-11.7
  0
LINE
  8
St
  6
CONTINUOUS
 10
-55.3
 20
-11.7
 11
-52.45
 21
-11.7
  0
LINE
  8
St
  6
CONTINUOUS
 10
-59.275
 20
-11.2
 11
-52.675
 21
-11.2
  0
LINE
  8
St
  6
CONTINUOUS
 10
-58.775
 20
-10.7
 11
-53.45
 21
-10.7
  0
LINE
  8
St
  6
CONTINUOUS
 10
-53.2
 20
-10.7
 11
-52.775
 21
-10.7
  0
LINE
  8
St
  6
CONTINUOUS
 10
-58.275
 20
-10.2
 11
-53.75
 21
-10.2
  0
LINE
  8
St
  6
CONTINUOUS
 10
-57.775
 20
-9.7
 11
-53.75
 21
-9.7
  0
LINE
  8
St
  6
CONTINUOUS
 10
-57.275
 20
-9.2
 11
-54.95
 21
-9.2
  0
LINE
  8
St
  6
CONTINUOUS
 10
-56.775
 20
-8.7
 11
-54.45
 21
-8.7
  0
LINE
  8
St
  6
CONTINUOUS
 10
-56.275
 20
-8.2
 11
-53.9
 21
-8.2
  0
LINE
  8
St
  6
CONTINUOUS
 10
-55.775
 20
-7.7
 11
-53.35
 21
-7.7
  0
LINE
  8
St
  6
CONTINUOUS
 10
-55.275
 20
-7.2
 11
-52.775
 21
-7.2
  0
LINE
  8
St
  6
CONTINUOUS
 10
-54.775
 20
-6.7
 11
-52.225
 21
-6.7
  0
LINE
  8
St
  6
CONTINUOUS
 10
-54.275
 20
-6.2
 11
-52.65
 21
-6.2
  0
LINE
  8
St
  6
CONTINUOUS
 10
-53.775
 20
-5.7
 11
-52.525
 21
-5.7
  0
LINE
  8
St
  6
CONTINUOUS
 10
-53.05
 20
-5.2
 11
-51.825
 21
-5.2
  0
LINE
  8
St
  6
CONTINUOUS
 10
-51.925
 20
-4.7
 11
-50.725
 21
-4.7
  0
LINE
  8
St
  6
CONTINUOUS
 10
-50.8
 20
-4.2
 11
-49.725
 21
-4.2
  0
ENDBLK
  0
BLOCK
  2
*HAT_0011
 70
    65
 10
0.0
 20
0.0
  0
LINE
  8
ゴム等
 10
-28.525
 20
5.675
 11
-28.525
 21
6.4
  0
LINE
  8
ゴム等
 10
-29.125
 20
5.2
 11
-29.1
 21
6.4
  0
LINE
  8
ゴム等
 10
-29.725
 20
4.75
 11
-29.725
 21
6.3
  0
LINE
  8
ゴム等
 10
-30.3
 20
4.225
 11
-30.3
 21
6.225
  0
LINE
  8
ゴム等
 10
-30.9
 20
3.75
 11
-30.9
 21
6.1
  0
LINE
  8
ゴム等
 10
-31.5
 20
3.2
 11
-31.5
 21
6.05
  0
LINE
  8
ゴム等
 10
-32.1
 20
2.65
 11
-32.1
 21
6.0
  0
LINE
  8
ゴム等
 10
-32.7
 20
2.075
 11
-32.7
 21
6.05
  0
LINE
  8
ゴム等
 10
-33.325
 20
1.5
 11
-33.325
 21
6.075
  0
LINE
  8
ゴム等
 10
-33.925
 20
0.25
 11
-33.9
 21
0.775
  0
LINE
  8
ゴム等
 10
-33.925
 20
0.95
 11
-33.925
 21
6.1
  0
LINE
  8
ゴム等
 10
-34.525
 20
0.0
 11
-34.525
 21
6.15
  0
LINE
  8
ゴム等
 10
-35.1
 20
0.475
 11
-35.125
 21
6.15
  0
LINE
  8
ゴム等
 10
-35.7
 20
-0.125
 11
-35.7
 21
6.15
  0
LINE
  8
ゴム等
 10
-36.3
 20
-0.725
 11
-36.3
 21
2.375
  0
LINE
  8
ゴム等
 10
-36.9
 20
-1.325
 11
-36.9
 21
1.825
  0
LINE
  8
ゴム等
 10
-36.3
 20
4.225
 11
-36.3
 21
6.15
  0
LINE
  8
ゴム等
 10
-36.9
 20
4.325
 11
-36.9
 21
6.15
  0
LINE
  8
ゴム等
 10
-37.5
 20
-1.925
 11
-37.5
 21
1.25
  0
LINE
  8
ゴム等
 10
-38.1
 20
-2.525
 11
-38.1
 21
0.65
  0
LINE
  8
ゴム等
 10
-37.5
 20
4.05
 11
-37.5
 21
6.05
  0
LINE
  8
ゴム等
 10
-38.1
 20
3.725
 11
-38.1
 21
5.875
  0
LINE
  8
ゴム等
 10
-38.7
 20
-3.125
 11
-38.7
 21
0.075
  0
LINE
  8
ゴム等
 10
-38.7
 20
3.375
 11
-38.7
 21
5.7
  0
LINE
  8
ゴム等
 10
-39.3
 20
-5.15
 11
-39.3
 21
-4.475
  0
LINE
  8
ゴム等
 10
-39.3
 20
-3.75
 11
-39.3
 21
-0.475
  0
LINE
  8
ゴム等
 10
-39.3
 20
3.025
 11
-39.3
 21
5.45
  0
LINE
  8
ゴム等
 10
-39.9
 20
-5.25
 11
-39.9
 21
-1.05
  0
LINE
  8
ゴム等
 10
-39.9
 20
2.65
 11
-39.9
 21
5.1
  0
LINE
  8
ゴム等
 10
-40.5
 20
-5.625
 11
-40.5
 21
-1.6
  0
LINE
  8
ゴム等
 10
-40.5
 20
2.3
 11
-40.5
 21
4.75
  0
LINE
  8
ゴム等
 10
-41.1
 20
-5.4
 11
-41.1
 21
-0.85
  0
LINE
  8
ゴム等
 10
-41.1
 20
1.9
 11
-41.1
 21
4.3
  0
LINE
  8
ゴム等
 10
-41.7
 20
-4.8
 11
-41.7
 21
-1.425
  0
LINE
  8
ゴム等
 10
-42.3
 20
-4.2
 11
-42.3
 21
-2.0
  0
LINE
  8
ゴム等
 10
-42.9
 20
-3.6
 11
-42.9
 21
-2.6
  0
LINE
  8
ゴム等
 10
-41.7
 20
1.35
 11
-41.7
 21
3.725
  0
LINE
  8
ゴム等
 10
-42.3
 20
0.775
 11
-42.3
 21
3.15
  0
LINE
  8
ゴム等
 10
-42.9
 20
0.2
 11
-42.9
 21
2.575
  0
LINE
  8
ゴム等
 10
-43.5
 20
-0.4
 11
-43.5
 21
1.975
  0
LINE
  8
ゴム等
 10
-44.1
 20
-0.975
 11
-44.1
 21
1.375
  0
LINE
  8
ゴム等
 10
-44.7
 20
-1.525
 11
-44.7
 21
0.775
  0
LINE
  8
ゴム等
 10
-45.3
 20
-12.55
 11
-45.3
 21
-12.1
  0
LINE
  8
ゴム等
 10
-45.875
 20
-13.15
 11
-45.9
 21
-11.5
  0
LINE
  8
ゴム等
 10
-46.475
 20
-13.75
 11
-46.5
 21
-10.9
  0
LINE
  8
ゴム等
 10
-47.075
 20
-14.35
 11
-47.1
 21
-10.3
  0
LINE
  8
ゴム等
 10
-45.3
 20
-2.125
 11
-45.3
 21
0.175
  0
LINE
  8
ゴム等
 10
-45.9
 20
-2.7
 11
-45.875
 21
-0.425
  0
LINE
  8
ゴム等
 10
-46.475
 20
-3.275
 11
-46.475
 21
-1.025
  0
LINE
  8
ゴム等
 10
-47.075
 20
-3.85
 11
-47.075
 21
-1.625
  0
LINE
  8
ゴム等
 10
-47.675
 20
-14.95
 11
-47.675
 21
-13.525
  0
LINE
  8
ゴム等
 10
-47.7
 20
-12.8
 11
-47.675
 21
-7.65
  0
LINE
  8
ゴム等
 10
-47.675
 20
-4.45
 11
-47.675
 21
-2.225
  0
LINE
  8
ゴム等
 10
-48.275
 20
-14.775
 11
-48.275
 21
-14.125
  0
LINE
  8
ゴム等
 10
-48.275
 20
-12.225
 11
-48.275
 21
-7.8
  0
LINE
  8
ゴム等
 10
-48.275
 20
-5.0
 11
-48.275
 21
-2.825
  0
LINE
  8
ゴム等
 10
-48.875
 20
-11.625
 11
-48.875
 21
-8.5
  0
LINE
  8
ゴム等
 10
-49.5
 20
-11.025
 11
-49.5
 21
-7.9
  0
LINE
  8
ゴム等
 10
-50.1
 20
-10.425
 11
-50.1
 21
-7.3
  0
LINE
  8
ゴム等
 10
-48.875
 20
-5.6
 11
-48.875
 21
-3.425
  0
LINE
  8
ゴム等
 10
-49.5
 20
-6.175
 11
-49.5
 21
-4.025
  0
LINE
  8
ゴム等
 10
-50.1
 20
-6.75
 11
-50.1
 21
-4.625
  0
LINE
  8
ゴム等
 10
-50.7
 20
-9.825
 11
-50.7
 21
-5.225
  0
LINE
  8
ゴム等
 10
-51.3
 20
-9.225
 11
-51.275
 21
-5.8
  0
LINE
  8
ゴム等
 10
-51.9
 20
-8.625
 11
-51.875
 21
-6.4
  0
LINE
  8
ゴム等
 10
-52.5
 20
-8.025
 11
-52.475
 21
-7.0
  0
ENDBLK
  0
BLOCK
  2
*HAT_0012
 70
    65
 10
0.0
 20
0.0
  0
LINE
  8
ゴム等
 10
-38.675
 20
-3.975
 11
-38.25
 21
-3.975
  0
LINE
  8
ゴム等
 10
-38.875
 20
-3.375
 11
-37.55
 21
-3.375
  0
LINE
  8
ゴム等
 10
-38.375
 20
-2.775
 11
-36.95
 21
-2.775
  0
LINE
  8
ゴム等
 10
-37.775
 20
-2.175
 11
-36.35
 21
-2.175
  0
LINE
  8
ゴム等
 10
-37.175
 20
-1.6
 11
-35.75
 21
-1.6
  0
LINE
  8
ゴム等
 10
-36.575
 20
-1.0
 11
-35.2
 21
-1.0
  0
LINE
  8
ゴム等
 10
-35.975
 20
-0.4
 11
-35.25
 21
-0.4
  0
LINE
  8
ゴム等
 10
-35.15
 20
-0.9
 11
-35.15
 21
-0.6
  0
LINE
  8
ゴム等
 10
-35.75
 20
-1.6
 11
-35.75
 21
-0.3
  0
LINE
  8
ゴム等
 10
-36.35
 20
-2.2
 11
-36.35
 21
-0.775
  0
LINE
  8
ゴム等
 10
-36.95
 20
-2.8
 11
-36.95
 21
-1.375
  0
LINE
  8
ゴム等
 10
-37.55
 20
-3.4
 11
-37.55
 21
-1.975
  0
LINE
  8
ゴム等
 10
-38.15
 20
-3.95
 11
-38.15
 21
-2.575
  0
LINE
  8
ゴム等
 10
-38.75
 20
-3.875
 11
-38.75
 21
-3.175
  0
ENDBLK
  0
BLOCK
  2
*HAT_0013
 70
    65
 10
0.0
 20
0.0
  0
LINE
  8
ゴム等
 10
-143.425
 20
97.275
 11
-143.425
 21
98.0
  0
LINE
  8
ゴム等
 10
-144.025
 20
96.8
 11
-144.0
 21
98.0
  0
LINE
  8
ゴム等
 10
-144.625
 20
96.35
 11
-144.625
 21
97.9
  0
LINE
  8
ゴム等
 10
-145.2
 20
95.825
 11
-145.2
 21
97.825
  0
LINE
  8
ゴム等
 10
-145.8
 20
95.35
 11
-145.8
 21
97.7
  0
LINE
  8
ゴム等
 10
-146.4
 20
94.8
 11
-146.4
 21
97.65
  0
LINE
  8
ゴム等
 10
-147.0
 20
94.25
 11
-147.0
 21
97.6
  0
LINE
  8
ゴム等
 10
-147.6
 20
93.675
 11
-147.6
 21
97.65
  0
LINE
  8
ゴム等
 10
-148.225
 20
93.1
 11
-148.225
 21
97.675
  0
LINE
  8
ゴム等
 10
-148.825
 20
91.85
 11
-148.8
 21
92.375
  0
LINE
  8
ゴム等
 10
-148.825
 20
92.55
 11
-148.825
 21
97.7
  0
LINE
  8
ゴム等
 10
-149.425
 20
91.6
 11
-149.425
 21
97.75
  0
LINE
  8
ゴム等
 10
-150.0
 20
92.075
 11
-150.025
 21
97.75
  0
LINE
  8
ゴム等
 10
-150.6
 20
91.475
 11
-150.6
 21
97.75
  0
LINE
  8
ゴム等
 10
-151.2
 20
90.875
 11
-151.2
 21
93.975
  0
LINE
  8
ゴム等
 10
-151.8
 20
90.275
 11
-151.8
 21
93.425
  0
LINE
  8
ゴム等
 10
-151.2
 20
95.825
 11
-151.2
 21
97.75
  0
LINE
  8
ゴム等
 10
-151.8
 20
95.925
 11
-151.8
 21
97.75
  0
LINE
  8
ゴム等
 10
-152.4
 20
89.675
 11
-152.4
 21
92.85
  0
LINE
  8
ゴム等
 10
-153.0
 20
89.075
 11
-153.0
 21
92.25
  0
LINE
  8
ゴム等
 10
-152.4
 20
95.65
 11
-152.4
 21
97.65
  0
LINE
  8
ゴム等
 10
-153.0
 20
95.325
 11
-153.0
 21
97.475
  0
LINE
  8
ゴム等
 10
-153.6
 20
88.475
 11
-153.6
 21
91.675
  0
LINE
  8
ゴム等
 10
-153.6
 20
94.975
 11
-153.6
 21
97.3
  0
LINE
  8
ゴム等
 10
-154.2
 20
86.45
 11
-154.2
 21
87.125
  0
LINE
  8
ゴム等
 10
-154.2
 20
87.85
 11
-154.2
 21
91.125
  0
LINE
  8
ゴム等
 10
-154.2
 20
94.625
 11
-154.2
 21
97.05
  0
LINE
  8
ゴム等
 10
-154.8
 20
86.35
 11
-154.8
 21
90.55
  0
LINE
  8
ゴム等
 10
-154.8
 20
94.25
 11
-154.8
 21
96.7
  0
LINE
  8
ゴム等
 10
-155.4
 20
85.975
 11
-155.4
 21
90.0
  0
LINE
  8
ゴム等
 10
-155.4
 20
93.9
 11
-155.4
 21
96.35
  0
LINE
  8
ゴム等
 10
-156.0
 20
86.2
 11
-156.0
 21
90.75
  0
LINE
  8
ゴム等
 10
-156.0
 20
93.5
 11
-156.0
 21
95.9
  0
LINE
  8
ゴム等
 10
-156.6
 20
86.8
 11
-156.6
 21
90.175
  0
LINE
  8
ゴム等
 10
-157.2
 20
87.4
 11
-157.2
 21
89.6
  0
LINE
  8
ゴム等
 10
-157.8
 20
88.0
 11
-157.8
 21
89.0
  0
LINE
  8
ゴム等
 10
-156.6
 20
92.95
 11
-156.6
 21
95.325
  0
LINE
  8
ゴム等
 10
-157.2
 20
92.375
 11
-157.2
 21
94.75
  0
LINE
  8
ゴム等
 10
-157.8
 20
91.8
 11
-157.8
 21
94.175
  0
LINE
  8
ゴム等
 10
-158.4
 20
91.2
 11
-158.4
 21
93.575
  0
LINE
  8
ゴム等
 10
-159.0
 20
90.625
 11
-159.0
 21
92.975
  0
LINE
  8
ゴム等
 10
-159.6
 20
90.075
 11
-159.6
 21
92.375
  0
LINE
  8
ゴム等
 10
-160.2
 20
79.05
 11
-160.2
 21
79.5
  0
LINE
  8
ゴム等
 10
-160.775
 20
78.45
 11
-160.8
 21
80.1
  0
LINE
  8
ゴム等
 10
-161.375
 20
77.85
 11
-161.4
 21
80.7
  0
LINE
  8
ゴム等
 10
-161.975
 20
77.25
 11
-162.0
 21
81.3
  0
LINE
  8
ゴム等
 10
-160.2
 20
89.475
 11
-160.2
 21
91.775
  0
LINE
  8
ゴム等
 10
-160.8
 20
88.9
 11
-160.775
 21
91.175
  0
LINE
  8
ゴム等
 10
-161.375
 20
88.325
 11
-161.375
 21
90.575
  0
LINE
  8
ゴム等
 10
-161.975
 20
87.75
 11
-161.975
 21
89.975
  0
LINE
  8
ゴム等
 10
-162.575
 20
76.65
 11
-162.575
 21
78.075
  0
LINE
  8
ゴム等
 10
-162.6
 20
78.8
 11
-162.575
 21
83.95
  0
LINE
  8
ゴム等
 10
-162.575
 20
87.15
 11
-162.575
 21
89.375
  0
LINE
  8
ゴム等
 10
-163.175
 20
76.825
 11
-163.175
 21
77.475
  0
LINE
  8
ゴム等
 10
-163.175
 20
79.375
 11
-163.175
 21
83.8
  0
LINE
  8
ゴム等
 10
-163.175
 20
86.6
 11
-163.175
 21
88.775
  0
LINE
  8
ゴム等
 10
-163.775
 20
79.975
 11
-163.775
 21
83.1
  0
LINE
  8
ゴム等
 10
-164.4
 20
80.575
 11
-164.4
 21
83.7
  0
LINE
  8
ゴム等
 10
-165.0
 20
81.175
 11
-165.0
 21
84.3
  0
LINE
  8
ゴム等
 10
-163.775
 20
86.0
 11
-163.775
 21
88.175
  0
LINE
  8
ゴム等
 10
-164.4
 20
85.425
 11
-164.4
 21
87.575
  0
LINE
  8
ゴム等
 10
-165.0
 20
84.85
 11
-165.0
 21
86.975
  0
LINE
  8
ゴム等
 10
-165.6
 20
81.775
 11
-165.6
 21
86.375
  0
LINE
  8
ゴム等
 10
-166.2
 20
82.375
 11
-166.175
 21
85.8
  0
LINE
  8
ゴム等
 10
-166.8
 20
82.975
 11
-166.775
 21
85.2
  0
LINE
  8
ゴム等
 10
-167.4
 20
83.575
 11
-167.375
 21
84.6
  0
ENDBLK
  0
BLOCK
  2
*HAT_0014
 70
    65
 10
0.0
 20
0.0
  0
LINE
  8
ゴム等
 10
-153.575
 20
87.625
 11
-153.15
 21
87.625
  0
LINE
  8
ゴム等
 10
-153.775
 20
88.225
 11
-152.45
 21
88.225
  0
LINE
  8
ゴム等
 10
-153.275
 20
88.825
 11
-151.85
 21
88.825
  0
LINE
  8
ゴム等
 10
-152.675
 20
89.425
 11
-151.25
 21
89.425
  0
LINE
  8
ゴム等
 10
-152.075
 20
90.0
 11
-150.65
 21
90.0
  0
LINE
  8
ゴム等
 10
-151.475
 20
90.6
 11
-150.1
 21
90.6
  0
LINE
  8
ゴム等
 10
-150.875
 20
91.2
 11
-150.15
 21
91.2
  0
LINE
  8
ゴム等
 10
-150.05
 20
90.7
 11
-150.05
 21
91.0
  0
LINE
  8
ゴム等
 10
-150.65
 20
90.0
 11
-150.65
 21
91.3
  0
LINE
  8
ゴム等
 10
-151.25
 20
89.4
 11
-151.25
 21
90.825
  0
LINE
  8
ゴム等
 10
-151.85
 20
88.8
 11
-151.85
 21
90.225
  0
LINE
  8
ゴム等
 10
-152.45
 20
88.2
 11
-152.45
 21
89.625
  0
LINE
  8
ゴム等
 10
-153.05
 20
87.65
 11
-153.05
 21
89.025
  0
LINE
  8
ゴム等
 10
-153.65
 20
87.725
 11
-153.65
 21
88.425
  0
ENDBLK
  0
BLOCK
  2
*HAT_0015
 70
    65
 10
0.0
 20
0.0
  0
LINE
  8
ゴム等
 10
-17.275
 20
-64.775
 11
-18.325
 21
-65.825
  0
LINE
  8
ゴム等
 10
-16.825
 20
-65.725
 11
-18.325
 21
-67.225
  0
LINE
  8
ゴム等
 10
-14.45
 20
-64.775
 11
-14.825
 21
-65.15
  0
LINE
  8
ゴム等
 10
-13.025
 20
-64.75
 11
-14.825
 21
-66.525
  0
LINE
  8
ゴム等
 10
-16.825
 20
-67.15
 11
-18.325
 21
-68.65
  0
LINE
  8
ゴム等
 10
-16.825
 20
-68.55
 11
-18.325
 21
-70.025
  0
LINE
  8
ゴム等
 10
-11.825
 20
-64.975
 11
-14.8
 21
-67.95
  0
LINE
  8
ゴム等
 10
-16.825
 20
-69.975
 11
-18.325
 21
-71.475
  0
LINE
  8
ゴム等
 10
-11.825
 20
-66.375
 11
-15.05
 21
-69.625
  0
LINE
  8
ゴム等
 10
-16.1
 20
-70.65
 11
-18.325
 21
-72.85
  0
LINE
  8
ゴム等
 10
-11.825
 20
-67.8
 11
-18.325
 21
-74.3
  0
LINE
  8
ゴム等
 10
-11.825
 20
-69.2
 11
-18.25
 21
-75.6
  0
LINE
  8
ゴム等
 10
-11.275
 20
-70.075
 11
-16.825
 21
-75.65
  0
LINE
  8
ゴム等
 10
-10.425
 20
-70.65
 11
-14.95
 21
-75.175
  0
LINE
  8
ゴム等
 10
-9.825
 20
-71.45
 11
-13.55
 21
-75.15
  0
LINE
  8
ゴム等
 10
-9.825
 20
-72.825
 11
-12.15
 21
-75.175
  0
LINE
  8
ゴム等
 10
-9.825
 20
-74.275
 11
-11.0
 21
-75.425
  0
ENDBLK
  0
BLOCK
  2
*HAT_0016
 70
    65
 10
0.0
 20
0.0
  0
LINE
  8
別途部材
  6
DOT
 10
-62.65
 20
-85.075
 11
-62.425
 21
-84.85
  0
LINE
  8
別途部材
  6
DOT
 10
-65.125
 20
-85.075
 11
-62.425
 21
-82.3
  0
LINE
  8
別途部材
  6
DOT
 10
-67.675
 20
-85.075
 11
-62.425
 21
-79.75
  0
LINE
  8
別途部材
  6
DOT
 10
-70.225
 20
-85.075
 11
-62.425
 21
-77.2
  0
LINE
  8
別途部材
  6
DOT
 10
-72.4
 20
-84.7
 11
-62.8
 21
-75.025
  0
LINE
  8
別途部材
  6
DOT
 10
-72.4
 20
-82.15
 11
-65.35
 21
-75.025
  0
LINE
  8
別途部材
  6
DOT
 10
-72.4
 20
-79.6
 11
-67.825
 21
-75.025
  0
LINE
  8
別途部材
  6
DOT
 10
-72.4
 20
-77.05
 11
-70.375
 21
-75.025
  0
ENDBLK
  0
BLOCK
  2
*HAT_0017
 70
    65
 10
0.0
 20
0.0
  0
LINE
  8
型材断面
 10
-3.825
 20
-77.25
 11
-3.325
 21
-76.725
  0
LINE
  8
型材断面
 10
-5.25
 20
-77.25
 11
-3.325
 21
-75.325
  0
LINE
  8
型材断面
 10
-6.65
 20
-77.25
 11
-3.325
 21
-73.9
  0
LINE
  8
型材断面
 10
-8.075
 20
-77.25
 11
-3.325
 21
-72.5
  0
LINE
  8
型材断面
 10
-9.475
 20
-77.25
 11
-3.325
 21
-71.1
  0
LINE
  8
型材断面
 10
-9.85
 20
-76.225
 11
-3.9
 21
-70.25
  0
LINE
  8
型材断面
 10
-9.85
 20
-74.8
 11
-5.3
 21
-70.25
  0
LINE
  8
型材断面
 10
-9.85
 20
-73.4
 11
-6.725
 21
-70.25
  0
LINE
  8
型材断面
 10
-9.85
 20
-71.975
 11
-8.125
 21
-70.25
  0
LINE
  8
型材断面
 10
-9.85
 20
-70.575
 11
-9.55
 21
-70.25
  0
LINE
  8
型材断面
 10
-9.85
 20
-76.3
 11
-8.9
 21
-77.25
  0
LINE
  8
型材断面
 10
-9.85
 20
-74.875
 11
-7.5
 21
-77.25
  0
LINE
  8
型材断面
 10
-9.85
 20
-73.475
 11
-6.075
 21
-77.25
  0
LINE
  8
型材断面
 10
-9.85
 20
-72.05
 11
-4.675
 21
-77.25
  0
LINE
  8
型材断面
 10
-9.85
 20
-70.65
 11
-3.325
 21
-77.2
  0
LINE
  8
型材断面
 10
-8.825
 20
-70.25
 11
-3.325
 21
-75.775
  0
LINE
  8
型材断面
 10
-7.425
 20
-70.25
 11
-3.325
 21
-74.375
  0
LINE
  8
型材断面
 10
-6.025
 20
-70.25
 11
-3.325
 21
-72.95
  0
LINE
  8
型材断面
 10
-4.6
 20
-70.25
 11
-3.325
 21
-71.55
  0
ENDBLK
  0
BLOCK
  2
*HAT_0018
 70
    65
 10
0.0
 20
0.0
  0
LINE
  8
その他部品等
 10
-21.625
 20
-95.025
 11
-20.325
 21
-93.725
  0
LINE
  8
その他部品等
 10
-23.825
 20
-95.825
 11
-20.325
 21
-92.325
  0
LINE
  8
その他部品等
 10
-26.025
 20
-96.625
 11
-20.375
 21
-90.975
  0
LINE
  8
その他部品等
 10
-28.225
 20
-97.4
 11
-21.825
 21
-91.025
  0
LINE
  8
その他部品等
 10
-30.425
 20
-98.2
 11
-22.9
 21
-90.675
  0
LINE
  8
その他部品等
 10
-21.675
 20
-89.45
 11
-20.325
 21
-88.075
  0
LINE
  8
その他部品等
 10
-32.625
 20
-98.975
 11
-20.6
 21
-86.975
  0
LINE
  8
その他部品等
 10
-34.825
 20
-99.775
 11
-22.025
 21
-86.975
  0
LINE
  8
その他部品等
 10
-37.025
 20
-100.55
 11
-23.425
 21
-86.975
  0
LINE
  8
その他部品等
 10
-39.225
 20
-101.35
 11
-24.85
 21
-86.975
  0
LINE
  8
その他部品等
 10
-41.425
 20
-102.15
 11
-26.25
 21
-86.975
  0
LINE
  8
その他部品等
 10
-43.625
 20
-102.925
 11
-27.675
 21
-86.975
  0
LINE
  8
その他部品等
 10
-45.825
 20
-103.725
 11
-29.075
 21
-86.975
  0
LINE
  8
その他部品等
 10
-48.025
 20
-104.5
 11
-30.5
 21
-86.975
  0
LINE
  8
その他部品等
 10
-50.225
 20
-105.3
 11
-31.9
 21
-86.975
  0
LINE
  8
その他部品等
 10
-52.425
 20
-106.075
 11
-33.325
 21
-86.975
  0
LINE
  8
その他部品等
 10
-53.6
 20
-105.85
 11
-34.725
 21
-86.975
  0
LINE
  8
その他部品等
 10
-54.125
 20
-104.975
 11
-36.15
 21
-86.975
  0
LINE
  8
その他部品等
 10
-55.1
 20
-104.5
 11
-37.55
 21
-86.975
  0
LINE
  8
その他部品等
 10
-55.325
 20
-103.325
 11
-38.975
 21
-86.975
  0
LINE
  8
その他部品等
 10
-55.325
 20
-101.9
 11
-40.375
 21
-86.975
  0
LINE
  8
その他部品等
 10
-55.325
 20
-100.5
 11
-41.8
 21
-86.975
  0
LINE
  8
その他部品等
 10
-55.325
 20
-99.075
 11
-43.2
 21
-86.975
  0
LINE
  8
その他部品等
 10
-55.325
 20
-97.675
 11
-44.625
 21
-86.975
  0
LINE
  8
その他部品等
 10
-55.325
 20
-96.25
 11
-46.025
 21
-86.975
  0
LINE
  8
その他部品等
 10
-55.325
 20
-94.85
 11
-47.425
 21
-86.975
  0
LINE
  8
その他部品等
 10
-55.325
 20
-93.425
 11
-48.85
 21
-86.975
  0
LINE
  8
その他部品等
 10
-55.325
 20
-92.025
 11
-50.25
 21
-86.975
  0
LINE
  8
その他部品等
 10
-55.325
 20
-90.625
 11
-51.675
 21
-86.975
  0
LINE
  8
その他部品等
 10
-55.325
 20
-89.2
 11
-53.075
 21
-86.975
  0
LINE
  8
その他部品等
 10
-55.325
 20
-87.8
 11
-54.5
 21
-86.975
  0
LINE
  8
その他部品等
 10
-55.325
 20
-104.25
 11
-55.075
 21
-104.5
  0
LINE
  8
その他部品等
 10
-53.575
 20
-106.0
 11
-53.225
 21
-106.35
  0
LINE
  8
その他部品等
 10
-55.325
 20
-102.85
 11
-52.175
 21
-106.0
  0
LINE
  8
その他部品等
 10
-55.325
 20
-101.425
 11
-51.125
 21
-105.625
  0
LINE
  8
その他部品等
 10
-55.325
 20
-100.025
 11
-50.1
 21
-105.25
  0
LINE
  8
その他部品等
 10
-55.325
 20
-98.6
 11
-49.05
 21
-104.875
  0
LINE
  8
その他部品等
 10
-55.325
 20
-97.2
 11
-48.025
 21
-104.5
  0
LINE
  8
その他部品等
 10
-55.325
 20
-95.775
 11
-46.975
 21
-104.125
  0
LINE
  8
その他部品等
 10
-55.325
 20
-94.375
 11
-45.95
 21
-103.75
  0
LINE
  8
その他部品等
 10
-55.325
 20
-92.95
 11
-44.9
 21
-103.375
  0
LINE
  8
その他部品等
 10
-55.325
 20
-91.55
 11
-43.85
 21
-103.0
  0
LINE
  8
その他部品等
 10
-55.325
 20
-90.125
 11
-42.825
 21
-102.65
  0
LINE
  8
その他部品等
 10
-55.325
 20
-88.725
 11
-41.775
 21
-102.275
  0
LINE
  8
その他部品等
 10
-55.325
 20
-87.325
 11
-40.75
 21
-101.9
  0
LINE
  8
その他部品等
 10
-54.25
 20
-86.975
 11
-39.7
 21
-101.525
  0
LINE
  8
その他部品等
 10
-52.85
 20
-86.975
 11
-38.675
 21
-101.15
  0
LINE
  8
その他部品等
 10
-51.425
 20
-86.975
 11
-37.625
 21
-100.775
  0
LINE
  8
その他部品等
 10
-50.025
 20
-86.975
 11
-36.575
 21
-100.4
  0
LINE
  8
その他部品等
 10
-48.6
 20
-86.975
 11
-35.55
 21
-100.025
  0
LINE
  8
その他部品等
 10
-47.2
 20
-86.975
 11
-34.5
 21
-99.65
  0
LINE
  8
その他部品等
 10
-45.775
 20
-86.975
 11
-33.475
 21
-99.275
  0
LINE
  8
その他部品等
 10
-44.375
 20
-86.975
 11
-32.425
 21
-98.9
  0
LINE
  8
その他部品等
 10
-42.95
 20
-86.975
 11
-31.4
 21
-98.55
  0
LINE
  8
その他部品等
 10
-41.55
 20
-86.975
 11
-30.35
 21
-98.175
  0
LINE
  8
その他部品等
 10
-40.125
 20
-86.975
 11
-29.3
 21
-97.8
  0
LINE
  8
その他部品等
 10
-38.725
 20
-86.975
 11
-28.275
 21
-97.425
  0
LINE
  8
その他部品等
 10
-37.3
 20
-86.975
 11
-27.225
 21
-97.05
  0
LINE
  8
その他部品等
 10
-35.9
 20
-86.975
 11
-26.2
 21
-96.675
  0
LINE
  8
その他部品等
 10
-34.475
 20
-86.975
 11
-25.15
 21
-96.3
  0
LINE
  8
その他部品等
 10
-33.075
 20
-86.975
 11
-24.1
 21
-95.925
  0
LINE
  8
その他部品等
 10
-31.65
 20
-86.975
 11
-23.075
 21
-95.55
  0
LINE
  8
その他部品等
 10
-30.25
 20
-86.975
 11
-22.025
 21
-95.175
  0
LINE
  8
その他部品等
 10
-28.85
 20
-86.975
 11
-21.0
 21
-94.8
  0
LINE
  8
その他部品等
 10
-27.425
 20
-86.975
 11
-20.325
 21
-94.075
  0
LINE
  8
その他部品等
 10
-26.025
 20
-86.975
 11
-22.925
 21
-90.05
  0
LINE
  8
その他部品等
 10
-21.975
 20
-91.025
 11
-20.325
 21
-92.675
  0
LINE
  8
その他部品等
 10
-24.6
 20
-86.975
 11
-22.125
 21
-89.45
  0
LINE
  8
その他部品等
 10
-20.6
 20
-90.975
 11
-20.325
 21
-91.25
  0
LINE
  8
その他部品等
 10
-23.2
 20
-86.975
 11
-20.7
 21
-89.475
  0
LINE
  8
その他部品等
 10
-21.775
 20
-86.975
 11
-20.325
 21
-88.425
  0
LINE
  8
その他部品等
 10
-20.375
 20
-86.975
 11
-20.325
 21
-87.025
  0
ENDBLK
  0
BLOCK
  2
*HAT_0019
 70
    65
 10
0.0
 20
0.0
  0
LINE
  8
その他部品等
 10
-58.2
 20
-90.675
 11
-57.325
 21
-89.8
  0
LINE
  8
その他部品等
 10
-59.6
 20
-90.675
 11
-57.325
 21
-88.375
  0
LINE
  8
その他部品等
 10
-61.025
 20
-90.675
 11
-57.325
 21
-86.975
  0
LINE
  8
その他部品等
 10
-62.425
 20
-90.675
 11
-58.725
 21
-86.975
  0
LINE
  8
その他部品等
 10
-63.85
 20
-90.675
 11
-60.15
 21
-86.975
  0
LINE
  8
その他部品等
 10
-65.25
 20
-90.675
 11
-61.55
 21
-86.975
  0
LINE
  8
その他部品等
 10
-66.675
 20
-90.675
 11
-62.975
 21
-86.975
  0
LINE
  8
その他部品等
 10
-67.825
 20
-90.4
 11
-64.375
 21
-86.975
  0
LINE
  8
その他部品等
 10
-68.3
 20
-89.475
 11
-65.8
 21
-86.975
  0
LINE
  8
その他部品等
 10
-69.325
 20
-89.075
 11
-67.2
 21
-86.975
  0
LINE
  8
その他部品等
 10
-69.325
 20
-87.675
 11
-68.625
 21
-86.975
  0
LINE
  8
その他部品等
 10
-69.325
 20
-88.85
 11
-68.7
 21
-89.475
  0
LINE
  8
その他部品等
 10
-67.825
 20
-90.35
 11
-67.5
 21
-90.675
  0
LINE
  8
その他部品等
 10
-69.325
 20
-87.425
 11
-66.075
 21
-90.675
  0
LINE
  8
その他部品等
 10
-68.375
 20
-86.975
 11
-64.675
 21
-90.675
  0
LINE
  8
その他部品等
 10
-66.95
 20
-86.975
 11
-63.25
 21
-90.675
  0
LINE
  8
その他部品等
 10
-65.55
 20
-86.975
 11
-61.85
 21
-90.675
  0
LINE
  8
その他部品等
 10
-64.125
 20
-86.975
 11
-60.425
 21
-90.675
  0
LINE
  8
その他部品等
 10
-62.725
 20
-86.975
 11
-59.025
 21
-90.675
  0
LINE
  8
その他部品等
 10
-61.3
 20
-86.975
 11
-57.6
 21
-90.675
  0
LINE
  8
その他部品等
 10
-59.9
 20
-86.975
 11
-57.325
 21
-89.55
  0
LINE
  8
その他部品等
 10
-58.5
 20
-86.975
 11
-57.325
 21
-88.15
  0
ENDBLK
  0
BLOCK
  2
*HAT_0020
 70
    65
 10
0.0
 20
0.0
  0
LINE
  8
その他部品等
 10
-3.45
 20
-91.0
 11
-3.3
 21
-90.85
  0
LINE
  8
その他部品等
 10
-5.225
 20
-91.35
 11
-3.3
 21
-89.45
  0
LINE
  8
その他部品等
 10
-7.025
 20
-91.725
 11
-3.3
 21
-88.025
  0
LINE
  8
その他部品等
 10
-8.8
 20
-92.1
 11
-3.3
 21
-86.625
  0
LINE
  8
その他部品等
 10
-10.575
 20
-92.475
 11
-3.3
 21
-85.2
  0
LINE
  8
その他部品等
 10
-12.35
 20
-92.85
 11
-3.3
 21
-83.8
  0
LINE
  8
その他部品等
 10
-14.15
 20
-93.2
 11
-3.3
 21
-82.375
  0
LINE
  8
その他部品等
 10
-15.925
 20
-93.575
 11
-3.3
 21
-80.975
  0
LINE
  8
その他部品等
 10
-17.325
 20
-93.55
 11
-3.325
 21
-79.55
  0
LINE
  8
その他部品等
 10
-18.325
 20
-93.15
 11
-3.325
 21
-78.15
  0
LINE
  8
その他部品等
 10
-18.325
 20
-91.725
 11
-3.325
 21
-76.725
  0
LINE
  8
その他部品等
 10
-18.325
 20
-84.675
 11
-10.95
 21
-77.3
  0
LINE
  8
その他部品等
 10
-18.325
 20
-83.275
 11
-12.35
 21
-77.3
  0
LINE
  8
その他部品等
 10
-18.325
 20
-81.85
 11
-13.75
 21
-77.3
  0
LINE
  8
その他部品等
 10
-18.325
 20
-80.45
 11
-15.15
 21
-77.275
  0
LINE
  8
その他部品等
 10
-18.325
 20
-79.025
 11
-16.575
 21
-77.275
  0
LINE
  8
その他部品等
 10
-9.925
 20
-70.625
 11
-9.55
 21
-70.25
  0
LINE
  8
その他部品等
 10
-18.325
 20
-77.625
 11
-17.975
 21
-77.275
  0
LINE
  8
その他部品等
 10
-18.325
 20
-93.25
 11
-18.2
 21
-93.375
  0
LINE
  8
その他部品等
 10
-18.325
 20
-91.85
 11
-16.475
 21
-93.7
  0
LINE
  8
その他部品等
 10
-18.325
 20
-90.425
 11
-15.3
 21
-93.45
  0
LINE
  8
その他部品等
 10
-18.325
 20
-89.025
 11
-14.125
 21
-93.2
  0
LINE
  8
その他部品等
 10
-18.325
 20
-87.6
 11
-12.95
 21
-92.975
  0
LINE
  8
その他部品等
 10
-18.325
 20
-86.2
 11
-11.8
 21
-92.725
  0
LINE
  8
その他部品等
 10
-18.325
 20
-84.775
 11
-10.625
 21
-92.475
  0
LINE
  8
その他部品等
 10
-18.325
 20
-83.375
 11
-9.45
 21
-92.225
  0
LINE
  8
その他部品等
 10
-18.325
 20
-81.95
 11
-8.275
 21
-92.0
  0
LINE
  8
その他部品等
 10
-18.325
 20
-80.55
 11
-7.125
 21
-91.75
  0
LINE
  8
その他部品等
 10
-18.325
 20
-79.125
 11
-5.95
 21
-91.5
  0
LINE
  8
その他部品等
 10
-18.325
 20
-77.725
 11
-4.775
 21
-91.275
  0
LINE
  8
その他部品等
 10
-17.35
 20
-77.275
 11
-3.6
 21
-91.025
  0
LINE
  8
その他部品等
 10
-15.925
 20
-77.275
 11
-3.325
 21
-89.9
  0
LINE
  8
その他部品等
 10
-14.525
 20
-77.275
 11
-3.325
 21
-88.475
  0
LINE
  8
その他部品等
 10
-13.1
 20
-77.3
 11
-3.325
 21
-87.075
  0
LINE
  8
その他部品等
 10
-11.675
 20
-77.3
 11
-3.325
 21
-85.65
  0
LINE
  8
その他部品等
 10
-10.275
 20
-77.3
 11
-3.325
 21
-84.25
  0
LINE
  8
その他部品等
 10
-18.325
 20
-86.075
 11
-9.5
 21
-77.275
  0
LINE
  8
その他部品等
 10
-4.675
 20
-77.275
 11
-3.325
 21
-78.6
  0
LINE
  8
その他部品等
 10
-6.1
 20
-77.275
 11
-3.325
 21
-80.025
  0
LINE
  8
その他部品等
 10
-7.5
 20
-77.275
 11
-3.325
 21
-81.425
  0
LINE
  8
その他部品等
 10
-18.325
 20
-87.5
 11
-8.1
 21
-77.275
  0
LINE
  8
その他部品等
 10
-18.325
 20
-88.9
 11
-6.7
 21
-77.275
  0
LINE
  8
その他部品等
 10
-18.325
 20
-90.325
 11
-5.275
 21
-77.275
  0
LINE
  8
その他部品等
 10
-8.925
 20
-77.275
 11
-3.325
 21
-82.85
  0
ENDBLK
  0
BLOCK
  2
*GRP_0001
 70
    65
 10
0.0
 20
0.0
  0
INSERT
  2
*HAT_0001
  8
ゴム等
 10
0.0
 20
0.0
  0
LINE
  8
ゴム等
 62
    63
 10
-15.895265
 20
-17.47899
 11
-16.955908
 21
-16.418332
  0
LINE
  8
ゴム等
 62
    63
 10
-14.48105
 20
-13.94349
 11
-16.955908
 21
-16.418332
  0
LINE
  8
ゴム等
 62
    63
 10
-17.30945
 20
-18.186082
 11
-16.60235
 21
-18.893182
  0
LINE
  8
ゴム等
 62
    63
 10
-16.60235
 20
-20.307375
 11
-16.60235
 21
-20.307375
  0
LINE
  8
ゴム等
 62
    63
 10
-15.47477
 20
-17.05851
 11
-15.895265
 21
-17.47899
  0
LINE
  8
ゴム等
 62
    63
 10
-15.135073
 20
-17.17374
 11
-14.693188
 21
-20.519505
  0
ARC
  8
ゴム等
 62
    63
 10
-15.33335
 20
-17.199932
 40
0.199997
 50
7.523858
 51
135.000037
  0
LINE
  8
ゴム等
 62
    63
 10
-14.693188
 20
-20.519505
 11
-15.541708
 21
-21.368025
  0
ARC
  8
ゴム等
 62
    63
 10
-17.309442
 20
-19.600285
 40
0.999987
 50
315.000079
 51
405.000037
  0
ARC
  8
ゴム等
 62
    63
 10
-18.01654
 20
-18.893188
 40
0.999987
 50
45.000037
 51
135.000065
  0
LINE
  8
ゴム等
 62
    63
 10
-19.430742
 20
-21.014475
 11
-20.491392
 21
-19.953833
  0
LINE
  8
ゴム等
 62
    63
 10
-22.966227
 20
-22.42869
 11
-20.491392
 21
-19.953833
  0
LINE
  8
ゴム等
 62
    63
 10
-18.72365
 20
-19.600282
 11
-18.01655
 21
-20.307375
  0
LINE
  8
ゴム等
 62
    63
 10
-16.602343
 20
-20.307375
 11
-16.602343
 21
-20.307375
  0
LINE
  8
ゴム等
 62
    63
 10
-19.851215
 20
-21.43497
 11
-19.430742
 21
-21.014475
  0
LINE
  8
ゴム等
 62
    63
 10
-19.735985
 20
-21.774668
 11
-16.390228
 21
-22.216537
  0
ARC
  8
ゴム等
 62
    63
 10
-19.70979
 20
-21.576381
 40
0.199997
 50
135.000083
 51
262.476263
  0
LINE
  8
ゴム等
 62
    63
 10
-16.390228
 20
-22.216537
 11
-15.541708
 21
-21.368025
  0
ARC
  8
ゴム等
 62
    63
 10
-17.309441
 20
-19.600285
 40
0.999987
 50
225.000083
 51
315.000041
  0
ARC
  8
ゴム等
 62
    63
 10
-18.01654
 20
-18.893188
 40
0.999987
 50
135.000056
 51
225.000083
  0
LINE
  8
ゴム等
 62
    63
 10
-22.966227
 20
-22.42869
 11
-27.208865
 21
-18.186045
  0
LINE
  8
ゴム等
 62
    63
 10
-14.48105
 20
-13.94349
 11
-18.723733
 21
-9.700838
  0
LINE
  8
ゴム等
  6
CONTINUOUS
 10
-20.13794
 20
-11.115053
 11
-20.13794
 21
-11.822167
  0
LINE
  8
ゴム等
  6
CONTINUOUS
 10
-25.794687
 20
-16.771807
 11
-25.087572
 21
-16.771807
  0
LINE
  8
ゴム等
  6
CONTINUOUS
 10
-27.208865
 20
-18.186045
 11
-25.794643
 21
-16.771807
  0
LINE
  8
ゴム等
  6
CONTINUOUS
 10
-20.13794
 20
-11.115053
 11
-18.723733
 21
-9.700838
  0
LINE
  8
ゴム等
  6
CONTINUOUS
 10
-25.087535
 20
-16.771807
 11
-20.13794
 21
-11.822167
  0
ENDBLK
  0
BLOCK
  2
*DIM_0002
 70
    65
 10
0.0
 20
0.0
  0
LINE
  8
寸法
  6
BYBLOCK
 62
     0
 10
-74.297628
 20
-24.949832
 11
-74.297628
 21
67.566918
  0
LINE
  8
寸法
  6
BYBLOCK
 62
     0
 10
43.20239
 20
67.566918
 11
-74.297628
 21
67.566918
  0
POINT
  8
寸法
 62
     0
 10
43.20239
 20
67.566918
  0
POINT
  8
寸法
 62
     0
 10
-74.297628
 20
67.566918
  0
TEXT
  7
TextStyle03
  8
寸法
  6
CONTINUOUS
 62
     0
 10
-20.375
 20
67.95
  1
117.5
 40
3.5
 72
     5
 11
-10.725
 21
67.95
  0
ENDBLK
  0
BLOCK
  2
*DIM_0003
 70
    65
 10
0.0
 20
0.0
  0
LINE
  8
寸法
  6
BYBLOCK
 62
     0
 10
-76.297628
 20
-26.949832
 11
-144.765982
 21
-26.949832
  0
LINE
  8
寸法
  6
BYBLOCK
 62
     0
 10
-76.297628
 20
-90.949832
 11
-144.765982
 21
-90.949832
  0
LINE
  8
寸法
  6
BYBLOCK
 62
     0
 10
-144.765982
 20
-26.949832
 11
-144.765982
 21
-90.949832
  0
POINT
  8
寸法
 62
     0
 10
-144.765982
 20
-26.949832
  0
POINT
  8
寸法
 62
     0
 10
-144.765982
 20
-90.949832
  0
TEXT
  7
TextStyle03
  8
寸法
  6
CONTINUOUS
 62
     0
 10
-145.15
 20
-60.8125
  1
64
 40
3.5
 50
90.0
 72
     5
 11
-145.15
 21
-57.0875
  0
ENDBLK
  0
BLOCK
  2
*DIM_0004
 70
    65
 10
0.0
 20
0.0
  0
LINE
  8
寸法
  6
BYBLOCK
 62
     0
 10
-59.297627
 20
-106.449832
 11
-144.765982
 21
-106.449832
  0
LINE
  8
寸法
  6
BYBLOCK
 62
     0
 10
-144.765982
 20
-90.949832
 11
-144.765982
 21
-106.449832
  0
POINT
  8
寸法
 62
     0
 10
-144.765982
 20
-106.449832
  0
TEXT
  7
TextStyle03
  8
寸法
  6
CONTINUOUS
 62
     0
 10
-145.15
 20
-102.5375
  1
15.5
 40
3.5
 50
90.0
 72
     5
 11
-145.15
 21
-94.8625
  0
ENDBLK
  0
BLOCK
  2
*DIM_0005
 70
    65
 10
0.0
 20
0.0
  0
LINE
  8
寸法
  6
BYBLOCK
 62
     0
 10
107.70239
 20
-82.248117
 11
137.832788
 21
-82.248117
  0
LINE
  8
寸法
  6
BYBLOCK
 62
     0
 10
107.70239
 20
-51.246485
 11
137.832788
 21
-51.246485
  0
LINE
  8
寸法
  6
BYBLOCK
 62
     0
 10
137.832788
 20
-82.248117
 11
137.832788
 21
-51.246485
  0
POINT
  8
寸法
 62
     0
 10
137.832788
 20
-82.248117
  0
POINT
  8
寸法
 62
     0
 10
137.832788
 20
-51.246485
  0
TEXT
  7
TextStyle03
  8
寸法
  6
CONTINUOUS
 62
     0
 10
137.45
 20
-68.6125
  1
31
 40
3.5
 50
90.0
 72
     5
 11
137.45
 21
-64.8875
  0
ENDBLK
  0
BLOCK
  2
*DIM_0006
 70
    65
 10
0.0
 20
0.0
  0
LINE
  8
寸法
  6
BYBLOCK
 62
     0
 10
63.702335
 20
-91.248178
 11
137.832788
 21
-91.248178
  0
LINE
  8
寸法
  6
BYBLOCK
 62
     0
 10
137.832788
 20
-82.248117
 11
137.832788
 21
-91.248178
  0
POINT
  8
寸法
 62
     0
 10
137.832788
 20
-82.248117
  0
POINT
  8
寸法
 62
     0
 10
137.832788
 20
-91.248178
  0
TEXT
  7
TextStyle03
  8
寸法
  6
CONTINUOUS
 62
     0
 10
137.45
 20
-87.625
  1
9
 40
3.5
 50
90.0
 72
     5
 11
137.45
 21
-85.875
  0
ENDBLK
  0
BLOCK
  2
*GRP_0007
 70
    65
 10
0.0
 20
0.0
  0
INSERT
  2
*HAT_0002
  8
ゴム等
 10
0.0
 20
0.0
  0
LINE
  8
ゴム等
 62
    63
 10
-15.89526
 20
-17.47899
 11
-16.955902
 21
-16.418332
  0
LINE
  8
ゴム等
 62
    63
 10
-14.481045
 20
-13.94349
 11
-16.955902
 21
-16.418332
  0
LINE
  8
ゴム等
 62
    63
 10
-17.309445
 20
-18.186082
 11
-16.602345
 21
-18.893182
  0
LINE
  8
ゴム等
 62
    63
 10
-16.602345
 20
-20.307375
 11
-16.602345
 21
-20.307375
  0
LINE
  8
ゴム等
 62
    63
 10
-15.474765
 20
-17.05851
 11
-15.89526
 21
-17.47899
  0
LINE
  8
ゴム等
 62
    63
 10
-15.135067
 20
-17.17374
 11
-14.693182
 21
-20.519505
  0
ARC
  8
ゴム等
 62
    63
 10
-15.333347
 20
-17.199932
 40
0.199997
 50
7.523858
 51
135.000037
  0
LINE
  8
ゴム等
 62
    63
 10
-14.693182
 20
-20.519505
 11
-15.541702
 21
-21.368025
  0
ARC
  8
ゴム等
 62
    63
 10
-17.309439
 20
-19.600285
 40
0.999987
 50
315.000079
 51
405.000037
  0
ARC
  8
ゴム等
 62
    63
 10
-18.016537
 20
-18.893187
 40
0.999987
 50
45.000037
 51
135.000065
  0
LINE
  8
ゴム等
 62
    63
 10
-19.430738
 20
-21.014475
 11
-20.491388
 21
-19.953833
  0
LINE
  8
ゴム等
 62
    63
 10
-22.966223
 20
-22.42869
 11
-20.491388
 21
-19.953833
  0
LINE
  8
ゴム等
 62
    63
 10
-18.723645
 20
-19.600282
 11
-18.016545
 21
-20.307375
  0
LINE
  8
ゴム等
 62
    63
 10
-16.602337
 20
-20.307375
 11
-16.602337
 21
-20.307375
  0
LINE
  8
ゴム等
 62
    63
 10
-19.85121
 20
-21.43497
 11
-19.430738
 21
-21.014475
  0
LINE
  8
ゴム等
 62
    63
 10
-19.73598
 20
-21.774668
 11
-16.390222
 21
-22.216537
  0
ARC
  8
ゴム等
 62
    63
 10
-19.709787
 20
-21.576381
 40
0.199997
 50
135.000083
 51
262.476263
  0
LINE
  8
ゴム等
 62
    63
 10
-16.390222
 20
-22.216537
 11
-15.541702
 21
-21.368025
  0
ARC
  8
ゴム等
 62
    63
 10
-17.309438
 20
-19.600284
 40
0.999987
 50
225.000083
 51
315.000041
  0
ARC
  8
ゴム等
 62
    63
 10
-18.016537
 20
-18.893187
 40
0.999987
 50
135.000056
 51
225.000083
  0
LINE
  8
ゴム等
 62
    63
 10
-22.966223
 20
-22.42869
 11
-27.20886
 21
-18.186045
  0
LINE
  8
ゴム等
 62
    63
 10
-14.481045
 20
-13.94349
 11
-18.723728
 21
-9.700838
  0
LINE
  8
ゴム等
  6
CONTINUOUS
 10
-20.137935
 20
-11.115053
 11
-20.137935
 21
-11.822167
  0
LINE
  8
ゴム等
  6
CONTINUOUS
 10
-25.794683
 20
-16.771807
 11
-25.087568
 21
-16.771807
  0
LINE
  8
ゴム等
  6
CONTINUOUS
 10
-27.20886
 20
-18.186045
 11
-25.794638
 21
-16.771807
  0
LINE
  8
ゴム等
  6
CONTINUOUS
 10
-20.137935
 20
-11.115053
 11
-18.723728
 21
-9.700838
  0
LINE
  8
ゴム等
  6
CONTINUOUS
 10
-25.08753
 20
-16.771807
 11
-20.137935
 21
-11.822167
  0
ENDBLK
  0
BLOCK
  2
*GRP_0008
 70
    65
 10
0.0
 20
0.0
  0
LINE
  8
ゴム等
  6
CONTINUOUS
 10
-41.916863
 20
-8.427887
 11
-44.038183
 21
-10.549208
  0
LINE
  8
ゴム等
  6
CONTINUOUS
 10
-44.038183
 20
-10.549208
 11
-31.31026
 21
-23.27713
  0
LINE
  8
ゴム等
  6
CONTINUOUS
 10
-31.31026
 20
-23.27713
 11
-29.18894
 21
-21.15581
  0
LINE
  8
ゴム等
  6
CONTINUOUS
 10
-41.916863
 20
-8.427887
 11
-29.18894
 21
-21.15581
  0
INSERT
  2
*HAT_0003
  8
ゴム等
 10
0.0
 20
0.0
  0
ENDBLK
  0
BLOCK
  2
*GRP_0009
 70
    65
 10
0.0
 20
0.0
  0
LINE
  8
ゴム等
  6
CONTINUOUS
 10
-39.547935
 20
-30.59572
 11
-33.184068
 21
-24.231712
  0
LINE
  8
ゴム等
  6
CONTINUOUS
 10
-46.866562
 20
-23.27726
 11
-39.547935
 21
-30.59572
  0
LINE
  8
ゴム等
  6
CONTINUOUS
 10
-33.184062
 20
-24.23171
 11
-43.932165
 21
-13.48376
  0
LINE
  8
ゴム等
  6
CONTINUOUS
 10
-43.932165
 20
-13.48376
 11
-46.760552
 21
-16.312227
  0
LINE
  8
ゴム等
  6
CONTINUOUS
 10
-46.760552
 20
-16.312227
 11
-43.331058
 21
-19.741673
  0
LINE
  8
ゴム等
  6
CONTINUOUS
 10
-46.866562
 20
-23.27726
 11
-43.331058
 21
-19.741673
  0
INSERT
  2
*HAT_0004
  8
ゴム等
 10
0.0
 20
0.0
  0
ENDBLK
  0
BLOCK
  2
*GRP_0010
 70
    65
 10
0.0
 20
0.0
  0
LINE
  8
ゴム等
  6
CONTINUOUS
 10
-28.517587
 20
-31.72715
 11
-28.906495
 21
-30.065448
  0
LINE
  8
ゴム等
  6
CONTINUOUS
 10
-32.300608
 20
-33.45956
 11
-30.638908
 21
-33.84847
  0
LINE
  8
ゴム等
  6
CONTINUOUS
 10
-28.517587
 20
-31.72715
 11
-25.370963
 21
-34.873775
  0
LINE
  8
ゴム等
  6
CONTINUOUS
 10
-25.370963
 20
-34.873775
 11
-27.492282
 21
-36.995095
  0
LINE
  8
ゴム等
  6
CONTINUOUS
 10
-30.638908
 20
-33.84847
 11
-27.492282
 21
-36.995095
  0
LINE
  8
ゴム等
  6
CONTINUOUS
 10
-23.956747
 20
-33.45956
 11
-22.896087
 21
-32.3989
  0
LINE
  8
ゴム等
  6
CONTINUOUS
 10
-23.956747
 20
-33.45956
 11
-28.128677
 21
-29.28763
  0
LINE
  8
ゴム等
  6
CONTINUOUS
 10
-28.128677
 20
-29.28763
 11
-28.906495
 21
-30.065448
  0
LINE
  8
ゴム等
  6
CONTINUOUS
 10
-32.300608
 20
-33.45956
 11
-33.078425
 21
-34.237378
  0
LINE
  8
ゴム等
  6
CONTINUOUS
 10
-33.078425
 20
-34.237378
 11
-36.61396
 21
-30.701845
  0
LINE
  8
ゴム等
  6
CONTINUOUS
 10
-35.906852
 20
-29.994737
 11
-35.376523
 21
-30.171515
  0
LINE
  8
ゴム等
  6
CONTINUOUS
 10
-32.194542
 20
-26.989533
 11
-32.37132
 21
-26.459202
  0
LINE
  8
ゴム等
  6
CONTINUOUS
 10
-32.194542
 20
-26.989533
 11
-35.376523
 21
-30.171515
  0
LINE
  8
ゴム等
  6
CONTINUOUS
 10
-36.61396
 20
-30.701845
 11
-35.906852
 21
-29.994737
  0
LINE
  8
ゴム等
  6
CONTINUOUS
 10
-32.37132
 20
-26.459202
 11
-30.572695
 21
-24.722293
  0
LINE
  8
ゴム等
  6
CONTINUOUS
 10
-22.896087
 20
-32.3989
 11
-30.572695
 21
-24.722293
  0
INSERT
  2
*HAT_0005
  8
ゴム等
 10
0.0
 20
0.0
  0
ENDBLK
  0
BLOCK
  2
*GRP_0011
 70
    65
 10
0.0
 20
0.0
  0
LINE
  8
ゴム等
  6
CONTINUOUS
 10
-43.401707
 20
-30.418833
 11
-44.815923
 21
-28.297512
  0
LINE
  8
ゴム等
  6
CONTINUOUS
 10
-48.91714
 20
-32.39873
 11
-46.79582
 21
-33.812945
  0
LINE
  8
ゴム等
  6
CONTINUOUS
 10
-53.9376
 20
-30.348123
 11
-50.402065
 21
-33.883655
  0
LINE
  8
ゴム等
  6
CONTINUOUS
 10
-46.86653
 20
-23.277052
 11
-43.330998
 21
-26.812587
  0
LINE
  8
ゴム等
  6
CONTINUOUS
 10
-43.401707
 20
-30.418833
 11
-46.79582
 21
-33.812945
  0
LINE
  8
ゴム等
  6
CONTINUOUS
 10
-50.402065
 20
-33.883655
 11
-48.91714
 21
-32.39873
  0
LINE
  8
ゴム等
  6
CONTINUOUS
 10
-44.815923
 20
-28.297512
 11
-43.330998
 21
-26.812587
  0
LINE
  8
ゴム等
  6
CONTINUOUS
 10
-50.048513
 20
-27.16614
 11
-50.755617
 21
-27.16614
  0
LINE
  8
ゴム等
  6
CONTINUOUS
 10
-50.048513
 20
-27.16614
 11
-50.048513
 21
-26.459035
  0
LINE
  8
ゴム等
  6
CONTINUOUS
 10
-46.86653
 20
-23.277052
 11
-50.048513
 21
-26.459035
  0
LINE
  8
ゴム等
  6
CONTINUOUS
 10
-50.755617
 20
-27.16614
 11
-53.9376
 21
-30.348123
  0
INSERT
  2
*HAT_0006
  8
ゴム等
 10
0.0
 20
0.0
  0
ENDBLK
  0
BLOCK
  2
*GRP_0012
 70
    65
 10
0.0
 20
0.0
  0
LINE
  8
型材断面
  6
CONTINUOUS
 62
    47
 10
-53.230428
 20
-14.791925
 11
-53.230428
 21
-14.084818
  0
LINE
  8
型材断面
  6
CONTINUOUS
 62
    47
 10
-53.230428
 20
-14.791925
 11
-52.52332
 21
-14.791925
  0
LINE
  8
型材断面
  6
CONTINUOUS
 62
    47
 10
-53.58398
 20
-13.731265
 11
-54.291087
 21
-13.731265
  0
LINE
  8
型材断面
  6
CONTINUOUS
 62
    47
 10
-54.291087
 20
-13.024158
 11
-54.291087
 21
-13.731265
  0
LINE
  8
型材断面
  6
CONTINUOUS
 62
    47
 10
-53.230428
 20
-14.084818
 11
-53.58398
 21
-13.731265
  0
LINE
  8
型材断面
  6
CONTINUOUS
 62
    47
 10
-54.998193
 20
-14.43837
 11
-54.998193
 21
-15.145478
  0
LINE
  8
型材断面
  6
CONTINUOUS
 62
    47
 10
-55.7053
 20
-14.43837
 11
-54.998193
 21
-14.43837
  0
LINE
  8
型材断面
  6
CONTINUOUS
 62
    47
 10
-55.7053
 20
-14.43837
 11
-56.23563
 21
-14.9687
  0
LINE
  8
型材断面
  6
CONTINUOUS
 62
    47
 10
-56.23563
 20
-14.9687
 11
-56.589182
 21
-14.615147
  0
ARC
  8
型材断面
  6
CONTINUOUS
 62
    47
 10
-55.882079
 20
-13.90804
 40
1.0
 50
135.0
 51
225.0
  0
LINE
  8
型材断面
  6
CONTINUOUS
 62
    47
 10
-51.816212
 20
-15.49903
 11
-52.52332
 21
-14.791925
  0
LINE
  8
型材断面
  6
CONTINUOUS
 62
    47
 10
-50.048445
 20
-13.731265
 11
-51.816212
 21
-15.49903
  0
LINE
  8
型材断面
  6
CONTINUOUS
 62
    47
 10
-47.75885
 20
-13.855685
 11
-47.997837
 21
-13.801975
  0
ARC
  8
型材断面
  6
CONTINUOUS
 62
    47
 10
-47.714995
 20
-13.660553
 40
0.2
 50
257.333531
 51
372.666469
  0
LINE
  8
型材断面
  6
CONTINUOUS
 62
    47
 10
-47.573572
 20
-13.37771
 11
-47.519863
 21
-13.616698
  0
LINE
  8
型材断面
  6
CONTINUOUS
 62
    47
 10
-47.997837
 20
-13.801975
 11
-51.109105
 21
-16.913245
  0
LINE
  8
型材断面
  6
CONTINUOUS
 62
    47
 10
-48.28068
 20
-21.155885
 11
-49.48276
 21
-22.357967
  0
LINE
  8
型材断面
  6
CONTINUOUS
 62
    47
 10
-47.927125
 20
-21.509437
 11
-48.28068
 21
-21.155885
  0
LINE
  8
型材断面
  6
CONTINUOUS
 62
    47
 10
-49.694892
 20
-20.448777
 11
-54.998193
 21
-15.145478
  0
LINE
  8
型材断面
  6
CONTINUOUS
 62
    47
 10
-53.442558
 20
-24.196445
 11
-53.018295
 21
-24.196445
  0
LINE
  8
型材断面
  6
CONTINUOUS
 62
    47
 10
-53.018295
 20
-24.196445
 11
-53.018295
 21
-23.77218
  0
LINE
  8
型材断面
  6
CONTINUOUS
 62
    47
 10
-49.694892
 20
-20.448777
 11
-53.018295
 21
-23.77218
  0
LINE
  8
型材断面
  6
CONTINUOUS
 62
    47
 10
-53.442558
 20
-24.196445
 11
-56.69525
 21
-27.449135
  0
ARC
  8
型材断面
  6
CONTINUOUS
 62
    47
 10
-56.483119
 20
-27.661267
 40
0.3
 50
135.0
 51
225.0
  0
LINE
  8
型材断面
  6
CONTINUOUS
 62
    47
 10
-55.7053
 20
-28.86335
 11
-56.69525
 21
-27.8734
  0
ARC
  8
型材断面
  6
CONTINUOUS
 62
    47
 10
-55.49317
 20
-28.651217
 40
0.3
 50
225.0
 51
315.0
  0
LINE
  8
型材断面
  6
CONTINUOUS
 62
    47
 10
-49.129208
 20
-22.71152
 11
-55.281035
 21
-28.86335
  0
LINE
  8
型材断面
  6
CONTINUOUS
 62
    47
 10
-49.129208
 20
-22.71152
 11
-49.48276
 21
-22.357967
  0
LINE
  8
型材断面
  6
CONTINUOUS
 62
    47
 10
-47.43215
 20
-21.014462
 11
-47.927125
 21
-21.509437
  0
LINE
  8
型材断面
  6
CONTINUOUS
 62
    47
 10
-47.43215
 20
-20.5902
 11
-51.109105
 21
-16.913245
  0
ARC
  8
型材断面
  6
CONTINUOUS
 62
    47
 10
-47.644285
 20
-20.802331
 40
0.3
 50
315.0
 51
405.0
  0
LINE
  8
型材断面
  6
CONTINUOUS
 62
    47
 10
-47.573572
 20
-13.37771
 11
-52.66474
 21
-8.286542
  0
ARC
  8
型材断面
  6
CONTINUOUS
 62
    47
 10
-52.876875
 20
-8.498673
 40
0.3
 50
45.0
 51
135.0
  0
LINE
  8
型材断面
  6
CONTINUOUS
 62
    47
 10
-55.56388
 20
-12.17563
 11
-56.589182
 21
-13.200935
  0
LINE
  8
型材断面
  6
CONTINUOUS
 62
    47
 10
-54.291087
 20
-13.024158
 11
-55.139615
 21
-12.17563
  0
ARC
  8
型材断面
  6
CONTINUOUS
 62
    47
 10
-55.351749
 20
-12.387761
 40
0.3
 50
45.0
 51
135.0
  0
LINE
  8
型材断面
  6
CONTINUOUS
 62
    47
 10
-53.58398
 20
-9.488623
 11
-53.58398
 21
-10.19573
  0
LINE
  8
型材断面
  6
CONTINUOUS
 62
    47
 10
-53.230428
 20
-10.549283
 11
-53.58398
 21
-10.19573
  0
LINE
  8
型材断面
  6
CONTINUOUS
 62
    47
 10
-52.52332
 20
-10.549283
 11
-53.230428
 21
-10.549283
  0
LINE
  8
型材断面
  6
CONTINUOUS
 62
    47
 10
-52.52332
 20
-11.25639
 11
-52.52332
 21
-10.549283
  0
LINE
  8
型材断面
  6
CONTINUOUS
 62
    47
 10
-52.169768
 20
-11.609943
 11
-52.52332
 21
-11.25639
  0
LINE
  8
型材断面
  6
CONTINUOUS
 62
    47
 10
-51.46266
 20
-11.609943
 11
-52.169768
 21
-11.609943
  0
LINE
  8
型材断面
  6
CONTINUOUS
 62
    47
 10
-51.46266
 20
-12.31705
 11
-51.46266
 21
-11.609943
  0
LINE
  8
型材断面
  6
CONTINUOUS
 62
    47
 10
-50.048445
 20
-13.731265
 11
-51.46266
 21
-12.31705
  0
LINE
  8
型材断面
  6
CONTINUOUS
 62
    47
 10
-53.089005
 20
-8.286542
 11
-54.149665
 21
-9.347203
  0
ARC
  8
型材断面
  6
CONTINUOUS
 62
    47
 10
-54.008246
 20
-9.488623
 40
0.2
 50
135.0
 51
298.125506
  0
LINE
  8
型材断面
  6
CONTINUOUS
 62
    47
 10
-53.913962
 20
-9.665005
 11
-53.58398
 21
-9.488623
  0
ENDBLK
  0
BLOCK
  2
*GRP_0013
 70
    65
 10
0.0
 20
0.0
  0
POINT
  8
型材断面
 62
    47
 10
-24.31048
 20
-43.00576
 50
-45.0
  0
LINE
  8
型材断面
  6
CONTINUOUS
 62
    47
 10
-24.31048
 20
-40.884437
 11
-25.936825
 21
-39.258093
  0
LINE
  8
型材断面
  6
CONTINUOUS
 62
    47
 10
-25.936825
 20
-39.258093
 11
-14.269563
 21
-27.59083
  0
LINE
  8
型材断面
  6
CONTINUOUS
 62
    47
 10
-12.643217
 20
-29.217177
 11
-14.269563
 21
-27.59083
  0
LINE
  8
型材断面
  6
CONTINUOUS
 62
    47
 10
-13.350325
 20
-26.38875
 11
-11.582557
 21
-24.620982
  0
LINE
  8
型材断面
  6
CONTINUOUS
 62
    47
 10
-13.491745
 20
-30.065705
 11
-12.643217
 21
-29.217177
  0
ARC
  8
型材断面
  6
CONTINUOUS
 62
    47
 10
-13.279616
 20
-30.277836
 40
0.3
 50
135.0
 51
225.0
  0
LINE
  8
型材断面
  6
CONTINUOUS
 62
    47
 10
-12.85535
 20
-31.126365
 11
-13.491745
 21
-30.48997
  0
ARC
  8
型材断面
  6
CONTINUOUS
 62
    47
 10
-12.64322
 20
-30.914232
 40
0.3
 50
225.0
 51
315.0
  0
ARC
  8
型材断面
  6
CONTINUOUS
 62
    47
 10
-22.613426
 20
-40.884438
 40
0.3
 50
315.0
 51
405.0
  0
LINE
  8
型材断面
  6
CONTINUOUS
 62
    47
 10
-24.31048
 20
-40.884437
 11
-23.461953
 21
-40.03591
  0
LINE
  8
型材断面
  6
CONTINUOUS
 62
    47
 10
-22.401293
 20
-40.672307
 11
-23.037687
 21
-40.03591
  0
ARC
  8
型材断面
  6
CONTINUOUS
 62
    47
 10
-23.249822
 20
-40.248042
 40
0.3
 50
45.0
 51
135.0
  0
ARC
  8
型材断面
  6
CONTINUOUS
 62
    47
 10
-32.654342
 20
-34.237634
 40
0.3
 50
135.0
 51
225.0
  0
LINE
  8
型材断面
  6
CONTINUOUS
 62
    47
 10
-23.24982
 20
-34.166925
 11
-27.916725
 21
-29.50002
  0
ARC
  8
型材断面
  6
CONTINUOUS
 62
    47
 10
-28.128859
 20
-29.712151
 40
0.3
 50
45.0
 51
135.0
  0
ARC
  8
型材断面
  6
CONTINUOUS
 62
    47
 10
-20.192106
 20
-20.678341
 40
0.3
 50
45.0
 51
90.0
  0
LINE
  8
型材断面
  6
CONTINUOUS
 62
    47
 10
-19.643575
 20
-20.802605
 11
-19.97997
 21
-20.46621
  0
LINE
  8
型材断面
  6
CONTINUOUS
 62
    47
 10
-20.792102
 20
-20.378342
 11
-20.192105
 21
-20.378342
  0
ARC
  8
型材断面
  6
CONTINUOUS
 62
    47
 10
-20.792106
 20
-20.678341
 40
0.3
 50
90.0
 51
135.0
  0
LINE
  8
型材断面
  6
CONTINUOUS
 62
    47
 10
-22.754845
 20
-22.21682
 11
-21.004235
 21
-20.46621
  0
ARC
  8
型材断面
  6
CONTINUOUS
 62
    47
 10
-16.232308
 20
-16.718543
 40
0.3
 50
180.0
 51
225.0
  0
LINE
  8
型材断面
  6
CONTINUOUS
 62
    47
 10
-16.532305
 20
-16.718545
 11
-16.532308
 21
-16.118545
  0
LINE
  8
型材断面
  6
CONTINUOUS
 62
    47
 10
-16.10804
 20
-17.267072
 11
-16.444438
 21
-16.930678
  0
ARC
  8
型材断面
  6
CONTINUOUS
 62
    47
 10
-16.232308
 20
-16.118543
 40
0.3
 50
135.0
 51
180.0
  0
LINE
  8
型材断面
  6
CONTINUOUS
 62
    47
 10
-16.444438
 20
-15.906412
 11
-14.693828
 21
-14.155803
  0
ARC
  8
型材断面
  6
CONTINUOUS
 62
    47
 10
-14.481698
 20
-14.367933
 40
0.3
 50
45.0
 51
135.0
  0
ARC
  8
型材断面
  6
CONTINUOUS
 62
    47
 10
-15.895911
 20
-17.054939
 40
0.3
 50
225.0
 51
315.0
  0
LINE
  8
型材断面
  6
CONTINUOUS
 62
    47
 10
-15.683777
 20
-17.267072
 11
-14.481695
 21
-16.06499
  0
ARC
  8
型材断面
  6
CONTINUOUS
 62
    47
 10
-19.855709
 20
-21.014737
 40
0.3
 50
315.0
 51
405.0
  0
LINE
  8
型材断面
  6
CONTINUOUS
 62
    47
 10
-20.845658
 20
-22.428953
 11
-19.643575
 21
-21.22687
  0
ARC
  8
型材断面
  6
CONTINUOUS
 62
    47
 10
-22.542715
 20
-22.428951
 40
0.3
 50
135.0
 51
225.0
  0
LINE
  8
型材断面
  6
CONTINUOUS
 62
    47
 10
-13.917788
 20
-16.6289
 11
-14.481695
 21
-16.06499
  0
LINE
  8
型材断面
  6
CONTINUOUS
 62
    47
 10
-20.281747
 20
-22.99286
 11
-20.845658
 21
-22.428953
  0
LINE
  8
型材断面
  6
CONTINUOUS
 62
    47
 10
-20.281747
 20
-22.99286
 11
-13.702538
 21
-23.912535
  0
LINE
  8
型材断面
  6
CONTINUOUS
 62
    47
 10
-13.702538
 20
-23.912535
 11
-12.99811
 21
-23.20811
  0
LINE
  8
型材断面
  6
CONTINUOUS
 62
    47
 10
-13.917788
 20
-16.6289
 11
-12.99811
 21
-23.20811
  0
LINE
  8
型材断面
  6
CONTINUOUS
 62
    47
 10
-23.24982
 20
-34.166925
 11
-15.120763
 21
-26.037867
  0
ARC
  8
型材断面
  6
CONTINUOUS
 62
    47
 10
-15.474318
 20
-25.684312
 40
0.5
 50
315.0
 51
442.042475
  0
LINE
  8
型材断面
  6
CONTINUOUS
 62
    47
 10
-21.058143
 20
-24.337785
 11
-22.754845
 21
-22.641082
  0
LINE
  8
型材断面
  6
CONTINUOUS
 62
    47
 10
-20.887543
 20
-24.422765
 11
-15.405095
 21
-25.189127
  0
ARC
  8
型材断面
  6
CONTINUOUS
 62
    47
 10
-20.846014
 20
-24.125652
 40
0.3
 50
225.0
 51
262.042475
  0
LINE
  8
型材断面
  6
CONTINUOUS
 62
    47
 10
-12.572862
 20
-15.852502
 11
-14.269563
 21
-14.155803
  0
LINE
  8
型材断面
  6
CONTINUOUS
 62
    47
 10
-12.487885
 20
-16.023105
 11
-11.582557
 21
-22.499662
  0
ARC
  8
型材断面
  6
CONTINUOUS
 62
    47
 10
-12.784997
 20
-16.064634
 40
0.3
 50
7.957525
 51
45.0
  0
LINE
  8
型材断面
  6
CONTINUOUS
 62
    47
 10
-32.866472
 20
-34.025503
 11
-32.541565
 21
-33.700595
  0
ARC
  8
型材断面
  6
CONTINUOUS
 62
    47
 10
-32.329435
 20
-33.912727
 40
0.3
 50
84.805571
 51
135.0
  0
LINE
  8
型材断面
  6
CONTINUOUS
 62
    47
 10
-30.994743
 20
-33.732827
 11
-32.302272
 21
-33.61396
  0
ARC
  8
型材断面
  6
CONTINUOUS
 62
    47
 10
-31.021905
 20
-34.031594
 40
0.3
 50
45.0
 51
84.805571
  0
ARC
  8
型材断面
  6
CONTINUOUS
 62
    47
 10
-28.334899
 20
-31.344588
 40
0.3
 50
185.194429
 51
225.0
  0
LINE
  8
型材断面
  6
CONTINUOUS
 62
    47
 10
-28.752532
 20
-30.06422
 11
-28.633665
 21
-31.37175
  0
LINE
  8
型材断面
  6
CONTINUOUS
 62
    47
 10
-28.665895
 20
-29.824925
 11
-28.340988
 21
-29.50002
  0
ARC
  8
型材断面
  6
CONTINUOUS
 62
    47
 10
-28.453766
 20
-30.037057
 40
0.3
 50
135.0
 51
185.194429
  0
LINE
  8
型材断面
  6
CONTINUOUS
 62
    47
 10
-26.856065
 20
-37.773168
 11
-30.80977
 21
-33.819463
  0
LINE
  8
型材断面
  6
CONTINUOUS
 62
    47
 10
-26.856065
 20
-37.773168
 11
-24.593322
 21
-35.510427
  0
LINE
  8
型材断面
  6
CONTINUOUS
 62
    47
 10
-24.593322
 20
-35.510427
 11
-28.547027
 21
-31.55672
  0
LINE
  8
型材断面
  6
CONTINUOUS
 62
    47
 10
-10.168345
 20
-26.035195
 11
-11.582557
 21
-24.620982
  0
ARC
  8
型材断面
  6
CONTINUOUS
 62
    47
 10
-9.46124
 20
-25.328088
 40
1.0
 50
225.0
 51
315.0
  0
LINE
  8
型材断面
  6
CONTINUOUS
 62
    47
 10
-11.229005
 20
-28.51007
 11
-13.350325
 21
-26.38875
  0
LINE
  8
型材断面
  6
CONTINUOUS
 62
    47
 10
-12.431085
 20
-31.126365
 11
-11.229005
 21
-29.924283
  0
ARC
  8
型材断面
  6
CONTINUOUS
 62
    47
 10
-11.936113
 20
-29.217176
 40
1.0
 50
315.0
 51
405.0
  0
LINE
  8
型材断面
  6
CONTINUOUS
 62
    47
 10
-25.017587
 20
-42.298653
 11
-32.866472
 21
-34.449767
  0
LINE
  8
型材断面
  6
CONTINUOUS
 62
    47
 10
-23.603373
 20
-42.298653
 11
-22.401293
 21
-41.09657
  0
ARC
  8
型材断面
  6
CONTINUOUS
 62
    47
 10
-24.310482
 20
-41.591544
 40
1.0
 50
225.0
 51
315.0
  0
LINE
  8
型材断面
  6
CONTINUOUS
 62
    47
 10
-8.75413
 20
-26.035195
 11
-8.61271
 21
-25.893775
  0
LINE
  8
型材断面
  6
CONTINUOUS
 62
    47
 10
-8.61271
 20
-25.46951
 11
-11.582557
 21
-22.499662
  0
ARC
  8
型材断面
  6
CONTINUOUS
 62
    47
 10
-8.824844
 20
-25.681642
 40
0.3
 50
315.0
 51
405.0
  0
ENDBLK
  0
BLOCK
  2
*GRP_0014
 70
    65
 10
0.0
 20
0.0
  0
POINT
  8
型材断面
 62
    47
 10
-36.25998
 20
-31.055292
 50
-45.0
  0
ARC
  8
型材断面
  6
CONTINUOUS
 62
    47
 10
-50.331404
 20
-16.559603
 40
0.3
 50
135.0
 51
225.0
  0
LINE
  8
型材断面
  6
CONTINUOUS
 62
    47
 10
-50.543537
 20
-16.347473
 11
-49.90714
 21
-15.711078
  0
LINE
  8
型材断面
  6
CONTINUOUS
 62
    47
 10
-48.987903
 20
-16.20605
 11
-49.482877
 21
-15.711078
  0
ARC
  8
型材断面
  6
CONTINUOUS
 62
    47
 10
-49.695008
 20
-15.923207
 40
0.3
 50
45.0
 51
135.0
  0
LINE
  8
型材断面
  6
CONTINUOUS
 62
    47
 10
-49.200032
 20
-18.11524
 11
-50.543537
 21
-16.771738
  0
LINE
  8
型材断面
  6
CONTINUOUS
 62
    47
 10
-48.77577
 20
-18.11524
 11
-48.068663
 21
-17.408133
  0
ARC
  8
型材断面
  6
CONTINUOUS
 62
    47
 10
-48.987902
 20
-17.903106
 40
0.3
 50
225.0
 51
315.0
  0
LINE
  8
型材断面
  6
CONTINUOUS
 62
    47
 10
-45.947343
 20
-17.408133
 11
-47.008003
 21
-16.347473
  0
LINE
  8
型材断面
  6
CONTINUOUS
 62
    47
 10
-46.300895
 20
-17.761685
 11
-45.947343
 21
-17.408133
  0
LINE
  8
型材断面
  6
CONTINUOUS
 62
    47
 10
-46.300895
 20
-17.761685
 11
-48.068663
 21
-17.408133
  0
LINE
  8
型材断面
  6
CONTINUOUS
 62
    47
 10
-33.078
 20
-24.33778
 11
-44.038155
 21
-13.377625
  0
LINE
  8
型材断面
  6
CONTINUOUS
 62
    47
 10
-47.008003
 20
-16.347473
 11
-44.038155
 21
-13.377625
  0
LINE
  8
型材断面
  6
CONTINUOUS
 62
    47
 10
-35.34074
 20
-26.60052
 11
-35.34074
 21
-27.024785
  0
LINE
  8
型材断面
  6
CONTINUOUS
 62
    47
 10
-35.34074
 20
-27.024785
 11
-35.765005
 21
-27.024785
  0
LINE
  8
型材断面
  6
CONTINUOUS
 62
    47
 10
-35.34074
 20
-26.60052
 11
-33.078
 21
-24.33778
  0
LINE
  8
型材断面
  6
CONTINUOUS
 62
    47
 10
-32.441603
 20
-26.52981
 11
-32.264825
 21
-27.06014
  0
LINE
  8
型材断面
  6
CONTINUOUS
 62
    47
 10
-35.305385
 20
-30.1007
 11
-35.835715
 21
-29.923923
  0
LINE
  8
型材断面
  6
CONTINUOUS
 62
    47
 10
-35.305385
 20
-30.1007
 11
-32.264825
 21
-27.06014
  0
LINE
  8
型材断面
  6
CONTINUOUS
 62
    47
 10
-37.815615
 20
-29.075395
 11
-35.765005
 21
-27.024785
  0
ARC
  8
型材断面
  6
CONTINUOUS
 62
    47
 10
-37.603482
 20
-29.287525
 40
0.3
 50
135.0
 51
225.0
  0
LINE
  8
型材断面
  6
CONTINUOUS
 62
    47
 10
-36.825665
 20
-30.489607
 11
-37.815615
 21
-29.499658
  0
LINE
  8
型材断面
  6
CONTINUOUS
 62
    47
 10
-36.4014
 20
-30.489607
 11
-35.835715
 21
-29.923923
  0
ARC
  8
型材断面
  6
CONTINUOUS
 62
    47
 10
-36.613533
 20
-30.277475
 40
0.3
 50
225.0
 51
315.0
  0
LINE
  8
型材断面
  6
CONTINUOUS
 62
    47
 10
-32.441603
 20
-26.52981
 11
-30.603125
 21
-24.691333
  0
LINE
  8
型材断面
  6
CONTINUOUS
 62
    47
 10
-31.310232
 20
-23.27712
 11
-30.815258
 21
-22.782145
  0
ARC
  8
型材断面
  6
CONTINUOUS
 62
    47
 10
-30.603125
 20
-22.994275
 40
0.3
 50
45.0
 51
135.0
  0
LINE
  8
型材断面
  6
CONTINUOUS
 62
    47
 10
-29.401045
 20
-23.772095
 11
-30.390992
 21
-22.782145
  0
ARC
  8
型材断面
  6
CONTINUOUS
 62
    47
 10
-29.613176
 20
-23.984224
 40
0.3
 50
315.0
 51
405.0
  0
LINE
  8
型材断面
  6
CONTINUOUS
 62
    47
 10
-30.461705
 20
-24.832755
 11
-30.603125
 21
-24.691333
  0
LINE
  8
型材断面
  6
CONTINUOUS
 62
    47
 10
-30.03744
 20
-24.832755
 11
-29.401045
 21
-24.196357
  0
ARC
  8
型材断面
  6
CONTINUOUS
 62
    47
 10
-30.249572
 20
-24.620621
 40
0.3
 50
225.0
 51
315.0
  0
LINE
  8
型材断面
  6
CONTINUOUS
 62
    47
 10
-47.361555
 20
-14.579705
 11
-47.361555
 21
-15.00397
  0
LINE
  8
型材断面
  6
CONTINUOUS
 62
    47
 10
-47.361555
 20
-15.00397
 11
-47.78582
 21
-15.00397
  0
LINE
  8
型材断面
  6
CONTINUOUS
 62
    47
 10
-48.987903
 20
-16.20605
 11
-47.78582
 21
-15.00397
  0
LINE
  8
型材断面
  6
CONTINUOUS
 62
    47
 10
-47.361555
 20
-14.579705
 11
-45.098815
 21
-12.316965
  0
ARC
  8
型材断面
  6
CONTINUOUS
 62
    47
 10
-49.974116
 20
-7.017397
 40
0.3
 50
134.0
 51
225.0
  0
LINE
  8
型材断面
  6
CONTINUOUS
 62
    47
 10
-49.200032
 20
-8.215745
 11
-50.186247
 21
-7.22953
  0
ARC
  8
型材断面
  6
CONTINUOUS
 62
    47
 10
-48.987902
 20
-8.003611
 40
0.3
 50
225.0
 51
330.369338
  0
LINE
  8
型材断面
  6
CONTINUOUS
 62
    47
 10
-48.727132
 20
-8.151937
 11
-47.834458
 21
-6.5825
  0
ARC
  8
型材断面
  6
CONTINUOUS
 62
    47
 10
-47.573688
 20
-6.730819
 40
0.3
 50
0.0
 51
150.369338
  0
LINE
  8
型材断面
  6
CONTINUOUS
 62
    47
 10
-47.273687
 20
-10.14209
 11
-47.27369
 21
-6.730822
  0
LINE
  8
型材断面
  6
CONTINUOUS
 62
    47
 10
-45.098815
 20
-12.316965
 11
-47.273687
 21
-10.14209
  0
LINE
  8
型材断面
  6
CONTINUOUS
 62
    47
 10
-31.310232
 20
-23.27712
 11
-45.273687
 21
-9.313665
  0
LINE
  8
型材断面
  6
CONTINUOUS
 62
    47
 10
-45.273687
 20
-9.313665
 11
-45.27369
 21
-4.841528
  0
ARC
  8
型材断面
  6
CONTINUOUS
 62
    47
 10
-40.722583
 20
-1.419688
 40
0.3
 50
184.529049
 51
314.0
  0
LINE
  8
型材断面
  6
CONTINUOUS
 62
    47
 10
-41.134635
 20
1.93584
 11
-50.182513
 21
-6.801598
  0
ARC
  8
型材断面
  6
CONTINUOUS
 62
    47
 10
-40.439976
 20
1.216501
 40
1.0
 50
120.465208
 51
134.0
  0
LINE
  8
型材断面
  6
CONTINUOUS
 62
    47
 10
-36.062388
 20
2.663558
 11
-40.514188
 21
-1.635492
  0
ARC
  8
型材断面
  6
CONTINUOUS
 62
    47
 10
-36.757047
 20
3.382901
 40
1.0
 50
314.0
 51
480.465208
  0
LINE
  8
型材断面
  6
CONTINUOUS
 62
    47
 10
-37.264063
 20
4.244837
 11
-40.94699
 21
2.078435
  0
LINE
  8
型材断面
  6
CONTINUOUS
 62
    47
 10
-41.073743
 20
-0.785688
 11
-45.27369
 21
-4.841528
  0
LINE
  8
型材断面
  6
CONTINUOUS
 62
    47
 10
-41.021648
 20
-1.44338
 11
-41.073743
 21
-0.785688
  0
ENDBLK
  0
BLOCK
  2
*GRP_0015
 70
    65
 10
0.0
 20
0.0
  0
LINE
  8
ボルト／ビス
  6
CONTINUOUS
 10
-50.755523
 20
-21.509407
 11
-51.561532
 21
-20.833087
  0
ARC
  8
ボルト／ビス
  6
CONTINUOUS
 10
-52.654271
 20
-22.135366
 40
1.7
 50
49.999989
 51
135.0
  0
LINE
  8
ボルト／ビス
  6
CONTINUOUS
 10
-53.85635
 20
-20.933283
 11
-55.068872
 21
-22.145802
  0
LINE
  8
ボルト／ビス
  6
CONTINUOUS
 10
-55.70527
 20
-26.459155
 11
-56.381592
 21
-25.653147
  0
ARC
  8
ボルト／ビス
  6
CONTINUOUS
 10
-55.079317
 20
-24.560412
 40
1.7
 50
135.0
 51
220.000011
  0
LINE
  8
ボルト／ビス
  6
CONTINUOUS
 10
-56.281398
 20
-23.35833
 11
-55.068872
 21
-22.145802
  0
LINE
  8
ボルト／ビス
  6
CONTINUOUS
 10
-53.102023
 20
-20.723293
 11
-53.273258
 21
-20.55206
  0
LINE
  8
ボルト／ビス
  6
CONTINUOUS
 10
-53.84205
 20
-22.382678
 11
-54.337025
 21
-22.877653
  0
LINE
  8
ボルト／ビス
  6
CONTINUOUS
 10
-54.018887
 20
-21.640155
 11
-53.102023
 21
-20.723293
  0
LINE
  8
ボルト／ビス
  6
CONTINUOUS
 10
-53.84205
 20
-22.382678
 11
-54.018887
 21
-22.20584
  0
ARC
  8
ボルト／ビス
  6
CONTINUOUS
 10
-53.736046
 20
-21.923002
 40
0.4
 50
135.0
 51
225.0
  0
LINE
  8
ボルト／ビス
  6
CONTINUOUS
 10
-56.491385
 20
-24.112652
 11
-56.662618
 21
-23.94142
  0
LINE
  8
ボルト／ビス
  6
CONTINUOUS
 10
-54.832
 20
-23.372628
 11
-54.337025
 21
-22.877653
  0
LINE
  8
ボルト／ビス
  6
CONTINUOUS
 10
-55.574522
 20
-23.19579
 11
-56.491385
 21
-24.112652
  0
LINE
  8
ボルト／ビス
  6
CONTINUOUS
 10
-54.832
 20
-23.372628
 11
-55.008835
 21
-23.19579
  0
ARC
  8
ボルト／ビス
  6
CONTINUOUS
 10
-55.291681
 20
-23.478637
 40
0.4
 50
45.0
 51
135.0
  0
LINE
  8
ボルト／ビス
  6
CONTINUOUS
 10
-50.755523
 20
-21.509407
 11
-55.70527
 21
-26.459155
  0
LINE
  8
ボルト／ビス
  6
CONTINUOUS
 10
-56.462853
 20
-20.751825
 11
-37.48109
 21
-39.733585
  0
LINE
  8
ボルト／ビス
  6
CONTINUOUS
 10
-38.0276
 20
-36.35865
 11
-38.0276
 21
-37.065758
  0
LINE
  8
ボルト／ビス
  6
CONTINUOUS
 10
-40.856027
 20
-39.187078
 11
-40.14892
 21
-39.187078
  0
LINE
  8
ボルト／ビス
  6
CONTINUOUS
 10
-38.0276
 20
-36.35865
 11
-40.856027
 21
-39.187078
  0
LINE
  8
ボルト／ビス
  6
CONTINUOUS
 10
-38.0276
 20
-37.065758
 11
-40.14892
 21
-39.187078
  0
LINE
  8
ボルト／ビス
  6
CONTINUOUS
 10
-52.169735
 20
-22.92362
 11
-38.0276
 21
-37.065758
  0
LINE
  8
ボルト／ビス
  6
CONTINUOUS
 10
-54.291055
 20
-25.044942
 11
-40.14892
 21
-39.187078
  0
LINE
  8
ボルト／ビス
  6
CONTINUOUS
 10
-51.816183
 20
-22.570068
 11
-38.0276
 21
-36.35865
  0
LINE
  8
ボルト／ビス
  6
CONTINUOUS
 10
-54.64461
 20
-25.398495
 11
-40.856027
 21
-39.187078
  0
ENDBLK
  0
BLOCK
  2
*GRP_0016
 70
    65
 10
0.0
 20
0.0
  0
LINE
  8
ボルト／ビス
  6
CONTINUOUS
 10
-51.957582
 20
-28.085523
 11
-49.129155
 21
-25.257095
  0
LINE
  8
ボルト／ビス
  6
CONTINUOUS
 10
-53.93748
 20
-27.519837
 11
-51.957582
 21
-28.085523
  0
LINE
  8
ボルト／ビス
  6
CONTINUOUS
 10
-53.93748
 20
-27.519837
 11
-49.69484
 21
-23.277195
  0
LINE
  8
ボルト／ビス
  6
CONTINUOUS
 10
-49.69484
 20
-23.277195
 11
-49.129155
 21
-25.257095
  0
LINE
  8
ボルト／ビス
  6
CONTINUOUS
 10
-52.865175
 20
-24.349503
 11
-39.29219
 21
-37.922487
  0
LINE
  8
ボルト／ビス
  6
CONTINUOUS
 10
-42.27022
 20
-37.772885
 11
-41.563112
 21
-37.772885
  0
LINE
  8
ボルト／ビス
  6
CONTINUOUS
 10
-39.441792
 20
-34.944458
 11
-39.441792
 21
-35.651565
  0
LINE
  8
ボルト／ビス
  6
CONTINUOUS
 10
-41.563112
 20
-37.772885
 11
-39.441792
 21
-35.651565
  0
LINE
  8
ボルト／ビス
  6
CONTINUOUS
 10
-42.27022
 20
-37.772885
 11
-39.441792
 21
-34.944458
  0
LINE
  8
ボルト／ビス
  6
CONTINUOUS
 10
-49.482708
 20
-25.610647
 11
-39.441792
 21
-35.651565
  0
LINE
  8
ボルト／ビス
  6
CONTINUOUS
 10
-51.604028
 20
-27.731967
 11
-41.563112
 21
-37.772885
  0
LINE
  8
ボルト／ビス
  6
CONTINUOUS
 10
-51.957582
 20
-28.085523
 11
-42.27022
 21
-37.772885
  0
LINE
  8
ボルト／ビス
  6
CONTINUOUS
 10
-49.129155
 20
-25.257095
 11
-39.441792
 21
-34.944458
  0
ENDBLK
  0
BLOCK
  2
*GRP_0017
 70
    65
 10
0.0
 20
0.0
  0
LINE
  8
ボルト／ビス
  6
CONTINUOUS
 10
-35.694285
 20
-29.499808
 11
-32.865858
 21
-26.671382
  0
LINE
  8
ボルト／ビス
  6
CONTINUOUS
 10
-37.674183
 20
-28.934123
 11
-35.694285
 21
-29.499808
  0
LINE
  8
ボルト／ビス
  6
CONTINUOUS
 10
-37.674183
 20
-28.934123
 11
-33.431542
 21
-24.691482
  0
LINE
  8
ボルト／ビス
  6
CONTINUOUS
 10
-33.431542
 20
-24.691482
 11
-32.865858
 21
-26.671382
  0
LINE
  8
ボルト／ビス
  6
CONTINUOUS
 10
-36.601877
 20
-25.763788
 11
-26.477268
 21
-35.888397
  0
LINE
  8
ボルト／ビス
  6
CONTINUOUS
 10
-28.835347
 20
-36.358745
 11
-28.128243
 21
-36.358745
  0
LINE
  8
ボルト／ビス
  6
CONTINUOUS
 10
-26.00692
 20
-33.530318
 11
-26.00692
 21
-34.237425
  0
LINE
  8
ボルト／ビス
  6
CONTINUOUS
 10
-28.128243
 20
-36.358745
 11
-26.00692
 21
-34.237425
  0
LINE
  8
ボルト／ビス
  6
CONTINUOUS
 10
-28.835347
 20
-36.358745
 11
-26.00692
 21
-33.530318
  0
LINE
  8
ボルト／ビス
  6
CONTINUOUS
 10
-33.21941
 20
-27.024935
 11
-26.00692
 21
-34.237425
  0
LINE
  8
ボルト／ビス
  6
CONTINUOUS
 10
-35.34073
 20
-29.146255
 11
-28.128243
 21
-36.358745
  0
LINE
  8
ボルト／ビス
  6
CONTINUOUS
 10
-35.694285
 20
-29.499808
 11
-28.835347
 21
-36.358745
  0
LINE
  8
ボルト／ビス
  6
CONTINUOUS
 10
-32.865858
 20
-26.671382
 11
-26.00692
 21
-33.530318
  0
ENDBLK
  0
BLOCK
  2
*DIM_0018
 70
    65
 10
0.0
 20
0.0
  0
LINE
  8
寸法
  6
BYBLOCK
 62
     0
 10
-74.297628
 20
44.485
 11
-74.297628
 21
75.65
  0
LINE
  8
寸法
  6
BYBLOCK
 62
     0
 10
100.69794
 20
-49.54366
 11
100.69794
 21
75.65
  0
LINE
  8
寸法
  6
BYBLOCK
 62
     0
 10
-74.297628
 20
75.65
 11
100.69794
 21
75.65
  0
POINT
  8
寸法
 62
     0
 10
-74.297628
 20
75.65
  0
POINT
  8
寸法
 62
     0
 10
100.69794
 20
75.65
  0
TEXT
  7
TextStyle03
  8
寸法
  6
CONTINUOUS
 62
     0
 10
10.35
 20
76.025
  1
175
 40
3.5
 72
     5
 11
16.05
 21
76.025
  0
ENDBLK
  0
BLOCK
  2
*DIM_0019
 70
    65
 10
0.0
 20
0.0
  0
LINE
  8
寸法
  6
BYBLOCK
 62
     0
 10
43.20239
 20
63.455
 11
43.20239
 21
61.785
  0
LINE
  8
寸法
  6
BYBLOCK
 62
     0
 10
100.69794
 20
63.455
 11
100.69794
 21
61.785
  0
LINE
  8
寸法
  6
BYBLOCK
 62
     0
 10
43.20239
 20
61.785
 11
100.69794
 21
61.785
  0
POINT
  8
寸法
 62
     0
 10
43.20239
 20
61.785
  0
POINT
  8
寸法
 62
     0
 10
100.69794
 20
61.785
  0
TEXT
  7
TextStyle03
  8
寸法
  6
CONTINUOUS
 62
     0
 10
68.1125
 20
62.15
  1
57.5
 40
3.5
 72
     5
 11
75.7875
 21
62.15
  0
ENDBLK
  0
BLOCK
  2
*GRP_0020
 70
    65
 10
0.0
 20
0.0
  0
LINE
  8
型材断面
  6
CONTINUOUS
 10
195.0
 20
133.5
 11
195.0
 21
-133.5
  0
LINE
  8
型材断面
  6
CONTINUOUS
 10
195.0
 20
-133.5
 11
-185.0
 21
-133.5
  0
LINE
  8
型材断面
  6
CONTINUOUS
 10
-185.0
 20
-133.5
 11
-185.0
 21
133.5
  0
LINE
  8
型材断面
  6
CONTINUOUS
 10
195.0
 20
133.5
 11
-185.0
 21
133.5
  0
LINE
  8
型材断面
  6
CONTINUOUS
 10
145.0
 20
-133.5
 11
145.0
 21
-118.5
  0
LINE
  8
型材断面
  6
CONTINUOUS
 10
195.0
 20
-118.5
 11
145.0
 21
-118.5
  0
ENDBLK
  0
BLOCK
  2
*GRP_0021
 70
    65
 10
0.0
 20
0.0
  0
POLYLINE
  8
寸法
  6
BYBLOCK
 62
     0
 66
     1
  0
VERTEX
  8
寸法
 10
-53.790505
 20
-34.69598
  0
VERTEX
  8
寸法
 10
-52.290505
 20
-32.097905
  0
VERTEX
  8
寸法
 10
-54.88858
 20
-33.597905
  0
SEQEND
  0
POLYLINE
  8
寸法
  6
BYBLOCK
 62
     0
 66
     1
  0
VERTEX
  8
寸法
 10
-52.290505
 20
-32.097905
  0
VERTEX
  8
寸法
 10
-61.182125
 20
-40.989525
  0
VERTEX
  8
寸法
 10
-81.275325
 20
-40.989525
  0
SEQEND
  0
ENDBLK
  0
BLOCK
  2
*GRP_0022
 70
    65
 10
0.0
 20
0.0
  0
POLYLINE
  8
寸法
  6
BYBLOCK
 62
     0
 66
     1
  0
VERTEX
  8
寸法
 10
-40.915842
 20
-30.12098
  0
VERTEX
  8
寸法
 10
-39.415842
 20
-27.522905
  0
VERTEX
  8
寸法
 10
-42.01392
 20
-29.022905
  0
SEQEND
  0
POLYLINE
  8
寸法
  6
BYBLOCK
 62
     0
 66
     1
  0
VERTEX
  8
寸法
 10
-39.415842
 20
-27.522905
  0
VERTEX
  8
寸法
 10
-60.955037
 20
-49.062097
  0
VERTEX
  8
寸法
 10
-80.90371
 20
-49.062097
  0
SEQEND
  0
ENDBLK
  0
BLOCK
  2
*GRP_0023
 70
    65
 10
0.0
 20
0.0
  0
POLYLINE
  8
寸法
  6
BYBLOCK
 62
     0
 66
     1
  0
VERTEX
  8
寸法
 10
-34.583055
 20
-35.675045
  0
VERTEX
  8
寸法
 10
-33.083055
 20
-33.076967
  0
VERTEX
  8
寸法
 10
-35.681132
 20
-34.576967
  0
SEQEND
  0
POLYLINE
  8
寸法
  6
BYBLOCK
 62
     0
 66
     1
  0
VERTEX
  8
寸法
 10
-33.083055
 20
-33.076967
  0
VERTEX
  8
寸法
 10
-56.656308
 20
-56.65022
  0
VERTEX
  8
寸法
 10
-82.050097
 20
-56.65022
  0
SEQEND
  0
ENDBLK
  0
BLOCK
  2
*GRP_0024
 70
    65
 10
0.0
 20
0.0
  0
POLYLINE
  8
寸法
  6
BYBLOCK
 62
     0
 66
     1
  0
VERTEX
  8
寸法
 10
-15.040505
 20
-9.37483
  0
VERTEX
  8
寸法
 10
-16.540505
 20
-11.972905
  0
VERTEX
  8
寸法
 10
-13.94243
 20
-10.472905
  0
SEQEND
  0
POLYLINE
  8
寸法
  6
BYBLOCK
 62
     0
 66
     1
  0
VERTEX
  8
寸法
 10
-16.540505
 20
-11.972905
  0
VERTEX
  8
寸法
 10
-11.552835
 20
-6.985235
  0
VERTEX
  8
寸法
 10
11.710885
 20
-6.985235
  0
SEQEND
  0
ENDBLK
  0
BLOCK
  2
*GRP_0025
 70
    65
 10
0.0
 20
0.0
  0
POLYLINE
  8
寸法
  6
BYBLOCK
 62
     0
 66
     1
  0
VERTEX
  8
寸法
 10
-31.163813
 20
-17.270597
  0
VERTEX
  8
寸法
 10
-32.663813
 20
-19.868672
  0
VERTEX
  8
寸法
 10
-30.065735
 20
-18.368672
  0
SEQEND
  0
POLYLINE
  8
寸法
  6
BYBLOCK
 62
     0
 66
     1
  0
VERTEX
  8
寸法
 10
-32.663813
 20
-19.868672
  0
VERTEX
  8
寸法
 10
-13.409862
 20
-0.614722
  0
VERTEX
  8
寸法
 10
12.17778
 20
-0.614722
  0
SEQEND
  0
ENDBLK
  0
BLOCK
  2
*GRP_0026
 70
    65
 10
0.0
 20
0.0
  0
POLYLINE
  8
寸法
  6
BYBLOCK
 62
     0
 66
     1
  0
VERTEX
  8
寸法
 10
-70.10839
 20
-17.205015
  0
VERTEX
  8
寸法
 10
-67.510312
 20
-18.705015
  0
VERTEX
  8
寸法
 10
-69.010312
 20
-16.10694
  0
SEQEND
  0
POLYLINE
  8
寸法
  6
BYBLOCK
 62
     0
 66
     1
  0
VERTEX
  8
寸法
 10
-67.510312
 20
-18.705015
  0
VERTEX
  8
寸法
 10
-72.3523
 20
-13.86303
  0
VERTEX
  8
寸法
 10
-78.238983
 20
-13.86303
  0
SEQEND
  0
ENDBLK
  0
BLOCK
  2
*GRP_0027
 70
    65
 10
0.0
 20
0.0
  0
POLYLINE
  8
寸法
  6
BYBLOCK
 62
     0
 66
     1
  0
VERTEX
  8
寸法
 10
-48.93796
 20
0.069873
  0
VERTEX
  8
寸法
 10
-46.339885
 20
-1.430127
  0
VERTEX
  8
寸法
 10
-47.839885
 20
1.167948
  0
SEQEND
  0
POLYLINE
  8
寸法
  6
BYBLOCK
 62
     0
 66
     1
  0
VERTEX
  8
寸法
 10
-46.339885
 20
-1.430127
  0
VERTEX
  8
寸法
 10
-49.803767
 20
2.033755
  0
VERTEX
  8
寸法
 10
-57.888983
 20
2.033755
  0
SEQEND
  0
ENDBLK
  0
BLOCK
  2
*GRP_0028
 70
    65
 10
0.0
 20
0.0
  0
POLYLINE
  8
寸法
  6
BYBLOCK
 62
     0
 66
     1
  0
VERTEX
  8
寸法
 10
-75.802165
 20
-65.329085
  0
VERTEX
  8
寸法
 10
-74.302165
 20
-62.73101
  0
VERTEX
  8
寸法
 10
-76.90024
 20
-64.23101
  0
SEQEND
  0
POLYLINE
  8
寸法
  6
BYBLOCK
 62
     0
 66
     1
  0
VERTEX
  8
寸法
 10
-74.302165
 20
-62.73101
  0
VERTEX
  8
寸法
 10
-78.995187
 20
-67.424032
  0
VERTEX
  8
寸法
 10
-88.312065
 20
-67.424032
  0
SEQEND
  0
ENDBLK
  0
BLOCK
  2
*GRP_0029
 70
    65
 10
0.0
 20
0.0
  0
POLYLINE
  8
寸法
  6
BYBLOCK
 62
     0
 66
     1
  0
VERTEX
  8
寸法
 10
-58.228363
 20
-11.915413
  0
VERTEX
  8
寸法
 10
-55.630285
 20
-13.415413
  0
VERTEX
  8
寸法
 10
-57.130285
 20
-10.817338
  0
SEQEND
  0
POLYLINE
  8
寸法
  6
BYBLOCK
 62
     0
 66
     1
  0
VERTEX
  8
寸法
 10
-55.630285
 20
-13.415413
  0
VERTEX
  8
寸法
 10
-65.938682
 20
-3.107015
  0
VERTEX
  8
寸法
 10
-78.78844
 20
-3.107015
  0
SEQEND
  0
ENDBLK
  0
BLOCK
  2
*GRP_0030
 70
    65
 10
0.0
 20
0.0
  0
POLYLINE
  8
寸法
  6
BYBLOCK
 62
     0
 66
     1
  0
VERTEX
  8
寸法
 10
-37.956992
 20
3.81536
  0
VERTEX
  8
寸法
 10
-39.456992
 20
1.217282
  0
VERTEX
  8
寸法
 10
-36.858918
 20
2.717282
  0
SEQEND
  0
POLYLINE
  8
寸法
  6
BYBLOCK
 62
     0
 66
     1
  0
VERTEX
  8
寸法
 10
-39.456992
 20
1.217282
  0
VERTEX
  8
寸法
 10
-26.867698
 20
13.80658
  0
VERTEX
  8
寸法
 10
-24.73026
 20
13.80658
  0
SEQEND
  0
ENDBLK
  0
BLOCK
  2
*GRP_0031
 70
    65
 10
0.0
 20
0.0
  0
POLYLINE
  8
寸法
  6
BYBLOCK
 62
     0
 66
     1
  0
VERTEX
  8
寸法
 10
-10.53522
 20
-16.66331
  0
VERTEX
  8
寸法
 10
-12.03522
 20
-19.261385
  0
VERTEX
  8
寸法
 10
-9.437145
 20
-17.761385
  0
SEQEND
  0
POLYLINE
  8
寸法
  6
BYBLOCK
 62
     0
 66
     1
  0
VERTEX
  8
寸法
 10
-12.03522
 20
-19.261385
  0
VERTEX
  8
寸法
 10
-6.408147
 20
-13.634313
  0
VERTEX
  8
寸法
 10
8.168058
 20
-13.634313
  0
SEQEND
  0
ENDBLK
  0
BLOCK
  2
*GRP_0032
 70
    65
 10
0.0
 20
0.0
  0
POLYLINE
  8
寸法
  6
BYBLOCK
 62
     0
 66
     1
  0
VERTEX
  8
寸法
 10
50.350373
 20
-57.645585
  0
VERTEX
  8
寸法
 10
48.850373
 20
-60.24366
  0
VERTEX
  8
寸法
 10
51.44845
 20
-58.74366
  0
SEQEND
  0
POLYLINE
  8
寸法
  6
BYBLOCK
 62
     0
 66
     1
  0
VERTEX
  8
寸法
 10
48.850373
 20
-60.24366
  0
VERTEX
  8
寸法
 10
61.07407
 20
-48.019965
  0
VERTEX
  8
寸法
 10
66.51679
 20
-48.019965
  0
SEQEND
  0
ENDBLK
  0
BLOCK
  2
*GRP_0033
 70
    65
 10
0.0
 20
0.0
  0
POINT
  8
型材断面
 62
    47
 10
-139.231598
 20
48.607748
 50
-45.0
  0
LINE
  8
型材断面
  6
CONTINUOUS
 62
    47
 10
-140.80231
 20
74.220088
 11
-143.54495
 21
76.96273
  0
LINE
  8
型材断面
  6
CONTINUOUS
 62
    47
 10
-140.80231
 20
74.220088
 11
-137.095202
 21
74.220088
  0
LINE
  8
型材断面
  6
CONTINUOUS
 62
    47
 10
-137.095202
 20
74.220088
 11
-134.438347
 21
76.876943
  0
LINE
  8
型材断面
  6
CONTINUOUS
 62
    47
 10
-134.438347
 20
80.58405
 11
-134.438347
 21
76.876943
  0
LINE
  8
型材断面
  6
CONTINUOUS
 62
    47
 10
-134.438347
 20
80.58405
 11
-137.18099
 21
83.32669
  0
ARC
  8
型材断面
  6
CONTINUOUS
 62
    47
 10
-145.242008
 20
76.962731
 40
0.3
 50
135.0
 51
225.0
  0
LINE
  8
型材断面
  6
CONTINUOUS
 62
    47
 10
-143.54495
 20
76.96273
 11
-142.342868
 21
78.16481
  0
ARC
  8
型材断面
  6
CONTINUOUS
 62
    47
 10
-142.555002
 20
78.376945
 40
0.3
 50
315.0
 51
405.0
  0
LINE
  8
型材断面
  6
CONTINUOUS
 62
    47
 10
-138.38307
 20
82.12461
 11
-137.18099
 21
83.32669
  0
ARC
  8
型材断面
  6
CONTINUOUS
 62
    47
 10
-138.595204
 20
82.336743
 40
0.3
 50
225.0
 51
315.0
  0
ARC
  8
型材断面
  6
CONTINUOUS
 62
    47
 10
-137.18099
 20
85.023749
 40
0.3
 50
45.0
 51
135.0
  0
LINE
  8
型材断面
  6
CONTINUOUS
 62
    47
 10
-139.231598
 20
50.729068
 11
-140.857945
 21
52.355413
  0
LINE
  8
型材断面
  6
CONTINUOUS
 62
    47
 10
-140.857945
 20
52.355413
 11
-129.190683
 21
64.022675
  0
LINE
  8
型材断面
  6
CONTINUOUS
 62
    47
 10
-127.564337
 20
62.39633
 11
-129.190683
 21
64.022675
  0
LINE
  8
型材断面
  6
CONTINUOUS
 62
    47
 10
-138.170938
 20
57.446582
 11
-127.91789
 21
67.69963
  0
LINE
  8
型材断面
  6
CONTINUOUS
 62
    47
 10
-127.91789
 20
67.69963
 11
-134.352563
 21
74.134303
  0
LINE
  8
型材断面
  6
CONTINUOUS
 62
    47
 10
-128.271443
 20
65.224757
 11
-126.503677
 21
66.992523
  0
LINE
  8
型材断面
  6
CONTINUOUS
 62
    47
 10
-128.412865
 20
61.547803
 11
-127.564337
 21
62.39633
  0
ARC
  8
型材断面
  6
CONTINUOUS
 62
    47
 10
-128.200734
 20
61.335672
 40
0.3
 50
135.0
 51
225.0
  0
LINE
  8
型材断面
  6
CONTINUOUS
 62
    47
 10
-127.776468
 20
60.487142
 11
-128.412865
 21
61.123538
  0
ARC
  8
型材断面
  6
CONTINUOUS
 62
    47
 10
-127.564338
 20
60.699275
 40
0.3
 50
225.0
 51
315.0
  0
ARC
  8
型材断面
  6
CONTINUOUS
 62
    47
 10
-137.534544
 20
50.72907
 40
0.3
 50
315.0
 51
405.0
  0
LINE
  8
型材断面
  6
CONTINUOUS
 62
    47
 10
-139.231598
 20
50.729068
 11
-138.38307
 21
51.577595
  0
LINE
  8
型材断面
  6
CONTINUOUS
 62
    47
 10
-137.32241
 20
50.9412
 11
-137.958807
 21
51.577595
  0
ARC
  8
型材断面
  6
CONTINUOUS
 62
    47
 10
-138.17094
 20
51.365466
 40
0.3
 50
45.0
 51
135.0
  0
ARC
  8
型材断面
  6
CONTINUOUS
 62
    47
 10
-147.57546
 20
57.375874
 40
0.3
 50
135.0
 51
225.0
  0
LINE
  8
型材断面
  6
CONTINUOUS
 62
    47
 10
-138.170938
 20
57.446582
 11
-142.837842
 21
62.113487
  0
ARC
  8
型材断面
  6
CONTINUOUS
 62
    47
 10
-143.049976
 20
61.901357
 40
0.3
 50
45.0
 51
135.0
  0
LINE
  8
型材断面
  6
CONTINUOUS
 62
    47
 10
-141.511498
 20
72.807957
 11
-145.454137
 21
76.750597
  0
ARC
  8
型材断面
  6
CONTINUOUS
 62
    47
 10
-141.299367
 20
73.020091
 40
0.3
 50
225.0
 51
270.0
  0
LINE
  8
型材断面
  6
CONTINUOUS
 62
    47
 10
-141.299365
 20
72.720088
 11
-135.891038
 21
72.720088
  0
LINE
  8
型材断面
  6
CONTINUOUS
 62
    47
 10
-135.678907
 20
72.807957
 11
-134.352563
 21
74.134303
  0
ARC
  8
型材断面
  6
CONTINUOUS
 62
    47
 10
-135.891041
 20
73.020091
 40
0.3
 50
270.0
 51
315.0
  0
LINE
  8
型材断面
  6
CONTINUOUS
 62
    47
 10
-133.026217
 20
81.293238
 11
-136.968858
 21
85.235878
  0
LINE
  8
型材断面
  6
CONTINUOUS
 62
    47
 10
-132.938347
 20
81.081107
 11
-132.938347
 21
75.548515
  0
ARC
  8
型材断面
  6
CONTINUOUS
 62
    47
 10
-133.23835
 20
81.081108
 40
0.3
 50
0.0
 51
45.0
  0
LINE
  8
型材断面
  6
CONTINUOUS
 62
    47
 10
-139.14373
 20
83.48527
 11
-137.39312
 21
85.235878
  0
ARC
  8
型材断面
  6
CONTINUOUS
 62
    47
 10
-138.9316
 20
83.273139
 40
0.3
 50
135.0
 51
180.0
  0
LINE
  8
型材断面
  6
CONTINUOUS
 62
    47
 10
-138.807335
 20
82.12461
 11
-139.143733
 21
82.461005
  0
LINE
  8
型材断面
  6
CONTINUOUS
 62
    47
 10
-139.231598
 20
82.673137
 11
-139.231598
 21
83.273137
  0
ARC
  8
型材断面
  6
CONTINUOUS
 62
    47
 10
-138.9316
 20
82.673139
 40
0.3
 50
180.0
 51
225.0
  0
LINE
  8
型材断面
  6
CONTINUOUS
 62
    47
 10
-145.454137
 20
77.174863
 11
-143.703528
 21
78.925473
  0
ARC
  8
型材断面
  6
CONTINUOUS
 62
    47
 10
-143.491398
 20
78.713341
 40
0.3
 50
90.0
 51
135.0
  0
LINE
  8
型材断面
  6
CONTINUOUS
 62
    47
 10
-143.491398
 20
79.01334
 11
-142.891395
 21
79.01334
  0
LINE
  8
型材断面
  6
CONTINUOUS
 62
    47
 10
-142.342868
 20
78.589075
 11
-142.679265
 21
78.925473
  0
ARC
  8
型材断面
  6
CONTINUOUS
 62
    47
 10
-142.891398
 20
78.713341
 40
0.3
 50
45.0
 51
90.0
  0
LINE
  8
型材断面
  6
CONTINUOUS
 62
    47
 10
-125.089463
 20
65.57831
 11
-126.503677
 21
66.992523
  0
ARC
  8
型材断面
  6
CONTINUOUS
 62
    47
 10
-124.382357
 20
66.285419
 40
1.0
 50
225.0
 51
315.0
  0
LINE
  8
型材断面
  6
CONTINUOUS
 62
    47
 10
-126.150122
 20
63.103437
 11
-128.271443
 21
65.224757
  0
LINE
  8
型材断面
  6
CONTINUOUS
 62
    47
 10
-127.352205
 20
60.487142
 11
-126.150122
 21
61.689222
  0
ARC
  8
型材断面
  6
CONTINUOUS
 62
    47
 10
-126.857231
 20
62.396332
 40
1.0
 50
315.0
 51
405.0
  0
LINE
  8
型材断面
  6
CONTINUOUS
 62
    47
 10
-139.938705
 20
49.314855
 11
-147.78759
 21
57.16374
  0
LINE
  8
型材断面
  6
CONTINUOUS
 62
    47
 10
-138.524493
 20
49.314855
 11
-137.32241
 21
50.516935
  0
ARC
  8
型材断面
  6
CONTINUOUS
 62
    47
 10
-139.2316
 20
50.021963
 40
1.0
 50
225.0
 51
315.0
  0
LINE
  8
型材断面
  6
CONTINUOUS
 62
    47
 10
-123.533828
 20
66.143995
 11
-132.938347
 21
75.548515
  0
LINE
  8
型材断面
  6
CONTINUOUS
 62
    47
 10
-123.67525
 20
65.57831
 11
-123.533828
 21
65.719732
  0
ARC
  8
型材断面
  6
CONTINUOUS
 62
    47
 10
-123.745961
 20
65.931866
 40
0.3
 50
315.0
 51
405.0
  0
LINE
  8
型材断面
  6
CONTINUOUS
 62
    47
 10
-141.777182
 20
53.840337
 11
-139.51444
 21
56.10308
  0
LINE
  8
型材断面
  6
CONTINUOUS
 62
    47
 10
-143.468148
 20
60.056785
 11
-139.51444
 21
56.10308
  0
ARC
  8
型材断面
  6
CONTINUOUS
 62
    47
 10
-143.256017
 20
60.26892
 40
0.3
 50
185.194429
 51
225.0
  0
LINE
  8
型材断面
  6
CONTINUOUS
 62
    47
 10
-143.554782
 20
60.241757
 11
-143.673647
 21
61.549287
  0
LINE
  8
型材断面
  6
CONTINUOUS
 62
    47
 10
-143.587015
 20
61.78858
 11
-143.262108
 21
62.113487
  0
ARC
  8
型材断面
  6
CONTINUOUS
 62
    47
 10
-143.374883
 20
61.57645
 40
0.3
 50
135.0
 51
185.194429
  0
LINE
  8
型材断面
  6
CONTINUOUS
 62
    47
 10
-147.78759
 20
57.588003
 11
-147.462685
 21
57.91291
  0
ARC
  8
型材断面
  6
CONTINUOUS
 62
    47
 10
-147.250553
 20
57.70078
 40
0.3
 50
84.805571
 51
135.0
  0
LINE
  8
型材断面
  6
CONTINUOUS
 62
    47
 10
-147.22339
 20
57.999547
 11
-145.91586
 21
57.88068
  0
LINE
  8
型材断面
  6
CONTINUOUS
 62
    47
 10
-145.73089
 20
57.794045
 11
-141.777182
 21
53.840337
  0
ARC
  8
型材断面
  6
CONTINUOUS
 62
    47
 10
-145.943023
 20
57.581914
 40
0.3
 50
45.0
 51
84.805571
  0
ENDBLK
  0
BLOCK
  2
*GRP_0034
 70
    65
 10
0.0
 20
0.0
  0
POINT
  8
型材断面
 62
    47
 10
-151.181098
 20
60.558215
 50
-45.0
  0
ARC
  8
型材断面
  6
CONTINUOUS
 62
    47
 10
-165.252522
 20
75.053903
 40
0.3
 50
135.0
 51
225.0
  0
LINE
  8
型材断面
  6
CONTINUOUS
 62
    47
 10
-165.464655
 20
75.266035
 11
-164.828258
 21
75.90243
  0
LINE
  8
型材断面
  6
CONTINUOUS
 62
    47
 10
-163.90902
 20
75.407458
 11
-164.403995
 21
75.90243
  0
ARC
  8
型材断面
  6
CONTINUOUS
 62
    47
 10
-164.616126
 20
75.6903
 40
0.3
 50
45.0
 51
135.0
  0
LINE
  8
型材断面
  6
CONTINUOUS
 62
    47
 10
-164.12115
 20
73.498267
 11
-165.464655
 21
74.84177
  0
LINE
  8
型材断面
  6
CONTINUOUS
 62
    47
 10
-163.696887
 20
73.498267
 11
-162.98978
 21
74.205375
  0
ARC
  8
型材断面
  6
CONTINUOUS
 62
    47
 10
-163.909019
 20
73.710401
 40
0.3
 50
225.0
 51
315.0
  0
LINE
  8
型材断面
  6
CONTINUOUS
 62
    47
 10
-160.86846
 20
74.205375
 11
-161.92912
 21
75.266035
  0
LINE
  8
型材断面
  6
CONTINUOUS
 62
    47
 10
-161.222012
 20
73.851822
 11
-160.86846
 21
74.205375
  0
LINE
  8
型材断面
  6
CONTINUOUS
 62
    47
 10
-161.222012
 20
73.851822
 11
-162.98978
 21
74.205375
  0
LINE
  8
型材断面
  6
CONTINUOUS
 62
    47
 10
-147.999118
 20
67.275727
 11
-158.959273
 21
78.235882
  0
LINE
  8
型材断面
  6
CONTINUOUS
 62
    47
 10
-161.92912
 20
75.266035
 11
-158.959273
 21
78.235882
  0
LINE
  8
型材断面
  6
CONTINUOUS
 62
    47
 10
-150.261858
 20
65.012988
 11
-150.261858
 21
64.588723
  0
LINE
  8
型材断面
  6
CONTINUOUS
 62
    47
 10
-150.261858
 20
64.588723
 11
-150.686122
 21
64.588723
  0
LINE
  8
型材断面
  6
CONTINUOUS
 62
    47
 10
-150.261858
 20
65.012988
 11
-147.999118
 21
67.275727
  0
LINE
  8
型材断面
  6
CONTINUOUS
 62
    47
 10
-147.36272
 20
65.083698
 11
-147.185942
 21
64.553368
  0
LINE
  8
型材断面
  6
CONTINUOUS
 62
    47
 10
-150.226502
 20
61.512808
 11
-150.756833
 21
61.689585
  0
LINE
  8
型材断面
  6
CONTINUOUS
 62
    47
 10
-150.226502
 20
61.512808
 11
-147.185942
 21
64.553368
  0
LINE
  8
型材断面
  6
CONTINUOUS
 62
    47
 10
-152.736733
 20
62.538112
 11
-150.686122
 21
64.588723
  0
ARC
  8
型材断面
  6
CONTINUOUS
 62
    47
 10
-152.5246
 20
62.325981
 40
0.3
 50
135.0
 51
225.0
  0
LINE
  8
型材断面
  6
CONTINUOUS
 62
    47
 10
-151.746782
 20
61.1239
 11
-152.736733
 21
62.11385
  0
LINE
  8
型材断面
  6
CONTINUOUS
 62
    47
 10
-151.322517
 20
61.1239
 11
-150.756833
 21
61.689585
  0
ARC
  8
型材断面
  6
CONTINUOUS
 62
    47
 10
-151.534651
 20
61.336032
 40
0.3
 50
225.0
 51
315.0
  0
LINE
  8
型材断面
  6
CONTINUOUS
 62
    47
 10
-147.36272
 20
65.083698
 11
-145.524243
 21
66.922175
  0
LINE
  8
型材断面
  6
CONTINUOUS
 62
    47
 10
-146.23135
 20
68.336387
 11
-145.736375
 21
68.831363
  0
ARC
  8
型材断面
  6
CONTINUOUS
 62
    47
 10
-145.524243
 20
68.619232
 40
0.3
 50
45.0
 51
135.0
  0
LINE
  8
型材断面
  6
CONTINUOUS
 62
    47
 10
-144.322163
 20
67.841412
 11
-145.31211
 21
68.831363
  0
ARC
  8
型材断面
  6
CONTINUOUS
 62
    47
 10
-144.534294
 20
67.629282
 40
0.3
 50
315.0
 51
405.0
  0
LINE
  8
型材断面
  6
CONTINUOUS
 62
    47
 10
-145.382823
 20
66.780753
 11
-145.524243
 21
66.922175
  0
LINE
  8
型材断面
  6
CONTINUOUS
 62
    47
 10
-144.958558
 20
66.780753
 11
-144.322163
 21
67.41715
  0
ARC
  8
型材断面
  6
CONTINUOUS
 62
    47
 10
-145.17069
 20
66.992886
 40
0.3
 50
225.0
 51
315.0
  0
LINE
  8
型材断面
  6
CONTINUOUS
 62
    47
 10
-162.282672
 20
77.033802
 11
-162.282672
 21
76.609538
  0
LINE
  8
型材断面
  6
CONTINUOUS
 62
    47
 10
-162.282672
 20
76.609538
 11
-162.706938
 21
76.609538
  0
LINE
  8
型材断面
  6
CONTINUOUS
 62
    47
 10
-163.90902
 20
75.407458
 11
-162.706938
 21
76.609538
  0
LINE
  8
型材断面
  6
CONTINUOUS
 62
    47
 10
-162.282672
 20
77.033802
 11
-160.019932
 21
79.296543
  0
ARC
  8
型材断面
  6
CONTINUOUS
 62
    47
 10
-164.895234
 20
84.59611
 40
0.3
 50
134.0
 51
225.0
  0
LINE
  8
型材断面
  6
CONTINUOUS
 62
    47
 10
-164.12115
 20
83.397762
 11
-165.107365
 21
84.383978
  0
ARC
  8
型材断面
  6
CONTINUOUS
 62
    47
 10
-163.909019
 20
83.609895
 40
0.3
 50
225.0
 51
330.369338
  0
LINE
  8
型材断面
  6
CONTINUOUS
 62
    47
 10
-163.64825
 20
83.46157
 11
-162.755575
 21
85.031007
  0
ARC
  8
型材断面
  6
CONTINUOUS
 62
    47
 10
-162.494806
 20
84.882688
 40
0.3
 50
0.0
 51
150.369338
  0
LINE
  8
型材断面
  6
CONTINUOUS
 62
    47
 10
-162.194805
 20
81.471417
 11
-162.194808
 21
84.882685
  0
LINE
  8
型材断面
  6
CONTINUOUS
 62
    47
 10
-160.019932
 20
79.296543
 11
-162.194805
 21
81.471417
  0
LINE
  8
型材断面
  6
CONTINUOUS
 62
    47
 10
-146.23135
 20
68.336387
 11
-160.194805
 21
82.299842
  0
LINE
  8
型材断面
  6
CONTINUOUS
 62
    47
 10
-160.194805
 20
82.299842
 11
-160.194808
 21
86.77198
  0
ARC
  8
型材断面
  6
CONTINUOUS
 62
    47
 10
-155.643701
 20
90.193819
 40
0.3
 50
184.529049
 51
314.0
  0
LINE
  8
型材断面
  6
CONTINUOUS
 62
    47
 10
-156.055753
 20
93.549347
 11
-165.10363
 21
84.81191
  0
ARC
  8
型材断面
  6
CONTINUOUS
 62
    47
 10
-155.361094
 20
92.830007
 40
1.0
 50
120.465208
 51
134.0
  0
LINE
  8
型材断面
  6
CONTINUOUS
 62
    47
 10
-150.983505
 20
94.277065
 11
-155.435305
 21
89.978015
  0
ARC
  8
型材断面
  6
CONTINUOUS
 62
    47
 10
-151.678165
 20
94.996407
 40
1.0
 50
314.0
 51
480.465208
  0
LINE
  8
型材断面
  6
CONTINUOUS
 62
    47
 10
-152.18518
 20
95.858345
 11
-155.868108
 21
93.691943
  0
LINE
  8
型材断面
  6
CONTINUOUS
 62
    47
 10
-155.99486
 20
90.82782
 11
-160.194808
 21
86.77198
  0
LINE
  8
型材断面
  6
CONTINUOUS
 62
    47
 10
-155.942765
 20
90.170127
 11
-155.99486
 21
90.82782
  0
ENDBLK
  0
BLOCK
  2
*GRP_0035
 70
    65
 10
0.0
 20
0.0
  0
INSERT
  2
*HAT_0007
  8
ゴム等
 10
0.0
 20
0.0
  0
LINE
  8
ゴム等
 62
    63
 10
-138.597985
 20
81.915183
 11
-139.658625
 21
82.975842
  0
LINE
  8
ゴム等
 62
    63
 10
-137.18377
 20
85.450687
 11
-139.658625
 21
82.975842
  0
LINE
  8
ゴム等
 62
    63
 10
-140.012168
 20
81.208087
 11
-139.30507
 21
80.500987
  0
LINE
  8
ゴム等
 62
    63
 10
-139.30507
 20
79.0868
 11
-139.30507
 21
79.0868
  0
LINE
  8
ゴム等
 62
    63
 10
-138.177492
 20
82.335665
 11
-138.597985
 21
81.915183
  0
LINE
  8
ゴム等
 62
    63
 10
-137.837795
 20
82.220435
 11
-137.395907
 21
78.874673
  0
ARC
  8
ゴム等
 62
    63
 10
-138.036077
 20
82.194244
 40
0.199997
 50
7.523858
 51
135.000037
  0
LINE
  8
ゴム等
 62
    63
 10
-137.395907
 20
78.874673
 11
-138.24443
 21
78.02615
  0
ARC
  8
ゴム等
 62
    63
 10
-140.012168
 20
79.793891
 40
0.999987
 50
315.000079
 51
405.000037
  0
ARC
  8
ゴム等
 62
    63
 10
-140.719266
 20
80.500988
 40
0.999987
 50
45.000037
 51
135.000065
  0
LINE
  8
ゴム等
 62
    63
 10
-142.133463
 20
78.379695
 11
-143.194113
 21
79.440345
  0
LINE
  8
ゴム等
 62
    63
 10
-145.66895
 20
76.965485
 11
-143.194113
 21
79.440345
  0
LINE
  8
ゴム等
 62
    63
 10
-141.426368
 20
79.79389
 11
-140.719268
 21
79.0868
  0
LINE
  8
ゴム等
 62
    63
 10
-139.305058
 20
79.0868
 11
-139.305058
 21
79.0868
  0
LINE
  8
ゴム等
 62
    63
 10
-142.553935
 20
77.959202
 11
-142.133463
 21
78.379695
  0
LINE
  8
ゴム等
 62
    63
 10
-142.438705
 20
77.619505
 11
-139.092947
 21
77.177633
  0
ARC
  8
ゴム等
 62
    63
 10
-142.412516
 20
77.817795
 40
0.199997
 50
135.000083
 51
262.476263
  0
LINE
  8
ゴム等
 62
    63
 10
-139.092947
 20
77.177633
 11
-138.24443
 21
78.02615
  0
ARC
  8
ゴム等
 62
    63
 10
-140.012167
 20
79.793891
 40
0.999987
 50
225.000083
 51
315.000041
  0
ARC
  8
ゴム等
 62
    63
 10
-140.719266
 20
80.500988
 40
0.999987
 50
135.000056
 51
225.000083
  0
LINE
  8
ゴム等
 62
    63
 10
-145.66895
 20
76.965485
 11
-149.911585
 21
81.20813
  0
LINE
  8
ゴム等
 62
    63
 10
-137.18377
 20
85.450687
 11
-141.426452
 21
89.693338
  0
LINE
  8
ゴム等
  6
CONTINUOUS
 10
-142.840657
 20
88.279123
 11
-142.840662
 21
87.572007
  0
LINE
  8
ゴム等
  6
CONTINUOUS
 10
-148.497403
 20
82.622367
 11
-147.790293
 21
82.622367
  0
LINE
  8
ゴム等
  6
CONTINUOUS
 10
-149.911585
 20
81.20813
 11
-148.49736
 21
82.622367
  0
LINE
  8
ゴム等
  6
CONTINUOUS
 10
-142.840657
 20
88.279123
 11
-141.426452
 21
89.693338
  0
LINE
  8
ゴム等
  6
CONTINUOUS
 10
-147.790255
 20
82.622363
 11
-142.840662
 21
87.572007
  0
ENDBLK
  0
BLOCK
  2
*GRP_0036
 70
    65
 10
0.0
 20
0.0
  0
LINE
  8
ゴム等
  6
CONTINUOUS
 10
-143.438705
 20
59.886357
 11
-143.827613
 21
61.54806
  0
LINE
  8
ゴム等
  6
CONTINUOUS
 10
-147.221725
 20
58.153947
 11
-145.560025
 21
57.765037
  0
LINE
  8
ゴム等
  6
CONTINUOUS
 10
-143.438705
 20
59.886357
 11
-140.29208
 21
56.739732
  0
LINE
  8
ゴム等
  6
CONTINUOUS
 10
-140.29208
 20
56.739732
 11
-142.4134
 21
54.618412
  0
LINE
  8
ゴム等
  6
CONTINUOUS
 10
-145.560025
 20
57.765037
 11
-142.4134
 21
54.618412
  0
LINE
  8
ゴム等
  6
CONTINUOUS
 10
-138.877865
 20
58.153947
 11
-137.817205
 21
59.214608
  0
LINE
  8
ゴム等
  6
CONTINUOUS
 10
-138.877865
 20
58.153947
 11
-143.049795
 21
62.325878
  0
LINE
  8
ゴム等
  6
CONTINUOUS
 10
-143.049795
 20
62.325878
 11
-143.827613
 21
61.54806
  0
LINE
  8
ゴム等
  6
CONTINUOUS
 10
-147.221725
 20
58.153947
 11
-147.999543
 21
57.37613
  0
LINE
  8
ゴム等
  6
CONTINUOUS
 10
-147.999543
 20
57.37613
 11
-151.535078
 21
60.911663
  0
LINE
  8
ゴム等
  6
CONTINUOUS
 10
-150.82797
 20
61.61877
 11
-150.29764
 21
61.441993
  0
LINE
  8
ゴム等
  6
CONTINUOUS
 10
-147.11566
 20
64.623975
 11
-147.292437
 21
65.154305
  0
LINE
  8
ゴム等
  6
CONTINUOUS
 10
-147.11566
 20
64.623975
 11
-150.29764
 21
61.441993
  0
LINE
  8
ゴム等
  6
CONTINUOUS
 10
-151.535078
 20
60.911663
 11
-150.82797
 21
61.61877
  0
LINE
  8
ゴム等
  6
CONTINUOUS
 10
-147.292437
 20
65.154305
 11
-145.493812
 21
66.891215
  0
LINE
  8
ゴム等
  6
CONTINUOUS
 10
-137.817205
 20
59.214608
 11
-145.493812
 21
66.891215
  0
INSERT
  2
*HAT_0008
  8
ゴム等
 10
0.0
 20
0.0
  0
ENDBLK
  0
BLOCK
  2
*GRP_0037
 70
    65
 10
0.0
 20
0.0
  0
LINE
  8
ボルト／ビス
  6
CONTINUOUS
 10
-150.615402
 20
62.1137
 11
-147.786975
 21
64.942125
  0
LINE
  8
ボルト／ビス
  6
CONTINUOUS
 10
-152.5953
 20
62.679385
 11
-150.615402
 21
62.1137
  0
LINE
  8
ボルト／ビス
  6
CONTINUOUS
 10
-152.5953
 20
62.679385
 11
-148.35266
 21
66.922025
  0
LINE
  8
ボルト／ビス
  6
CONTINUOUS
 10
-148.35266
 20
66.922025
 11
-147.786975
 21
64.942125
  0
LINE
  8
ボルト／ビス
  6
CONTINUOUS
 10
-151.522995
 20
65.84972
 11
-141.398385
 21
55.72511
  0
LINE
  8
ボルト／ビス
  6
CONTINUOUS
 10
-143.756465
 20
55.254762
 11
-143.04936
 21
55.254762
  0
LINE
  8
ボルト／ビス
  6
CONTINUOUS
 10
-140.928038
 20
58.08319
 11
-140.928038
 21
57.376082
  0
LINE
  8
ボルト／ビス
  6
CONTINUOUS
 10
-143.04936
 20
55.254762
 11
-140.928038
 21
57.376082
  0
LINE
  8
ボルト／ビス
  6
CONTINUOUS
 10
-143.756465
 20
55.254762
 11
-140.928038
 21
58.08319
  0
LINE
  8
ボルト／ビス
  6
CONTINUOUS
 10
-148.140528
 20
64.588573
 11
-140.928038
 21
57.376082
  0
LINE
  8
ボルト／ビス
  6
CONTINUOUS
 10
-150.261848
 20
62.467252
 11
-143.04936
 21
55.254762
  0
LINE
  8
ボルト／ビス
  6
CONTINUOUS
 10
-150.615402
 20
62.1137
 11
-143.756465
 21
55.254762
  0
LINE
  8
ボルト／ビス
  6
CONTINUOUS
 10
-147.786975
 20
64.942125
 11
-140.928038
 21
58.08319
  0
ENDBLK
  0
BLOCK
  2
*GRP_0038
 70
    65
 10
0.0
 20
0.0
  0
POLYLINE
  8
寸法
  6
BYBLOCK
 62
     0
 66
     1
  0
VERTEX
  8
寸法
 10
-150.984295
 20
56.237665
  0
VERTEX
  8
寸法
 10
-149.484295
 20
58.83574
  0
VERTEX
  8
寸法
 10
-152.08237
 20
57.33574
  0
SEQEND
  0
POLYLINE
  8
寸法
  6
BYBLOCK
 62
     0
 66
     1
  0
VERTEX
  8
寸法
 10
-149.484295
 20
58.83574
  0
VERTEX
  8
寸法
 10
-155.8691
 20
52.450935
  0
VERTEX
  8
寸法
 10
-159.80709
 20
52.450935
  0
SEQEND
  0
ENDBLK
  0
BLOCK
  2
*GRP_0039
 70
    65
 10
0.0
 20
0.0
  0
POLYLINE
  8
寸法
  6
BYBLOCK
 62
     0
 66
     1
  0
VERTEX
  8
寸法
 10
-137.709295
 20
90.058815
  0
VERTEX
  8
寸法
 10
-139.209295
 20
87.46074
  0
VERTEX
  8
寸法
 10
-136.61122
 20
88.96074
  0
SEQEND
  0
POLYLINE
  8
寸法
  6
BYBLOCK
 62
     0
 66
     1
  0
VERTEX
  8
寸法
 10
-139.209295
 20
87.46074
  0
VERTEX
  8
寸法
 10
-136.334207
 20
90.335828
  0
VERTEX
  8
寸法
 10
-130.79017
 20
90.335828
  0
SEQEND
  0
ENDBLK
  0
BLOCK
  2
*DIM_0040
 70
    65
 10
0.0
 20
0.0
  0
LINE
  8
寸法
  6
BYBLOCK
 62
     0
 10
-125.889048
 20
114.847307
 11
-125.424448
 21
115.311908
  0
LINE
  8
寸法
  6
BYBLOCK
 62
     0
 10
-121.080722
 20
110.03898
 11
-120.616122
 21
110.50358
  0
LINE
  8
寸法
  6
BYBLOCK
 62
     0
 10
-125.424448
 20
115.311908
 11
-120.616122
 21
110.50358
  0
POINT
  8
寸法
 62
     0
 10
-125.424448
 20
115.311908
  0
POINT
  8
寸法
 62
     0
 10
-120.616122
 20
110.50358
  0
TEXT
  7
TextStyle03
  8
寸法
  6
CONTINUOUS
 62
     0
 10
-125.137311
 20
115.433883
  1
6.8
 40
4.0
 50
315.0
 72
     5
 11
-120.541117
 21
110.837689
  0
ENDBLK
  0
BLOCK
  2
*DIM_0041
 70
    65
 10
0.0
 20
0.0
  0
LINE
  8
寸法
  6
BYBLOCK
 62
     0
 10
-116.837835
 20
105.796092
 11
-116.373235
 21
106.260693
  0
LINE
  8
寸法
  6
BYBLOCK
 62
     0
 10
-120.616122
 20
110.50358
 11
-116.373235
 21
106.260693
  0
POINT
  8
寸法
 62
     0
 10
-116.373235
 20
106.260693
  0
TEXT
  7
TextStyle03
  8
寸法
  6
CONTINUOUS
 62
     0
 10
-119.02132
 20
109.317893
  1
6
 40
4.0
 50
315.0
 72
     5
 11
-117.607107
 21
107.90368
  0
ENDBLK
  0
BLOCK
  2
*DIM_0042
 70
    65
 10
0.0
 20
0.0
  0
LINE
  8
寸法
  6
BYBLOCK
 62
     0
 10
-100.15034
 20
89.108598
 11
-99.685737
 21
89.5732
  0
LINE
  8
寸法
  6
BYBLOCK
 62
     0
 10
-116.373235
 20
106.260693
 11
-99.685737
 21
89.5732
  0
POINT
  8
寸法
 62
     0
 10
-99.685737
 20
89.5732
  0
TEXT
  7
TextStyle03
  8
寸法
  6
CONTINUOUS
 62
     0
 10
-110.932806
 20
101.229379
  1
23.6
 40
4.0
 50
315.0
 72
     5
 11
-104.745621
 21
95.042194
  0
ENDBLK
  0
BLOCK
  2
*GRP_0043
 70
    65
 10
0.0
 20
0.0
  0
POLYLINE
  8
寸法
  6
BYBLOCK
 62
     0
 66
     1
  0
VERTEX
  8
寸法
 10
-161.177622
 20
92.120437
  0
VERTEX
  8
寸法
 10
-160.57969
 20
89.180628
  0
VERTEX
  8
寸法
 10
-159.62761
 20
92.025545
  0
SEQEND
  0
POLYLINE
  8
寸法
  6
BYBLOCK
 62
     0
 66
     1
  0
VERTEX
  8
寸法
 10
-160.57969
 20
89.180628
  0
VERTEX
  8
寸法
 10
-159.211065
 20
111.53596
  0
VERTEX
  8
寸法
 10
-156.728765
 20
111.53596
  0
SEQEND
  0
ENDBLK
  0
BLOCK
  2
*GRP_0044
 70
    65
 10
0.0
 20
0.0
  0
LINE
  8
別途部材
  6
CONTINUOUS
 10
56.951147
 20
-89.74366
 11
-0.548852
 21
-89.74366
  0
LINE
  8
別途部材
  6
CONTINUOUS
 10
56.951147
 20
-88.14366
 11
-0.548852
 21
-88.14366
  0
LINE
  8
別途部材
  6
CONTINUOUS
 10
13.951147
 20
-89.74366
 11
7.715765
 21
-93.34366
  0
LINE
  8
別途部材
  6
CONTINUOUS
 10
-0.548852
 20
-93.34366
 11
7.715765
 21
-93.34366
  0
LINE
  8
別途部材
  6
CONTINUOUS
 10
-0.548852
 20
-91.74366
 11
7.287047
 21
-91.74366
  0
LINE
  8
別途部材
  6
CONTINUOUS
 10
10.751147
 20
-89.74366
 11
7.287047
 21
-91.74366
  0
LINE
  8
別途部材
  6
CONTINUOUS
 10
-0.548852
 20
-89.74366
 11
-0.548852
 21
-88.14366
  0
LINE
  8
別途部材
  6
CONTINUOUS
 10
-0.548852
 20
-91.74366
 11
-0.548852
 21
-93.34366
  0
LINE
  8
別途部材
  6
CONTINUOUS
 10
42.451147
 20
-89.74366
 11
48.68653
 21
-93.34366
  0
LINE
  8
別途部材
  6
CONTINUOUS
 10
56.951147
 20
-93.34366
 11
48.68653
 21
-93.34366
  0
LINE
  8
別途部材
  6
CONTINUOUS
 10
56.951147
 20
-91.74366
 11
49.115248
 21
-91.74366
  0
LINE
  8
別途部材
  6
CONTINUOUS
 10
45.651147
 20
-89.74366
 11
49.115248
 21
-91.74366
  0
LINE
  8
別途部材
  6
CONTINUOUS
 10
56.951147
 20
-91.74366
 11
56.951147
 21
-93.34366
  0
LINE
  8
別途部材
  6
CONTINUOUS
 10
20.451147
 20
-106.14366
 11
20.451147
 21
-89.74366
  0
LINE
  8
別途部材
  6
CONTINUOUS
 10
22.051147
 20
-106.14366
 11
22.051147
 21
-89.74366
  0
LINE
  8
別途部材
  6
CONTINUOUS
 10
20.451147
 20
-106.14366
 11
22.051147
 21
-106.14366
  0
LINE
  8
別途部材
  6
CONTINUOUS
 10
56.951147
 20
-88.14366
 11
56.951147
 21
-89.74366
  0
ENDBLK
  0
BLOCK
  2
*GRP_0045
 70
    65
 10
0.0
 20
0.0
  0
POLYLINE
  8
寸法
  6
BYBLOCK
 62
     0
 66
     1
  0
VERTEX
  8
寸法
 10
32.819888
 20
-91.24366
  0
VERTEX
  8
寸法
 10
30.221812
 20
-89.74366
  0
VERTEX
  8
寸法
 10
31.721812
 20
-92.341735
  0
SEQEND
  0
POLYLINE
  8
寸法
  6
BYBLOCK
 62
     0
 66
     1
  0
VERTEX
  8
寸法
 10
30.221812
 20
-89.74366
  0
VERTEX
  8
寸法
 10
40.855242
 20
-100.37709
  0
VERTEX
  8
寸法
 10
54.34763
 20
-100.37709
  0
SEQEND
  0
ENDBLK
  0
BLOCK
  2
*GRP_0046
 70
    65
 10
0.0
 20
0.0
  0
LINE
  8
型材断面
  6
CONTINUOUS
 62
    47
 10
-72.802165
 20
-88.654003
 11
-71.302165
 21
-88.654003
  0
LINE
  8
型材断面
  6
CONTINUOUS
 62
    47
 10
-72.302165
 20
-87.154003
 11
-70.802165
 21
-87.154003
  0
LINE
  8
型材断面
  6
CONTINUOUS
 62
    47
 10
-69.302165
 20
-89.454003
 11
-69.302165
 21
-86.954003
  0
LINE
  8
型材断面
  6
CONTINUOUS
 62
    47
 10
-55.302165
 20
-104.454003
 11
-55.302165
 21
-86.954003
  0
LINE
  8
型材断面
  6
CONTINUOUS
 62
    47
 10
-69.302165
 20
-86.954003
 11
-57.302165
 21
-86.954003
  0
ARC
  8
型材断面
  6
CONTINUOUS
 62
    47
 10
-53.502166
 20
-106.254003
 40
0.2
 50
270.0
 51
366.37937
  0
ARC
  8
型材断面
  6
CONTINUOUS
 62
    47
 10
-55.291021
 20
-106.454003
 40
2.0
 50
6.37937
 51
90.0
  0
LINE
  8
型材断面
  6
CONTINUOUS
 62
    47
 10
-57.002165
 20
-106.454003
 11
-53.502165
 21
-106.454003
  0
ARC
  8
型材断面
  6
CONTINUOUS
 62
    47
 10
-57.002166
 20
-106.154003
 40
0.3
 50
180.0
 51
270.0
  0
LINE
  8
型材断面
  6
CONTINUOUS
 62
    47
 10
-69.302165
 20
-89.454003
 11
-68.102165
 21
-89.454003
  0
ARC
  8
型材断面
  6
CONTINUOUS
 62
    47
 10
-68.102166
 20
-89.754003
 40
0.3
 50
0.0
 51
90.0
  0
LINE
  8
型材断面
  6
CONTINUOUS
 62
    47
 10
-67.802165
 20
-90.654003
 11
-67.802165
 21
-89.754003
  0
ARC
  8
型材断面
  6
CONTINUOUS
 62
    47
 10
-68.102166
 20
-90.654003
 40
0.3
 50
270.0
 51
360.0
  0
LINE
  8
型材断面
  6
CONTINUOUS
 62
    47
 10
-71.002165
 20
-90.954003
 11
-68.102165
 21
-90.954003
  0
LINE
  8
型材断面
  6
CONTINUOUS
 62
    47
 10
-71.302165
 20
-90.654003
 11
-71.302165
 21
-88.654003
  0
ARC
  8
型材断面
  6
CONTINUOUS
 62
    47
 10
-71.002166
 20
-90.654003
 40
0.3
 50
180.0
 51
270.0
  0
LINE
  8
型材断面
  6
CONTINUOUS
 62
    47
 10
-72.802165
 20
-90.654003
 11
-72.802165
 21
-88.654003
  0
ARC
  8
型材断面
  6
CONTINUOUS
 62
    47
 10
-73.102166
 20
-90.654003
 40
0.3
 50
270.0
 51
360.0
  0
LINE
  8
型材断面
  6
CONTINUOUS
 62
    47
 10
-74.002165
 20
-90.954003
 11
-73.102165
 21
-90.954003
  0
ARC
  8
型材断面
  6
CONTINUOUS
 62
    47
 10
-74.002166
 20
-90.654003
 40
0.3
 50
180.0
 51
270.0
  0
LINE
  8
型材断面
  6
CONTINUOUS
 62
    47
 10
-70.802165
 20
-87.154003
 11
-70.802165
 21
-85.254003
  0
ARC
  8
型材断面
  6
CONTINUOUS
 62
    47
 10
-70.502166
 20
-85.254003
 40
0.3
 50
90.0
 51
180.0
  0
LINE
  8
型材断面
  6
CONTINUOUS
 62
    47
 10
-74.302165
 20
-90.654003
 11
-74.302165
 21
-26.954003
  0
LINE
  8
型材断面
  6
CONTINUOUS
 62
    47
 10
-70.908053
 20
-25.398368
 11
-69.49384
 21
-23.984155
  0
LINE
  8
型材断面
  6
CONTINUOUS
 62
    47
 10
-69.140285
 20
-24.337708
 11
-69.49384
 21
-23.984155
  0
LINE
  8
型材断面
  6
CONTINUOUS
 62
    47
 10
-60.655005
 20
-24.337708
 11
-60.301452
 21
-23.984155
  0
LINE
  8
型材断面
  6
CONTINUOUS
 62
    47
 10
-63.483432
 20
-27.166135
 11
-61.715665
 21
-25.398368
  0
LINE
  8
型材断面
  6
CONTINUOUS
 62
    47
 10
-62.422772
 20
-24.69126
 11
-62.422772
 21
-23.984155
  0
LINE
  8
型材断面
  6
CONTINUOUS
 62
    47
 10
-62.422772
 20
-23.984155
 11
-63.129878
 21
-23.984155
  0
LINE
  8
型材断面
  6
CONTINUOUS
 62
    47
 10
-63.483432
 20
-23.6306
 11
-63.483432
 21
-22.923495
  0
LINE
  8
型材断面
  6
CONTINUOUS
 62
    47
 10
-63.483432
 20
-22.923495
 11
-64.190538
 21
-22.923495
  0
LINE
  8
型材断面
  6
CONTINUOUS
 62
    47
 10
-61.715665
 20
-25.398368
 11
-62.422772
 21
-24.69126
  0
LINE
  8
型材断面
  6
CONTINUOUS
 62
    47
 10
-63.129878
 20
-23.984155
 11
-63.483432
 21
-23.6306
  0
ARC
  8
型材断面
  6
CONTINUOUS
 62
    47
 10
-67.302166
 20
-26.882935
 40
0.5
 50
45.0
 51
180.0
  0
LINE
  8
型材断面
  6
CONTINUOUS
 62
    47
 10
-72.302165
 20
-87.154003
 11
-72.302165
 21
-29.620907
  0
LINE
  8
型材断面
  6
CONTINUOUS
 62
    47
 10
-72.302165
 20
-29.620907
 11
-70.65572
 21
-27.97446
  0
ARC
  8
型材断面
  6
CONTINUOUS
 62
    47
 10
-70.302166
 20
-28.328014
 40
0.5
 50
0.0
 51
135.0
  0
LINE
  8
型材断面
  6
CONTINUOUS
 62
    47
 10
-49.129165
 20
-22.004255
 11
-48.63419
 21
-21.50928
  0
LINE
  8
型材断面
  6
CONTINUOUS
 62
    47
 10
-48.77561
 20
-22.357808
 11
-49.129165
 21
-22.004255
  0
LINE
  8
型材断面
  6
CONTINUOUS
 62
    47
 10
-55.846677
 20
-29.428877
 11
-56.200233
 21
-29.075323
  0
LINE
  8
型材断面
  6
CONTINUOUS
 62
    47
 10
-56.695208
 20
-29.570298
 11
-56.200233
 21
-29.075323
  0
LINE
  8
型材断面
  6
CONTINUOUS
 62
    47
 10
-56.341652
 20
-29.92385
 11
-56.695208
 21
-29.570298
  0
LINE
  8
型材断面
  6
CONTINUOUS
 62
    47
 10
-58.533685
 20
-32.115883
 11
-56.341652
 21
-29.92385
  0
LINE
  8
型材断面
  6
CONTINUOUS
 62
    47
 10
-58.533685
 20
-32.115883
 11
-62.069218
 21
-28.580347
  0
LINE
  8
型材断面
  6
CONTINUOUS
 62
    47
 10
-50.048402
 20
-26.459027
 11
-49.990927
 21
-27.003727
  0
ARC
  8
型材断面
  6
CONTINUOUS
 62
    47
 10
-50.189825
 20
-27.024713
 40
0.2
 50
263.97666
 51
366.02334
  0
LINE
  8
型材断面
  6
CONTINUOUS
 62
    47
 10
-50.21081
 20
-27.22361
 11
-50.75551
 21
-27.166135
  0
LINE
  8
型材断面
  6
CONTINUOUS
 62
    47
 10
-50.048402
 20
-26.459027
 11
-47.078555
 21
-23.48918
  0
LINE
  8
型材断面
  6
CONTINUOUS
 62
    47
 10
-47.078555
 20
-23.064915
 11
-48.63419
 21
-21.50928
  0
ARC
  8
型材断面
  6
CONTINUOUS
 62
    47
 10
-47.290687
 20
-23.277047
 40
0.3
 50
315.0
 51
405.0
  0
LINE
  8
型材断面
  6
CONTINUOUS
 62
    47
 10
-58.321552
 20
-34.732178
 11
-50.75551
 21
-27.166135
  0
LINE
  8
型材断面
  6
CONTINUOUS
 62
    47
 10
-58.745817
 20
-34.732178
 11
-66.948613
 21
-26.529382
  0
ARC
  8
型材断面
  6
CONTINUOUS
 62
    47
 10
-58.533685
 20
-34.520045
 40
0.3
 50
225.0
 51
315.0
  0
LINE
  8
型材断面
  6
CONTINUOUS
 62
    47
 10
-62.069218
 20
-28.580347
 11
-59.452923
 21
-25.964052
  0
LINE
  8
型材断面
  6
CONTINUOUS
 62
    47
 10
-59.452923
 20
-25.53979
 11
-60.655005
 21
-24.337708
  0
ARC
  8
型材断面
  6
CONTINUOUS
 62
    47
 10
-59.665056
 20
-25.751921
 40
0.3
 50
315.0
 51
405.0
  0
ARC
  8
型材断面
  6
CONTINUOUS
 62
    47
 10
-63.306656
 20
-20.342554
 40
0.3
 50
45.0
 51
135.0
  0
LINE
  8
型材断面
  6
CONTINUOUS
 62
    47
 10
-62.458127
 20
-20.766817
 11
-63.094523
 21
-20.130422
  0
LINE
  8
型材断面
  6
CONTINUOUS
 62
    47
 10
-62.776325
 20
-21.50928
 11
-62.458127
 21
-21.191082
  0
ARC
  8
型材断面
  6
CONTINUOUS
 62
    47
 10
-62.67026
 20
-20.97895
 40
0.3
 50
315.0
 51
405.0
  0
LINE
  8
型材断面
  6
CONTINUOUS
 62
    47
 10
-65.039067
 20
-21.650702
 11
-63.518787
 21
-20.130422
  0
LINE
  8
型材断面
  6
CONTINUOUS
 62
    47
 10
-64.190538
 20
-22.923495
 11
-65.039067
 21
-22.074965
  0
ARC
  8
型材断面
  6
CONTINUOUS
 62
    47
 10
-64.826935
 20
-21.862834
 40
0.3
 50
135.0
 51
225.0
  0
LINE
  8
型材断面
  6
CONTINUOUS
 62
    47
 10
-70.908053
 20
-25.398368
 11
-71.61516
 21
-24.69126
  0
LINE
  8
型材断面
  6
CONTINUOUS
 62
    47
 10
-74.302165
 20
-26.954003
 11
-72.039425
 21
-24.69126
  0
ARC
  8
型材断面
  6
CONTINUOUS
 62
    47
 10
-71.827292
 20
-24.903393
 40
0.3
 50
45.0
 51
135.0
  0
LINE
  8
型材断面
  6
CONTINUOUS
 62
    47
 10
-69.802165
 20
-31.954003
 11
-69.802165
 21
-28.328015
  0
ARC
  8
型材断面
  6
CONTINUOUS
 62
    47
 10
-69.502166
 20
-31.954003
 40
0.3
 50
180.0
 51
270.0
  0
LINE
  8
型材断面
  6
CONTINUOUS
 62
    47
 10
-69.502165
 20
-32.254003
 11
-68.102165
 21
-32.254003
  0
LINE
  8
型材断面
  6
CONTINUOUS
 62
    47
 10
-67.802165
 20
-31.954003
 11
-67.802165
 21
-26.882935
  0
ARC
  8
型材断面
  6
CONTINUOUS
 62
    47
 10
-68.102166
 20
-31.954003
 40
0.3
 50
270.0
 51
360.0
  0
LINE
  8
型材断面
  6
CONTINUOUS
 62
    47
 10
-51.604037
 20
-25.186235
 11
-51.604037
 21
-25.6105
  0
LINE
  8
型材断面
  6
CONTINUOUS
 62
    47
 10
-51.604037
 20
-25.6105
 11
-52.028302
 21
-25.6105
  0
LINE
  8
型材断面
  6
CONTINUOUS
 62
    47
 10
-55.846677
 20
-29.428877
 11
-52.028302
 21
-25.6105
  0
LINE
  8
型材断面
  6
CONTINUOUS
 62
    47
 10
-51.604037
 20
-25.186235
 11
-48.77561
 21
-22.357808
  0
LINE
  8
型材断面
  6
CONTINUOUS
 62
    47
 10
-62.776325
 20
-22.216388
 11
-62.776325
 21
-21.50928
  0
LINE
  8
型材断面
  6
CONTINUOUS
 62
    47
 10
-60.301452
 20
-23.984155
 11
-62.069218
 21
-22.216388
  0
LINE
  8
型材断面
  6
CONTINUOUS
 62
    47
 10
-62.069218
 20
-22.216388
 11
-62.776325
 21
-22.216388
  0
LINE
  8
型材断面
  6
CONTINUOUS
 62
    47
 10
-57.302165
 20
-98.754003
 11
-57.002165
 21
-98.454003
  0
LINE
  8
型材断面
  6
CONTINUOUS
 62
    47
 10
-57.002165
 20
-98.454003
 11
-57.302165
 21
-98.154003
  0
LINE
  8
型材断面
  6
CONTINUOUS
 62
    47
 10
-57.302165
 20
-106.154003
 11
-57.302165
 21
-98.754003
  0
LINE
  8
型材断面
  6
CONTINUOUS
 62
    47
 10
-57.302165
 20
-98.154003
 11
-57.302165
 21
-86.954003
  0
LINE
  8
型材断面
  6
CONTINUOUS
 62
    47
 10
-66.665413
 20
-23.984155
 11
-67.018965
 21
-23.6306
  0
LINE
  8
型材断面
  6
CONTINUOUS
 62
    47
 10
-66.665413
 20
-24.69126
 11
-66.665413
 21
-23.984155
  0
LINE
  8
型材断面
  6
CONTINUOUS
 62
    47
 10
-65.958305
 20
-24.69126
 11
-66.665413
 21
-24.69126
  0
LINE
  8
型材断面
  6
CONTINUOUS
 62
    47
 10
-65.604752
 20
-25.044815
 11
-65.958305
 21
-24.69126
  0
LINE
  8
型材断面
  6
CONTINUOUS
 62
    47
 10
-65.604752
 20
-25.75192
 11
-65.604752
 21
-25.044815
  0
LINE
  8
型材断面
  6
CONTINUOUS
 62
    47
 10
-69.140285
 20
-24.337708
 11
-67.867495
 21
-23.064915
  0
ARC
  8
型材断面
  6
CONTINUOUS
 62
    47
 10
-67.726073
 20
-23.206337
 40
0.2
 50
331.874494
 51
495.0
  0
LINE
  8
型材断面
  6
CONTINUOUS
 62
    47
 10
-67.54969
 20
-23.300618
 11
-67.726073
 21
-23.6306
  0
LINE
  8
型材断面
  6
CONTINUOUS
 62
    47
 10
-67.018965
 20
-23.6306
 11
-67.726073
 21
-23.6306
  0
LINE
  8
型材断面
  6
CONTINUOUS
 62
    47
 10
-63.483432
 20
-27.166135
 11
-64.897645
 21
-25.75192
  0
LINE
  8
型材断面
  6
CONTINUOUS
 62
    47
 10
-64.897645
 20
-25.75192
 11
-65.604752
 21
-25.75192
  0
LINE
  8
型材断面
  6
CONTINUOUS
 62
    47
 10
-13.102165
 20
-77.254003
 11
-13.402165
 21
-76.954003
  0
LINE
  8
型材断面
  6
CONTINUOUS
 62
    47
 10
-13.402165
 20
-76.954003
 11
-13.702165
 21
-77.254003
  0
LINE
  8
型材断面
  6
CONTINUOUS
 62
    47
 10
-18.302165
 20
-77.254003
 11
-13.702165
 21
-77.254003
  0
LINE
  8
型材断面
  6
CONTINUOUS
 62
    47
 10
-22.802165
 20
-76.254003
 11
-20.802165
 21
-76.254003
  0
ARC
  8
型材断面
  6
CONTINUOUS
 62
    47
 10
-20.802166
 20
-76.754003
 40
0.5
 50
0.0
 51
90.0
  0
LINE
  8
型材断面
  6
CONTINUOUS
 62
    47
 10
-19.152165
 20
-75.754003
 11
-10.202165
 21
-75.754003
  0
ARC
  8
型材断面
  6
CONTINUOUS
 62
    47
 10
-10.202166
 20
-76.054003
 40
0.3
 50
0.0
 51
90.0
  0
LINE
  8
型材断面
  6
CONTINUOUS
 62
    47
 10
-9.902165
 20
-76.954003
 11
-9.902165
 21
-76.054003
  0
LINE
  8
型材断面
  6
CONTINUOUS
 62
    47
 10
-13.102165
 20
-77.254003
 11
-10.202165
 21
-77.254003
  0
ARC
  8
型材断面
  6
CONTINUOUS
 62
    47
 10
-10.202166
 20
-76.954003
 40
0.3
 50
270.0
 51
360.0
  0
LINE
  8
型材断面
  6
CONTINUOUS
 62
    47
 10
-19.152165
 20
-75.754003
 11
-19.152165
 21
-75.054003
  0
ARC
  8
型材断面
  6
CONTINUOUS
 62
    47
 10
-19.452166
 20
-75.054003
 40
0.3
 50
0.0
 51
90.0
  0
LINE
  8
型材断面
  6
CONTINUOUS
 62
    47
 10
-24.002165
 20
-74.754003
 11
-19.452165
 21
-74.754003
  0
ARC
  8
型材断面
  6
CONTINUOUS
 62
    47
 10
-24.002166
 20
-75.054003
 40
0.3
 50
90.0
 51
180.0
  0
LINE
  8
型材断面
  6
CONTINUOUS
 62
    47
 10
-24.302165
 20
-77.954003
 11
-24.302165
 21
-75.054003
  0
ARC
  8
型材断面
  6
CONTINUOUS
 62
    47
 10
-24.002166
 20
-77.954003
 40
0.3
 50
180.0
 51
270.0
  0
LINE
  8
型材断面
  6
CONTINUOUS
 62
    47
 10
-24.002165
 20
-78.254003
 11
-23.102165
 21
-78.254003
  0
LINE
  8
型材断面
  6
CONTINUOUS
 62
    47
 10
-22.802165
 20
-77.954003
 11
-22.802165
 21
-76.254003
  0
ARC
  8
型材断面
  6
CONTINUOUS
 62
    47
 10
-23.102166
 20
-77.954003
 40
0.3
 50
270.0
 51
360.0
  0
LINE
  8
型材断面
  6
CONTINUOUS
 62
    47
 10
-20.302165
 20
-89.454003
 11
-20.302165
 21
-86.954003
  0
LINE
  8
型材断面
  6
CONTINUOUS
 62
    47
 10
-18.302165
 20
-93.354003
 11
-18.302165
 21
-77.254003
  0
LINE
  8
型材断面
  6
CONTINUOUS
 62
    47
 10
-20.302165
 20
-84.954003
 11
-20.302165
 21
-76.754003
  0
LINE
  8
型材断面
  6
CONTINUOUS
 62
    47
 10
-22.502165
 20
-89.454003
 11
-20.302165
 21
-89.454003
  0
ARC
  8
型材断面
  6
CONTINUOUS
 62
    47
 10
-22.502166
 20
-89.754003
 40
0.3
 50
90.0
 51
180.0
  0
LINE
  8
型材断面
  6
CONTINUOUS
 62
    47
 10
-22.802165
 20
-90.654003
 11
-22.802165
 21
-89.754003
  0
LINE
  8
型材断面
  6
CONTINUOUS
 62
    47
 10
-22.502165
 20
-90.954003
 11
-20.302165
 21
-90.954003
  0
ARC
  8
型材断面
  6
CONTINUOUS
 62
    47
 10
-22.502166
 20
-90.654003
 40
0.3
 50
180.0
 51
270.0
  0
LINE
  8
型材断面
  6
CONTINUOUS
 62
    47
 10
-20.302165
 20
-94.554003
 11
-20.302165
 21
-90.954003
  0
ARC
  8
型材断面
  6
CONTINUOUS
 62
    47
 10
-20.002166
 20
-94.554003
 40
0.3
 50
180.0
 51
270.0
  0
LINE
  8
型材断面
  6
CONTINUOUS
 62
    47
 10
-20.002165
 20
-94.854003
 11
-17.802165
 21
-94.854003
  0
ARC
  8
型材断面
  6
CONTINUOUS
 62
    47
 10
-17.802166
 20
-94.354003
 40
0.5
 50
270.0
 51
360.0
  0
LINE
  8
型材断面
  6
CONTINUOUS
 62
    47
 10
-17.302165
 20
-94.354003
 11
-17.302165
 21
-93.854003
  0
LINE
  8
型材断面
  6
CONTINUOUS
 62
    47
 10
-18.302165
 20
-93.354003
 11
-17.802165
 21
-93.354003
  0
ARC
  8
型材断面
  6
CONTINUOUS
 62
    47
 10
-17.802166
 20
-93.854003
 40
0.5
 50
0.0
 51
90.0
  0
LINE
  8
型材断面
  6
CONTINUOUS
 62
    47
 10
-70.802165
 20
-84.954003
 11
-20.302165
 21
-84.954003
  0
LINE
  8
型材断面
  6
CONTINUOUS
 62
    47
 10
-55.302165
 20
-86.954003
 11
-20.302165
 21
-86.954003
  0
ENDBLK
  0
BLOCK
  2
*GRP_0047
 70
    65
 10
0.0
 20
0.0
  0
LINE
  8
型材断面
  6
CONTINUOUS
 62
    47
 10
95.697938
 20
-52.74366
 11
98.697938
 21
-52.74366
  0
LINE
  8
型材断面
  6
CONTINUOUS
 62
    47
 10
98.697938
 20
-60.24366
 11
98.697938
 21
-52.74366
  0
ARC
  8
型材断面
  6
CONTINUOUS
 62
    47
 10
100.397939
 20
-51.543658
 40
0.3
 50
0.0
 51
90.0
  0
LINE
  8
型材断面
  6
CONTINUOUS
 62
    47
 10
94.497938
 20
-51.24366
 11
100.397938
 21
-51.24366
  0
ARC
  8
型材断面
  6
CONTINUOUS
 62
    47
 10
94.497939
 20
-51.543658
 40
0.3
 50
90.0
 51
180.0
  0
LINE
  8
型材断面
  6
CONTINUOUS
 62
    47
 10
94.197938
 20
-53.44366
 11
94.197938
 21
-51.54366
  0
ARC
  8
型材断面
  6
CONTINUOUS
 62
    47
 10
94.497939
 20
-53.443658
 40
0.3
 50
180.0
 51
270.0
  0
LINE
  8
型材断面
  6
CONTINUOUS
 62
    47
 10
94.497938
 20
-53.74366
 11
95.397938
 21
-53.74366
  0
LINE
  8
型材断面
  6
CONTINUOUS
 62
    47
 10
95.697938
 20
-53.44366
 11
95.697938
 21
-52.74366
  0
ARC
  8
型材断面
  6
CONTINUOUS
 62
    47
 10
95.397939
 20
-53.443658
 40
0.3
 50
270.0
 51
360.0
  0
LINE
  8
型材断面
  6
CONTINUOUS
 62
    47
 10
100.697938
 20
-81.94366
 11
100.697938
 21
-51.54366
  0
ARC
  8
型材断面
  6
CONTINUOUS
 62
    47
 10
100.397939
 20
-81.943658
 40
0.3
 50
270.0
 51
360.0
  0
ARC
  8
型材断面
  6
CONTINUOUS
 62
    47
 10
-34.002061
 20
-61.943658
 40
0.3
 50
180.0
 51
270.0
  0
LINE
  8
型材断面
  6
CONTINUOUS
 62
    47
 10
-34.302063
 20
-61.94366
 11
-34.302063
 21
-48.569448
  0
LINE
  8
型材断面
  6
CONTINUOUS
 62
    47
 10
-41.492518
 20
-30.065285
 11
-40.997542
 21
-29.57031
  0
ARC
  8
型材断面
  6
CONTINUOUS
 62
    47
 10
-41.209673
 20
-29.358175
 40
0.3
 50
315.0
 51
405.0
  0
LINE
  8
型材断面
  6
CONTINUOUS
 62
    47
 10
-40.997542
 20
-29.146045
 11
-43.118862
 21
-27.024725
  0
ARC
  8
型材断面
  6
CONTINUOUS
 62
    47
 10
-43.330993
 20
-27.236855
 40
0.3
 50
45.0
 51
135.0
  0
LINE
  8
型材断面
  6
CONTINUOUS
 62
    47
 10
-44.571303
 20
-28.0529
 11
-43.543127
 21
-27.024725
  0
ARC
  8
型材断面
  6
CONTINUOUS
 62
    47
 10
-44.359168
 20
-28.26503
 40
0.3
 50
135.0
 51
213.690068
  0
ARC
  8
型材断面
  6
CONTINUOUS
 62
    47
 10
-48.949622
 20
-32.855484
 40
0.3
 50
56.309932
 51
135.0
  0
LINE
  8
型材断面
  6
CONTINUOUS
 62
    47
 10
-50.18993
 20
-33.67153
 11
-49.161755
 21
-32.643355
  0
ARC
  8
型材断面
  6
CONTINUOUS
 62
    47
 10
-49.977797
 20
-33.883658
 40
0.3
 50
135.0
 51
225.0
  0
LINE
  8
型材断面
  6
CONTINUOUS
 62
    47
 10
-47.644348
 20
-36.217112
 11
-47.149373
 21
-35.722138
  0
LINE
  8
型材断面
  6
CONTINUOUS
 62
    47
 10
-48.06861
 20
-36.217112
 11
-50.18993
 21
-34.095792
  0
ARC
  8
型材断面
  6
CONTINUOUS
 62
    47
 10
-47.856476
 20
-36.004979
 40
0.3
 50
225.0
 51
315.0
  0
LINE
  8
型材断面
  6
CONTINUOUS
 62
    47
 10
-44.608785
 20
-28.431442
 11
-43.048153
 21
-30.77239
  0
LINE
  8
型材断面
  6
CONTINUOUS
 62
    47
 10
-48.783215
 20
-32.60587
 11
-46.442265
 21
-34.166503
  0
LINE
  8
型材断面
  6
CONTINUOUS
 62
    47
 10
-9.283803
 20
-27.97932
 11
-7.904945
 21
-26.60046
  0
ARC
  8
型材断面
  6
CONTINUOUS
 62
    47
 10
-7.692811
 20
-26.812591
 40
0.3
 50
45.0
 51
135.0
  0
LINE
  8
型材断面
  6
CONTINUOUS
 62
    47
 10
26.497938
 20
-60.24366
 11
98.697938
 21
-60.24366
  0
LINE
  8
型材断面
  6
CONTINUOUS
 62
    47
 10
26.497938
 20
-41.74366
 11
29.497938
 21
-41.74366
  0
LINE
  8
型材断面
  6
CONTINUOUS
 62
    47
 10
26.497938
 20
-60.24366
 11
26.497938
 21
-41.74366
  0
LINE
  8
型材断面
  6
CONTINUOUS
 62
    47
 10
24.497938
 20
-60.24366
 11
24.497938
 21
-41.072087
  0
LINE
  8
型材断面
  6
CONTINUOUS
 62
    47
 10
24.497938
 20
-41.072087
 11
22.132465
 21
-38.706615
  0
ARC
  8
型材断面
  6
CONTINUOUS
 62
    47
 10
22.344599
 20
-38.494481
 40
0.3
 50
135.0
 51
225.0
  0
LINE
  8
型材断面
  6
CONTINUOUS
 62
    47
 10
22.132465
 20
-38.282352
 11
23.122415
 21
-37.292403
  0
LINE
  8
型材断面
  6
CONTINUOUS
 62
    47
 10
26.497938
 20
-40.24366
 11
23.546678
 21
-37.292403
  0
ARC
  8
型材断面
  6
CONTINUOUS
 62
    47
 10
23.334548
 20
-37.504531
 40
0.3
 50
45.0
 51
135.0
  0
LINE
  8
型材断面
  6
CONTINUOUS
 62
    47
 10
26.497938
 20
-40.24366
 11
30.697938
 21
-40.24366
  0
ARC
  8
型材断面
  6
CONTINUOUS
 62
    47
 10
30.697939
 20
-40.543658
 40
0.3
 50
0.0
 51
90.0
  0
LINE
  8
型材断面
  6
CONTINUOUS
 62
    47
 10
30.997938
 20
-42.44366
 11
30.997938
 21
-40.54366
  0
ARC
  8
型材断面
  6
CONTINUOUS
 62
    47
 10
30.697939
 20
-42.443658
 40
0.3
 50
270.0
 51
360.0
  0
LINE
  8
型材断面
  6
CONTINUOUS
 62
    47
 10
29.797938
 20
-42.74366
 11
30.697938
 21
-42.74366
  0
LINE
  8
型材断面
  6
CONTINUOUS
 62
    47
 10
29.497938
 20
-42.44366
 11
29.497938
 21
-41.74366
  0
ARC
  8
型材断面
  6
CONTINUOUS
 62
    47
 10
29.797939
 20
-42.443658
 40
0.3
 50
180.0
 51
270.0
  0
LINE
  8
型材断面
  6
CONTINUOUS
 62
    47
 10
-26.431142
 20
-45.12666
 11
-9.99091
 21
-28.686425
  0
LINE
  8
型材断面
  6
CONTINUOUS
 62
    47
 10
-37.67414
 20
-45.19737
 11
-37.462007
 21
-44.985238
  0
LINE
  8
型材断面
  6
CONTINUOUS
 62
    47
 10
-32.229417
 20
-39.752647
 11
-32.017288
 21
-39.540515
  0
LINE
  8
型材断面
  6
CONTINUOUS
 62
    47
 10
-34.845712
 20
-48.025798
 11
-34.633583
 21
-47.813665
  0
LINE
  8
型材断面
  6
CONTINUOUS
 62
    47
 10
-29.400993
 20
-42.581075
 11
-29.18886
 21
-42.368942
  0
LINE
  8
型材断面
  6
CONTINUOUS
 62
    47
 10
-26.431142
 20
-45.12666
 11
-29.18886
 21
-42.368942
  0
LINE
  8
型材断面
  6
CONTINUOUS
 62
    47
 10
-32.017288
 20
-39.540515
 11
-41.492518
 21
-30.065285
  0
LINE
  8
型材断面
  6
CONTINUOUS
 62
    47
 10
-34.302063
 20
-48.569448
 11
-34.845712
 21
-48.025798
  0
LINE
  8
型材断面
  6
CONTINUOUS
 62
    47
 10
-37.67414
 20
-45.19737
 11
-47.149373
 21
-35.722138
  0
LINE
  8
型材断面
  6
CONTINUOUS
 62
    47
 10
-34.633583
 20
-47.813665
 11
-37.462007
 21
-44.985238
  0
LINE
  8
型材断面
  6
CONTINUOUS
 62
    47
 10
-29.400993
 20
-42.581075
 11
-32.229417
 21
-39.752647
  0
LINE
  8
型材断面
  6
CONTINUOUS
 62
    47
 10
-9.283803
 20
-27.97932
 11
-11.405125
 21
-25.858
  0
ARC
  8
型材断面
  6
CONTINUOUS
 62
    47
 10
-11.758675
 20
-26.21155
 40
0.5
 50
45.0
 51
225.0
  0
LINE
  8
型材断面
  6
CONTINUOUS
 62
    47
 10
-9.99091
 20
-28.686425
 11
-12.11223
 21
-26.565105
  0
LINE
  8
型材断面
  6
CONTINUOUS
 62
    47
 10
-37.391298
 20
-42.0861
 11
-35.128557
 21
-39.823358
  0
LINE
  8
型材断面
  6
CONTINUOUS
 62
    47
 10
-43.401705
 20
-31.125945
 11
-43.048153
 21
-30.77239
  0
LINE
  8
型材断面
  6
CONTINUOUS
 62
    47
 10
-35.128557
 20
-39.823358
 11
-43.401705
 21
-31.550208
  0
ARC
  8
型材断面
  6
CONTINUOUS
 62
    47
 10
-43.189572
 20
-31.338074
 40
0.3
 50
135.0
 51
225.0
  0
LINE
  8
型材断面
  6
CONTINUOUS
 62
    47
 10
-46.442265
 20
-34.166503
 11
-46.088713
 21
-33.81295
  0
LINE
  8
型材断面
  6
CONTINUOUS
 62
    47
 10
-37.391298
 20
-42.0861
 11
-45.664448
 21
-33.81295
  0
ARC
  8
型材断面
  6
CONTINUOUS
 62
    47
 10
-45.876577
 20
-34.02508
 40
0.3
 50
45.0
 51
135.0
  0
LINE
  8
型材断面
  6
CONTINUOUS
 62
    47
 10
98.697938
 20
-80.24366
 11
98.697938
 21
-62.24366
  0
LINE
  8
型材断面
  6
CONTINUOUS
 62
    47
 10
-26.21901
 20
-47.742955
 11
-7.692813
 21
-29.216755
  0
ARC
  8
型材断面
  6
CONTINUOUS
 62
    47
 10
-26.431141
 20
-47.530819
 40
0.3
 50
225.0
 51
315.0
  0
LINE
  8
型材断面
  6
CONTINUOUS
 62
    47
 10
-26.643275
 20
-47.742955
 11
-29.18886
 21
-45.19737
  0
LINE
  8
型材断面
  6
CONTINUOUS
 62
    47
 10
-32.302063
 20
-48.310573
 11
-29.18886
 21
-45.19737
  0
LINE
  8
型材断面
  6
CONTINUOUS
 62
    47
 10
-32.302063
 20
-60.24366
 11
-32.302063
 21
-48.310573
  0
LINE
  8
型材断面
  6
CONTINUOUS
 62
    47
 10
100.397938
 20
-82.24366
 11
59.671145
 21
-82.24366
  0
LINE
  8
型材断面
  6
CONTINUOUS
 62
    47
 10
-7.692813
 20
-29.216755
 11
-3.302063
 21
-33.607507
  0
LINE
  8
型材断面
  6
CONTINUOUS
 62
    47
 10
-7.48068
 20
-26.60046
 11
-1.302063
 21
-32.77908
  0
LINE
  8
型材断面
  6
CONTINUOUS
 62
    47
 10
24.497938
 20
-60.24366
 11
-1.302063
 21
-60.24366
  0
LINE
  8
型材断面
  6
CONTINUOUS
 62
    47
 10
98.697938
 20
-62.24366
 11
-1.302063
 21
-62.24366
  0
LINE
  8
型材断面
  6
CONTINUOUS
 62
    47
 10
-32.302063
 20
-60.24366
 11
-3.302063
 21
-60.24366
  0
LINE
  8
型材断面
  6
CONTINUOUS
 62
    47
 10
-3.302063
 20
-60.24366
 11
-3.302063
 21
-33.607507
  0
LINE
  8
型材断面
  6
CONTINUOUS
 62
    47
 10
-1.302063
 20
-60.24366
 11
-1.302063
 21
-32.77908
  0
ARC
  8
型材断面
  6
CONTINUOUS
 62
    47
 10
59.401147
 20
-90.943658
 40
0.3
 50
270.0
 51
360.0
  0
LINE
  8
型材断面
  6
CONTINUOUS
 62
    47
 10
59.701145
 20
-90.94366
 11
59.701145
 21
-82.24366
  0
ARC
  8
型材断面
  6
CONTINUOUS
 62
    47
 10
-2.998853
 20
-90.943658
 40
0.3
 50
180.0
 51
270.0
  0
LINE
  8
型材断面
  6
CONTINUOUS
 62
    47
 10
57.701145
 20
-82.24366
 11
57.701145
 21
-89.74366
  0
LINE
  8
型材断面
  6
CONTINUOUS
 62
    47
 10
52.451147
 20
-89.74366
 11
57.701145
 21
-89.74366
  0
ARC
  8
型材断面
  6
CONTINUOUS
 62
    47
 10
52.451147
 20
-90.493659
 40
0.75
 50
90.0
 51
180.0
  0
LINE
  8
型材断面
  6
CONTINUOUS
 62
    47
 10
51.701147
 20
-90.49366
 11
51.701147
 21
-90.49366
  0
LINE
  8
型材断面
  6
CONTINUOUS
 62
    47
 10
59.401145
 20
-91.24366
 11
52.451147
 21
-91.24366
  0
ARC
  8
型材断面
  6
CONTINUOUS
 62
    47
 10
52.451147
 20
-90.493659
 40
0.75
 50
180.0
 51
270.0
  0
ARC
  8
型材断面
  6
CONTINUOUS
 62
    47
 10
3.951147
 20
-90.493659
 40
0.75
 50
0.0
 51
90.0
  0
LINE
  8
型材断面
  6
CONTINUOUS
 62
    47
 10
4.701147
 20
-90.49366
 11
4.701147
 21
-90.49366
  0
LINE
  8
型材断面
  6
CONTINUOUS
 62
    47
 10
-2.998855
 20
-91.24366
 11
3.951147
 21
-91.24366
  0
ARC
  8
型材断面
  6
CONTINUOUS
 62
    47
 10
3.951147
 20
-90.493659
 40
0.75
 50
-90.0
 51
0.0
  0
LINE
  8
型材断面
  6
CONTINUOUS
 62
    47
 10
3.951147
 20
-89.74366
 11
-1.302063
 21
-89.74366
  0
LINE
  8
型材断面
  6
CONTINUOUS
 62
    47
 10
-1.302063
 20
-62.24366
 11
-1.302063
 21
-80.24366
  0
LINE
  8
型材断面
  6
CONTINUOUS
 62
    47
 10
-1.302063
 20
-82.24366
 11
-1.302063
 21
-89.74366
  0
LINE
  8
型材断面
  6
CONTINUOUS
 62
    47
 10
98.697938
 20
-80.24366
 11
-1.302063
 21
-80.24366
  0
LINE
  8
型材断面
  6
CONTINUOUS
 62
    47
 10
57.671145
 20
-82.24366
 11
-1.302063
 21
-82.24366
  0
ARC
  8
型材断面
  6
CONTINUOUS
 62
    47
 10
-20.202163
 20
-64.943658
 40
0.3
 50
270.0
 51
360.0
  0
LINE
  8
型材断面
  6
CONTINUOUS
 62
    47
 10
-21.602165
 20
-65.24366
 11
-20.202165
 21
-65.24366
  0
ARC
  8
型材断面
  6
CONTINUOUS
 62
    47
 10
-21.602163
 20
-64.943658
 40
0.3
 50
180.0
 51
270.0
  0
LINE
  8
型材断面
  6
CONTINUOUS
 62
    47
 10
-19.902165
 20
-64.94366
 11
-19.902165
 21
-62.24366
  0
LINE
  8
型材断面
  6
CONTINUOUS
 62
    47
 10
-21.902165
 20
-64.94366
 11
-21.902165
 21
-62.24366
  0
LINE
  8
型材断面
  6
CONTINUOUS
 62
    47
 10
-19.902165
 20
-62.24366
 11
-16.902165
 21
-62.24366
  0
LINE
  8
型材断面
  6
CONTINUOUS
 62
    47
 10
-16.902165
 20
-69.94366
 11
-16.902165
 21
-62.24366
  0
ARC
  8
型材断面
  6
CONTINUOUS
 62
    47
 10
-16.602163
 20
-69.943658
 40
0.3
 50
180.0
 51
270.0
  0
LINE
  8
型材断面
  6
CONTINUOUS
 62
    47
 10
-15.002165
 20
-69.04366
 11
-15.002165
 21
-62.24366
  0
LINE
  8
型材断面
  6
CONTINUOUS
 62
    47
 10
-15.002165
 20
-69.04366
 11
-15.902165
 21
-70.24366
  0
LINE
  8
型材断面
  6
CONTINUOUS
 62
    47
 10
-16.602165
 20
-70.24366
 11
-15.902165
 21
-70.24366
  0
LINE
  8
型材断面
  6
CONTINUOUS
 62
    47
 10
-10.902165
 20
-70.24366
 11
-11.802165
 21
-69.04366
  0
LINE
  8
型材断面
  6
CONTINUOUS
 62
    47
 10
-34.002063
 20
-62.24366
 11
-21.902165
 21
-62.24366
  0
LINE
  8
型材断面
  6
CONTINUOUS
 62
    47
 10
-3.302063
 20
-70.24366
 11
-3.302063
 21
-91.24366
  0
LINE
  8
型材断面
  6
CONTINUOUS
 62
    47
 10
-3.302063
 20
-67.74366
 11
-3.302063
 21
-62.24366
  0
LINE
  8
型材断面
  6
CONTINUOUS
 62
    47
 10
-3.302063
 20
-70.24366
 11
-10.902165
 21
-70.24366
  0
LINE
  8
型材断面
  6
CONTINUOUS
 10
-3.302063
 20
-67.74366
 11
-9.802165
 21
-67.74366
  0
LINE
  8
型材断面
  6
CONTINUOUS
 10
-9.802165
 20
-67.74366
 11
-9.802165
 21
-65.24366
  0
LINE
  8
型材断面
  6
CONTINUOUS
 62
    47
 10
-11.802165
 20
-69.04366
 11
-11.802165
 21
-65.24366
  0
LINE
  8
型材断面
  6
CONTINUOUS
 10
-11.802165
 20
-65.24366
 11
-9.802165
 21
-65.24366
  0
LINE
  8
型材断面
  6
CONTINUOUS
 62
    47
 10
-15.002165
 20
-62.24366
 11
-3.302063
 21
-62.24366
  0
ENDBLK
  0
BLOCK
  2
*GRP_0048
 70
    65
 10
0.0
 20
0.0
  0
LINE
  8
ゴム等
  6
CONTINUOUS
 10
-156.83798
 20
83.18562
 11
-158.9593
 21
81.0643
  0
LINE
  8
ゴム等
  6
CONTINUOUS
 10
-158.9593
 20
81.0643
 11
-146.231377
 21
68.336377
  0
LINE
  8
ゴム等
  6
CONTINUOUS
 10
-146.231377
 20
68.336377
 11
-144.110058
 21
70.457697
  0
LINE
  8
ゴム等
  6
CONTINUOUS
 10
-156.83798
 20
83.18562
 11
-144.110058
 21
70.457697
  0
INSERT
  2
*HAT_0009
  8
ゴム等
 10
0.0
 20
0.0
  0
ENDBLK
  0
BLOCK
  2
*GRP_0049
 70
    65
 10
0.0
 20
0.0
  0
POLYLINE
  8
寸法
  6
BYBLOCK
 62
     0
 66
     1
  0
VERTEX
  8
寸法
 10
-151.5
 20
71.676925
  0
VERTEX
  8
寸法
 10
-150.0
 20
74.275
  0
VERTEX
  8
寸法
 10
-152.598075
 20
72.775
  0
SEQEND
  0
POLYLINE
  8
寸法
  6
BYBLOCK
 62
     0
 66
     1
  0
VERTEX
  8
寸法
 10
-150.0
 20
74.275
  0
VERTEX
  8
寸法
 10
-158.59874
 20
65.67626
  0
VERTEX
  8
寸法
 10
-160.740955
 20
65.67626
  0
SEQEND
  0
ENDBLK
  0
BLOCK
  2
*GRP_0050
 70
    65
 10
0.0
 20
0.0
  0
POLYLINE
  8
寸法
  6
BYBLOCK
 62
     0
 66
     1
  0
VERTEX
  8
寸法
 10
-165.697952
 20
89.839805
  0
VERTEX
  8
寸法
 10
-165.1
 20
86.9
  0
VERTEX
  8
寸法
 10
-164.14794
 20
89.744923
  0
SEQEND
  0
POLYLINE
  8
寸法
  6
BYBLOCK
 62
     0
 66
     1
  0
VERTEX
  8
寸法
 10
-165.1
 20
86.9
  0
VERTEX
  8
寸法
 10
-163.096318
 20
119.632365
  0
VERTEX
  8
寸法
 10
-160.480167
 20
119.632365
  0
SEQEND
  0
ENDBLK
  0
BLOCK
  2
*GRP_0051
 70
    65
 10
0.0
 20
0.0
  0
POLYLINE
  8
寸法
  6
BYBLOCK
 62
     0
 66
     1
  0
VERTEX
  8
寸法
 10
-30.026925
 20
-100.475
  0
VERTEX
  8
寸法
 10
-32.625
 20
-98.975
  0
VERTEX
  8
寸法
 10
-31.125
 20
-101.573075
  0
SEQEND
  0
POLYLINE
  8
寸法
  6
BYBLOCK
 62
     0
 66
     1
  0
VERTEX
  8
寸法
 10
-32.625
 20
-98.975
  0
VERTEX
  8
寸法
 10
-9.753017
 20
-121.846983
  0
VERTEX
  8
寸法
 10
10.659515
 20
-121.846983
  0
SEQEND
  0
ENDBLK
  0
BLOCK
  2
*GRP_0052
 70
    65
 10
0.0
 20
0.0
  0
POLYLINE
  8
寸法
  6
BYBLOCK
 62
     0
 66
     1
  0
VERTEX
  8
寸法
 10
-59.53576
 20
-91.482647
  0
VERTEX
  8
寸法
 10
-62.425
 20
-90.675
  0
VERTEX
  8
寸法
 10
-60.32667
 20
-92.819063
  0
SEQEND
  0
LINE
  8
寸法
  6
BYBLOCK
 62
     0
 10
-62.425
 20
-90.675
 11
-9.753017
 21
-121.846983
  0
ENDBLK
  0
BLOCK
  2
*GRP_0053
 70
    65
 10
0.0
 20
0.0
  0
POLYLINE
  8
寸法
  6
BYBLOCK
 62
     0
 66
     1
  0
VERTEX
  8
寸法
 10
-123.552045
 20
60.189222
  0
VERTEX
  8
寸法
 10
-126.150122
 20
61.689222
  0
VERTEX
  8
寸法
 10
-124.650122
 20
59.091148
  0
SEQEND
  0
POLYLINE
  8
寸法
  6
BYBLOCK
 62
     0
 66
     1
  0
VERTEX
  8
寸法
 10
-126.150122
 20
61.689222
  0
VERTEX
  8
寸法
 10
-119.797487
 20
55.336587
  0
VERTEX
  8
寸法
 10
-117.242177
 20
55.336587
  0
SEQEND
  0
ENDBLK
  0
BLOCK
  2
*GRP_0054
 70
    65
 10
0.0
 20
0.0
  0
LINE
  8
ゴム等
  6
CONTINUOUS
 62
   127
 10
-52.174143
 20
-6.66017
 11
-54.967215
 21
-9.170398
  0
LINE
  8
ゴム等
  6
CONTINUOUS
 62
   127
 10
-55.5329
 20
-11.43314
 11
-57.830998
 21
-13.731238
  0
LINE
  8
ゴム等
  6
CONTINUOUS
 62
   127
 10
-53.446935
 20
-5.387378
 11
-62.639322
 21
-14.579765
  0
LINE
  8
ゴム等
  6
CONTINUOUS
 62
   127
 10
-55.5329
 20
-11.43314
 11
-54.118688
 21
-12.847355
  0
LINE
  8
ゴム等
  6
CONTINUOUS
 62
   127
 10
-53.41158
 20
-13.55446
 11
-53.058028
 21
-13.908015
  0
LINE
  8
ゴム等
  6
CONTINUOUS
 62
   127
 10
-54.967215
 20
-9.170398
 11
-54.47224
 21
-9.665373
  0
LINE
  8
ゴム等
  6
CONTINUOUS
 62
   127
 10
-53.765132
 20
-10.37248
 11
-53.41158
 21
-10.726033
  0
LINE
  8
ゴム等
  6
CONTINUOUS
 62
   127
 10
-52.704472
 20
-11.43314
 11
-52.35092
 21
-11.786693
  0
LINE
  8
ゴム等
  6
CONTINUOUS
 62
   127
 10
-54.47224
 20
-9.665373
 11
-53.985347
 21
-9.59595
  0
LINE
  8
ゴム等
  6
CONTINUOUS
 62
   127
 10
-53.765132
 20
-10.37248
 11
-53.695712
 21
-9.885585
  0
ARC
  8
ゴム等
  6
CONTINUOUS
 62
   127
 10
-53.941912
 20
-9.842145
 40
0.25
 50
349.993877
 51
460.006097
  0
LINE
  8
ゴム等
  6
CONTINUOUS
 62
   127
 10
-53.41158
 20
-10.726033
 11
-52.924687
 21
-10.65661
  0
LINE
  8
ゴム等
  6
CONTINUOUS
 62
   127
 10
-52.704472
 20
-11.43314
 11
-52.635052
 21
-10.946245
  0
ARC
  8
ゴム等
  6
CONTINUOUS
 62
   127
 10
-52.881252
 20
-10.902805
 40
0.25
 50
349.993877
 51
460.006097
  0
LINE
  8
ゴム等
  6
CONTINUOUS
 62
   127
 10
-52.35092
 20
-11.786693
 11
-51.864027
 21
-11.71727
  0
ARC
  8
ゴム等
  6
CONTINUOUS
 62
   127
 10
-51.820592
 20
-11.963465
 40
0.25
 50
349.993877
 51
460.006097
  0
LINE
  8
ゴム等
  6
CONTINUOUS
 62
   127
 10
-51.574392
 20
-12.006905
 11
-51.643812
 21
-14.61512
  0
LINE
  8
ゴム等
  6
CONTINUOUS
 62
   127
 10
-54.118688
 20
-12.847355
 11
-54.188108
 21
-13.334242
  0
LINE
  8
ゴム等
  6
CONTINUOUS
 62
   127
 10
-53.41158
 20
-13.55446
 11
-53.898473
 21
-13.623877
  0
ARC
  8
ゴム等
  6
CONTINUOUS
 62
   127
 10
-53.941912
 20
-13.377679
 40
0.25
 50
169.993903
 51
280.006123
  0
LINE
  8
ゴム等
  6
CONTINUOUS
 62
   127
 10
-53.058028
 20
-13.908015
 11
-53.127448
 21
-14.394902
  0
ARC
  8
ゴム等
  6
CONTINUOUS
 62
   127
 10
-52.881252
 20
-14.438339
 40
0.25
 50
169.993903
 51
280.006123
  0
LINE
  8
ゴム等
  6
CONTINUOUS
 62
   127
 10
-52.837813
 20
-14.684537
 11
-51.643812
 21
-14.61512
  0
LINE
  8
ゴム等
  6
CONTINUOUS
 62
   127
 10
-56.06323
 20
-15.499005
 11
-55.709677
 21
-15.14545
  0
ARC
  8
ゴム等
  6
CONTINUOUS
 62
   127
 10
-55.356126
 20
-15.498999
 40
0.5
 50
225.0
 51
225.0
  0
ARC
  8
ゴム等
  6
CONTINUOUS
 62
   127
 10
-55.356126
 20
-15.498999
 40
0.5
 50
4.528463
 51
135.0
  0
LINE
  8
ゴム等
  6
CONTINUOUS
 62
   127
 10
-54.747422
 20
-17.71873
 11
-54.857685
 21
-15.459527
  0
LINE
  8
ゴム等
  6
CONTINUOUS
 62
   127
 10
-57.12389
 20
-20.095197
 11
-54.747422
 21
-17.71873
  0
LINE
  8
ゴム等
  6
CONTINUOUS
 62
   127
 10
-57.830998
 20
-13.731238
 11
-56.06323
 21
-15.499005
  0
ARC
  8
ゴム等
  6
CONTINUOUS
 62
   127
 10
-59.598766
 20
-16.913213
 40
1.0
 50
45.0
 51
135.0
  0
LINE
  8
ゴム等
  6
CONTINUOUS
 62
   127
 10
-58.891658
 20
-16.20611
 11
-57.830998
 21
-17.26677
  0
ARC
  8
ゴム等
  6
CONTINUOUS
 62
   127
 10
-58.538106
 20
-17.973873
 40
1.0
 50
-45.0
 51
45.0
  0
LINE
  8
ゴム等
  6
CONTINUOUS
 62
   127
 10
-60.30587
 20
-16.20611
 11
-60.659425
 21
-16.559665
  0
LINE
  8
ゴム等
  6
CONTINUOUS
 62
   127
 10
-57.830998
 20
-18.680985
 11
-58.18455
 21
-19.034537
  0
LINE
  8
ゴム等
  6
CONTINUOUS
 62
   127
 10
-52.174143
 20
-6.66017
 11
-52.739827
 21
-6.094485
  0
LINE
  8
ゴム等
  6
CONTINUOUS
 62
   127
 10
-70.55892
 20
-25.044945
 11
-68.04869
 21
-22.251875
  0
LINE
  8
ゴム等
  6
CONTINUOUS
 62
   127
 10
-65.785948
 20
-21.686187
 11
-63.487853
 21
-19.388093
  0
LINE
  8
ゴム等
  6
CONTINUOUS
 62
   127
 10
-71.831712
 20
-23.772152
 11
-62.639322
 21
-14.579765
  0
LINE
  8
ゴム等
  6
CONTINUOUS
 62
   127
 10
-65.785948
 20
-21.686187
 11
-64.371735
 21
-23.100403
  0
LINE
  8
ゴム等
  6
CONTINUOUS
 62
   127
 10
-63.664628
 20
-23.80751
 11
-63.311075
 21
-24.161063
  0
LINE
  8
ゴム等
  6
CONTINUOUS
 62
   127
 10
-68.04869
 20
-22.251875
 11
-67.553715
 21
-22.74685
  0
LINE
  8
ゴム等
  6
CONTINUOUS
 62
   127
 10
-66.846608
 20
-23.453955
 11
-66.493055
 21
-23.80751
  0
LINE
  8
ゴム等
  6
CONTINUOUS
 62
   127
 10
-65.785948
 20
-24.514615
 11
-65.432395
 21
-24.86817
  0
LINE
  8
ゴム等
  6
CONTINUOUS
 62
   127
 10
-67.553715
 20
-22.74685
 11
-67.623135
 21
-23.233738
  0
LINE
  8
ゴム等
  6
CONTINUOUS
 62
   127
 10
-66.846608
 20
-23.453955
 11
-67.3335
 21
-23.523373
  0
ARC
  8
ゴム等
  6
CONTINUOUS
 62
   127
 10
-67.376941
 20
-23.277174
 40
0.25
 50
169.993903
 51
280.006123
  0
LINE
  8
ゴム等
  6
CONTINUOUS
 62
   127
 10
-66.493055
 20
-23.80751
 11
-66.562475
 21
-24.294398
  0
LINE
  8
ゴム等
  6
CONTINUOUS
 62
   127
 10
-65.785948
 20
-24.514615
 11
-66.27284
 21
-24.584033
  0
ARC
  8
ゴム等
  6
CONTINUOUS
 62
   127
 10
-66.316281
 20
-24.337834
 40
0.25
 50
169.993903
 51
280.006123
  0
LINE
  8
ゴム等
  6
CONTINUOUS
 62
   127
 10
-65.432395
 20
-24.86817
 11
-65.501815
 21
-25.355058
  0
ARC
  8
ゴム等
  6
CONTINUOUS
 62
   127
 10
-65.25562
 20
-25.398494
 40
0.25
 50
169.993903
 51
280.006123
  0
LINE
  8
ゴム等
  6
CONTINUOUS
 62
   127
 10
-65.21218
 20
-25.644693
 11
-62.603967
 21
-25.575275
  0
LINE
  8
ゴム等
  6
CONTINUOUS
 62
   127
 10
-64.371735
 20
-23.100403
 11
-63.884843
 21
-23.030977
  0
LINE
  8
ゴム等
  6
CONTINUOUS
 62
   127
 10
-63.664628
 20
-23.80751
 11
-63.595208
 21
-23.320612
  0
ARC
  8
ゴム等
  6
CONTINUOUS
 62
   127
 10
-63.841407
 20
-23.277174
 40
0.25
 50
349.993877
 51
460.006097
  0
LINE
  8
ゴム等
  6
CONTINUOUS
 62
   127
 10
-63.311075
 20
-24.161063
 11
-62.824183
 21
-24.091637
  0
ARC
  8
ゴム等
  6
CONTINUOUS
 62
   127
 10
-62.780747
 20
-24.337834
 40
0.25
 50
349.993877
 51
460.006097
  0
LINE
  8
ゴム等
  6
CONTINUOUS
 62
   127
 10
-62.534548
 20
-24.381272
 11
-62.603967
 21
-25.575275
  0
LINE
  8
ゴム等
  6
CONTINUOUS
 62
   127
 10
-61.720085
 20
-21.155858
 11
-62.073638
 21
-21.509412
  0
ARC
  8
ゴム等
  6
CONTINUOUS
 62
   127
 10
-61.720087
 20
-21.86296
 40
0.5
 50
45.0
 51
45.0
  0
ARC
  8
ゴム等
  6
CONTINUOUS
 62
   127
 10
-61.720087
 20
-21.86296
 40
0.5
 50
135.0
 51
265.471537
  0
LINE
  8
ゴム等
  6
CONTINUOUS
 62
   127
 10
-59.500355
 20
-22.471665
 11
-61.75956
 21
-22.361402
  0
LINE
  8
ゴム等
  6
CONTINUOUS
 62
   127
 10
-57.12389
 20
-20.095197
 11
-59.500355
 21
-22.471665
  0
LINE
  8
ゴム等
  6
CONTINUOUS
 62
   127
 10
-63.487853
 20
-19.388093
 11
-61.720085
 21
-21.155858
  0
ARC
  8
ゴム等
  6
CONTINUOUS
 62
   127
 10
-60.305873
 20
-17.62032
 40
1.0
 50
135.0
 51
225.0
  0
LINE
  8
ゴム等
  6
CONTINUOUS
 62
   127
 10
-61.012978
 20
-18.327433
 11
-59.952318
 21
-19.388093
  0
ARC
  8
ゴム等
  6
CONTINUOUS
 62
   127
 10
-59.245213
 20
-18.68098
 40
1.0
 50
225.0
 51
315.0
  0
LINE
  8
ゴム等
  6
CONTINUOUS
 62
   127
 10
-61.012978
 20
-16.913217
 11
-60.659425
 21
-16.559665
  0
LINE
  8
ゴム等
  6
CONTINUOUS
 62
   127
 10
-58.538105
 20
-19.388093
 11
-58.18455
 21
-19.034537
  0
LINE
  8
ゴム等
  6
CONTINUOUS
 62
   127
 10
-70.55892
 20
-25.044945
 11
-71.124605
 21
-24.47926
  0
LINE
  8
ゴム等
  6
CONTINUOUS
 62
   127
 10
-71.436007
 20
-24.790662
 11
-71.124605
 21
-24.47926
  0
LINE
  8
ゴム等
  6
CONTINUOUS
 62
   127
 10
-53.446935
 20
-5.387378
 11
-50.03252
 21
-3.856582
  0
ARC
  8
ゴム等
  6
CONTINUOUS
 62
   127
 10
-49.929753
 20
-4.08568
 40
0.25
 50
294.204804
 51
474.336836
  0
LINE
  8
ゴム等
  6
CONTINUOUS
 62
   127
 10
-49.827967
 20
-4.312828
 11
-52.35584
 21
-5.446158
  0
LINE
  8
ゴム等
  6
CONTINUOUS
 62
   127
 10
-71.831712
 20
-23.772152
 11
-72.227963
 21
-24.16688
  0
LINE
  8
St
  6
CONTINUOUS
 10
-52.739827
 20
-6.094485
 11
-52.35584
 21
-5.446158
  0
LINE
  8
St
  6
CONTINUOUS
 10
-71.436007
 20
-24.790662
 11
-72.227963
 21
-24.16688
  0
INSERT
  2
*HAT_0010
  8
St
 10
0.0
 20
0.0
  0
ENDBLK
  0
BLOCK
  2
*GRP_0055
 70
    65
 10
0.0
 20
0.0
  0
LINE
  8
ゴム等
  6
CONTINUOUS
 10
-39.683122
 20
-5.482655
 11
-38.975572
 21
-4.775105
  0
LINE
  8
ゴム等
  6
CONTINUOUS
 10
-34.37649
 20
-0.176022
 11
-33.668937
 21
0.53153
  0
LINE
  8
ゴム等
  6
CONTINUOUS
 10
-47.931647
 20
-15.145392
 11
-48.638755
 21
-14.438285
  0
LINE
  8
ゴム等
  6
CONTINUOUS
 10
-48.638755
 20
-14.438285
 11
-47.365963
 21
-13.165492
  0
LINE
  8
ゴム等
  6
CONTINUOUS
 10
-47.365963
 20
-13.165492
 11
-53.022815
 21
-7.50864
  0
LINE
  8
ゴム等
  6
CONTINUOUS
 10
-53.022815
 20
-7.50864
 11
-41.591897
 21
3.92228
  0
ARC
  8
ゴム等
  6
CONTINUOUS
 10
-35.935043
 20
-1.734575
 40
8.0
 50
84.714587
 51
135.0
  0
LINE
  8
ゴム等
  6
CONTINUOUS
 10
-48.850885
 20
-8.5693
 11
-48.2852
 21
-7.720773
  0
LINE
  8
ゴム等
  6
CONTINUOUS
 10
-47.436672
 20
-9.983512
 11
-47.431688
 21
-8.06799
  0
ARC
  8
ゴム等
  6
CONTINUOUS
 10
-47.931648
 20
-8.074326
 40
0.5
 50
0.726035
 51
135.0
  0
LINE
  8
ゴム等
  6
CONTINUOUS
 10
-45.10322
 20
-12.316965
 11
-47.436672
 21
-9.983512
  0
LINE
  8
ゴム等
  6
CONTINUOUS
 10
-48.850885
 20
-8.5693
 11
-50.40652
 21
-7.013665
  0
LINE
  8
ゴム等
  6
CONTINUOUS
 10
-40.719155
 20
-5.811582
 11
-40.049212
 21
-5.141637
  0
LINE
  8
ゴム等
  6
CONTINUOUS
 10
-39.70775
 20
-4.09307
 11
-35.108667
 21
0.506012
  0
LINE
  8
ゴム等
  6
CONTINUOUS
 10
-33.026747
 20
1.880827
 11
-34.035027
 21
0.872547
  0
LINE
  8
ゴム等
  6
CONTINUOUS
 10
-47.931647
 20
-15.145392
 11
-45.10322
 21
-12.316965
  0
LINE
  8
ゴム等
  6
CONTINUOUS
 10
-39.70775
 20
-4.09307
 11
-38.975572
 21
-4.775105
  0
LINE
  8
ゴム等
  6
CONTINUOUS
 10
-40.049212
 20
-5.141637
 11
-39.683122
 21
-5.482655
  0
LINE
  8
ゴム等
  6
CONTINUOUS
 10
-35.108667
 20
0.506012
 11
-34.37649
 21
-0.176022
  0
LINE
  8
ゴム等
  6
CONTINUOUS
 10
-34.035027
 20
0.872547
 11
-33.668937
 21
0.53153
  0
LINE
  8
ゴム等
  6
CONTINUOUS
 10
-40.719155
 20
-5.811582
 11
-43.45233
 21
-3.078407
  0
LINE
  8
ゴム等
  6
CONTINUOUS
 10
-47.3422
 20
-4.054482
 11
-50.40652
 21
-7.013665
  0
POLYLINE
  8
ゴム等
  6
CONTINUOUS
 66
     1
 70
     4
  0
VERTEX
  8
ゴム等
 10
-32.95
 20
1.975
 70
     8
  0
VERTEX
  8
ゴム等
 10
-32.925
 20
1.975
 70
     8
  0
VERTEX
  8
ゴム等
 10
-32.9
 20
2.0
 70
     8
  0
VERTEX
  8
ゴム等
 10
-32.875
 20
2.025
 70
     8
  0
VERTEX
  8
ゴム等
 10
-32.85
 20
2.05
 70
     8
  0
VERTEX
  8
ゴム等
 10
-32.825
 20
2.075
 70
     8
  0
VERTEX
  8
ゴム等
 10
-32.8
 20
2.075
 70
     8
  0
VERTEX
  8
ゴム等
 10
-32.8
 20
2.1
 70
     8
  0
VERTEX
  8
ゴム等
 10
-32.775
 20
2.125
 70
     8
  0
VERTEX
  8
ゴム等
 10
-32.75
 20
2.15
 70
     8
  0
VERTEX
  8
ゴム等
 10
-32.725
 20
2.175
 70
     8
  0
VERTEX
  8
ゴム等
 10
-32.7
 20
2.175
 70
     8
  0
VERTEX
  8
ゴム等
 10
-32.675
 20
2.2
 70
     8
  0
VERTEX
  8
ゴム等
 10
-32.65
 20
2.225
 70
     8
  0
VERTEX
  8
ゴム等
 10
-32.625
 20
2.25
 70
     8
  0
VERTEX
  8
ゴム等
 10
-32.625
 20
2.275
 70
     8
  0
VERTEX
  8
ゴム等
 10
-32.6
 20
2.275
 70
     8
  0
VERTEX
  8
ゴム等
 10
-32.575
 20
2.3
 70
     8
  0
VERTEX
  8
ゴム等
 10
-32.55
 20
2.325
 70
     8
  0
VERTEX
  8
ゴム等
 10
-32.525
 20
2.35
 70
     8
  0
VERTEX
  8
ゴム等
 10
-32.5
 20
2.375
 70
     8
  0
VERTEX
  8
ゴム等
 10
-32.475
 20
2.375
 70
     8
  0
VERTEX
  8
ゴム等
 10
-32.475
 20
2.4
 70
     8
  0
VERTEX
  8
ゴム等
 10
-32.45
 20
2.425
 70
     8
  0
VERTEX
  8
ゴム等
 10
-32.425
 20
2.45
 70
     8
  0
VERTEX
  8
ゴム等
 10
-32.4
 20
2.475
 70
     8
  0
VERTEX
  8
ゴム等
 10
-32.375
 20
2.475
 70
     8
  0
VERTEX
  8
ゴム等
 10
-32.35
 20
2.5
 70
     8
  0
VERTEX
  8
ゴム等
 10
-32.325
 20
2.525
 70
     8
  0
VERTEX
  8
ゴム等
 10
-32.3
 20
2.55
 70
     8
  0
VERTEX
  8
ゴム等
 10
-32.3
 20
2.55
 70
     8
  0
VERTEX
  8
ゴム等
 10
-32.275
 20
2.575
 70
     8
  0
VERTEX
  8
ゴム等
 10
-32.25
 20
2.6
 70
     8
  0
VERTEX
  8
ゴム等
 10
-32.225
 20
2.625
 70
     8
  0
VERTEX
  8
ゴム等
 10
-32.2
 20
2.65
 70
     8
  0
VERTEX
  8
ゴム等
 10
-32.175
 20
2.65
 70
     8
  0
VERTEX
  8
ゴム等
 10
-32.15
 20
2.675
 70
     8
  0
VERTEX
  8
ゴム等
 10
-32.125
 20
2.7
 70
     8
  0
VERTEX
  8
ゴム等
 10
-32.125
 20
2.725
 70
     8
  0
VERTEX
  8
ゴム等
 10
-32.1
 20
2.75
 70
     8
  0
VERTEX
  8
ゴム等
 10
-32.075
 20
2.75
 70
     8
  0
VERTEX
  8
ゴム等
 10
-32.05
 20
2.775
 70
     8
  0
VERTEX
  8
ゴム等
 10
-32.025
 20
2.8
 70
     8
  0
VERTEX
  8
ゴム等
 10
-32.0
 20
2.825
 70
     8
  0
VERTEX
  8
ゴム等
 10
-31.975
 20
2.85
 70
     8
  0
VERTEX
  8
ゴム等
 10
-31.95
 20
2.85
 70
     8
  0
VERTEX
  8
ゴム等
 10
-31.95
 20
2.875
 70
     8
  0
VERTEX
  8
ゴム等
 10
-31.925
 20
2.9
 70
     8
  0
VERTEX
  8
ゴム等
 10
-31.9
 20
2.925
 70
     8
  0
VERTEX
  8
ゴム等
 10
-31.875
 20
2.95
 70
     8
  0
VERTEX
  8
ゴム等
 10
-31.85
 20
2.95
 70
     8
  0
VERTEX
  8
ゴム等
 10
-31.825
 20
2.975
 70
     8
  0
VERTEX
  8
ゴム等
 10
-31.8
 20
3.0
 70
     8
  0
VERTEX
  8
ゴム等
 10
-31.775
 20
3.025
 70
     8
  0
VERTEX
  8
ゴム等
 10
-31.75
 20
3.05
 70
     8
  0
VERTEX
  8
ゴム等
 10
-31.75
 20
3.05
 70
     8
  0
VERTEX
  8
ゴム等
 10
-31.725
 20
3.075
 70
     8
  0
VERTEX
  8
ゴム等
 10
-31.7
 20
3.1
 70
     8
  0
VERTEX
  8
ゴム等
 10
-31.675
 20
3.125
 70
     8
  0
VERTEX
  8
ゴム等
 10
-31.65
 20
3.15
 70
     8
  0
VERTEX
  8
ゴム等
 10
-31.625
 20
3.15
 70
     8
  0
VERTEX
  8
ゴム等
 10
-31.6
 20
3.175
 70
     8
  0
VERTEX
  8
ゴム等
 10
-31.575
 20
3.2
 70
     8
  0
VERTEX
  8
ゴム等
 10
-31.575
 20
3.225
 70
     8
  0
VERTEX
  8
ゴム等
 10
-31.55
 20
3.225
 70
     8
  0
VERTEX
  8
ゴム等
 10
-31.525
 20
3.25
 70
     8
  0
VERTEX
  8
ゴム等
 10
-31.5
 20
3.275
 70
     8
  0
VERTEX
  8
ゴム等
 10
-31.475
 20
3.3
 70
     8
  0
VERTEX
  8
ゴム等
 10
-31.45
 20
3.325
 70
     8
  0
VERTEX
  8
ゴム等
 10
-31.425
 20
3.325
 70
     8
  0
VERTEX
  8
ゴム等
 10
-31.4
 20
3.35
 70
     8
  0
VERTEX
  8
ゴム等
 10
-31.375
 20
3.375
 70
     8
  0
VERTEX
  8
ゴム等
 10
-31.375
 20
3.4
 70
     8
  0
VERTEX
  8
ゴム等
 10
-31.35
 20
3.425
 70
     8
  0
VERTEX
  8
ゴム等
 10
-31.325
 20
3.425
 70
     8
  0
VERTEX
  8
ゴム等
 10
-31.3
 20
3.45
 70
     8
  0
VERTEX
  8
ゴム等
 10
-31.275
 20
3.475
 70
     8
  0
VERTEX
  8
ゴム等
 10
-31.25
 20
3.5
 70
     8
  0
VERTEX
  8
ゴム等
 10
-31.225
 20
3.5
 70
     8
  0
VERTEX
  8
ゴム等
 10
-31.2
 20
3.525
 70
     8
  0
VERTEX
  8
ゴム等
 10
-31.2
 20
3.55
 70
     8
  0
VERTEX
  8
ゴム等
 10
-31.175
 20
3.575
 70
     8
  0
VERTEX
  8
ゴム等
 10
-31.15
 20
3.6
 70
     8
  0
VERTEX
  8
ゴム等
 10
-31.125
 20
3.6
 70
     8
  0
VERTEX
  8
ゴム等
 10
-31.1
 20
3.625
 70
     8
  0
VERTEX
  8
ゴム等
 10
-31.075
 20
3.65
 70
     8
  0
VERTEX
  8
ゴム等
 10
-31.05
 20
3.675
 70
     8
  0
VERTEX
  8
ゴム等
 10
-31.025
 20
3.675
 70
     8
  0
VERTEX
  8
ゴム等
 10
-31.0
 20
3.7
 70
     8
  0
VERTEX
  8
ゴム等
 10
-31.0
 20
3.725
 70
     8
  0
VERTEX
  8
ゴム等
 10
-30.975
 20
3.75
 70
     8
  0
VERTEX
  8
ゴム等
 10
-30.95
 20
3.775
 70
     8
  0
VERTEX
  8
ゴム等
 10
-30.925
 20
3.775
 70
     8
  0
VERTEX
  8
ゴム等
 10
-30.9
 20
3.8
 70
     8
  0
VERTEX
  8
ゴム等
 10
-30.875
 20
3.825
 70
     8
  0
VERTEX
  8
ゴム等
 10
-30.85
 20
3.85
 70
     8
  0
VERTEX
  8
ゴム等
 10
-30.825
 20
3.85
 70
     8
  0
VERTEX
  8
ゴム等
 10
-30.8
 20
3.875
 70
     8
  0
VERTEX
  8
ゴム等
 10
-30.775
 20
3.9
 70
     8
  0
VERTEX
  8
ゴム等
 10
-30.775
 20
3.925
 70
     8
  0
VERTEX
  8
ゴム等
 10
-30.75
 20
3.95
 70
     8
  0
VERTEX
  8
ゴム等
 10
-30.725
 20
3.95
 70
     8
  0
VERTEX
  8
ゴム等
 10
-30.7
 20
3.975
 70
     8
  0
VERTEX
  8
ゴム等
 10
-30.675
 20
4.0
 70
     8
  0
VERTEX
  8
ゴム等
 10
-30.65
 20
4.025
 70
     8
  0
VERTEX
  8
ゴム等
 10
-30.625
 20
4.025
 70
     8
  0
VERTEX
  8
ゴム等
 10
-30.6
 20
4.05
 70
     8
  0
VERTEX
  8
ゴム等
 10
-30.575
 20
4.075
 70
     8
  0
VERTEX
  8
ゴム等
 10
-30.575
 20
4.1
 70
     8
  0
VERTEX
  8
ゴム等
 10
-30.55
 20
4.1
 70
     8
  0
VERTEX
  8
ゴム等
 10
-30.525
 20
4.125
 70
     8
  0
VERTEX
  8
ゴム等
 10
-30.5
 20
4.15
 70
     8
  0
VERTEX
  8
ゴム等
 10
-30.475
 20
4.175
 70
     8
  0
VERTEX
  8
ゴム等
 10
-30.45
 20
4.2
 70
     8
  0
VERTEX
  8
ゴム等
 10
-30.425
 20
4.2
 70
     8
  0
VERTEX
  8
ゴム等
 10
-30.4
 20
4.225
 70
     8
  0
VERTEX
  8
ゴム等
 10
-30.375
 20
4.25
 70
     8
  0
VERTEX
  8
ゴム等
 10
-30.35
 20
4.275
 70
     8
  0
VERTEX
  8
ゴム等
 10
-30.325
 20
4.275
 70
     8
  0
VERTEX
  8
ゴム等
 10
-30.325
 20
4.3
 70
     8
  0
VERTEX
  8
ゴム等
 10
-30.3
 20
4.325
 70
     8
  0
VERTEX
  8
ゴム等
 10
-30.275
 20
4.35
 70
     8
  0
VERTEX
  8
ゴム等
 10
-30.25
 20
4.35
 70
     8
  0
VERTEX
  8
ゴム等
 10
-30.225
 20
4.375
 70
     8
  0
VERTEX
  8
ゴム等
 10
-30.2
 20
4.4
 70
     8
  0
VERTEX
  8
ゴム等
 10
-30.175
 20
4.425
 70
     8
  0
VERTEX
  8
ゴム等
 10
-30.15
 20
4.425
 70
     8
  0
VERTEX
  8
ゴム等
 10
-30.125
 20
4.45
 70
     8
  0
VERTEX
  8
ゴム等
 10
-30.1
 20
4.475
 70
     8
  0
VERTEX
  8
ゴム等
 10
-30.1
 20
4.5
 70
     8
  0
VERTEX
  8
ゴム等
 10
-30.075
 20
4.5
 70
     8
  0
VERTEX
  8
ゴム等
 10
-30.05
 20
4.525
 70
     8
  0
VERTEX
  8
ゴム等
 10
-30.025
 20
4.55
 70
     8
  0
VERTEX
  8
ゴム等
 10
-30.0
 20
4.575
 70
     8
  0
VERTEX
  8
ゴム等
 10
-29.975
 20
4.575
 70
     8
  0
VERTEX
  8
ゴム等
 10
-29.95
 20
4.6
 70
     8
  0
VERTEX
  8
ゴム等
 10
-29.925
 20
4.625
 70
     8
  0
VERTEX
  8
ゴム等
 10
-29.9
 20
4.65
 70
     8
  0
VERTEX
  8
ゴム等
 10
-29.875
 20
4.65
 70
     8
  0
VERTEX
  8
ゴム等
 10
-29.85
 20
4.675
 70
     8
  0
VERTEX
  8
ゴム等
 10
-29.825
 20
4.7
 70
     8
  0
VERTEX
  8
ゴム等
 10
-29.825
 20
4.725
 70
     8
  0
VERTEX
  8
ゴム等
 10
-29.8
 20
4.725
 70
     8
  0
VERTEX
  8
ゴム等
 10
-29.775
 20
4.75
 70
     8
  0
VERTEX
  8
ゴム等
 10
-29.75
 20
4.775
 70
     8
  0
VERTEX
  8
ゴム等
 10
-29.725
 20
4.8
 70
     8
  0
VERTEX
  8
ゴム等
 10
-29.7
 20
4.8
 70
     8
  0
VERTEX
  8
ゴム等
 10
-29.675
 20
4.825
 70
     8
  0
VERTEX
  8
ゴム等
 10
-29.65
 20
4.85
 70
     8
  0
VERTEX
  8
ゴム等
 10
-29.625
 20
4.875
 70
     8
  0
VERTEX
  8
ゴム等
 10
-29.6
 20
4.875
 70
     8
  0
VERTEX
  8
ゴム等
 10
-29.575
 20
4.9
 70
     8
  0
VERTEX
  8
ゴム等
 10
-29.55
 20
4.925
 70
     8
  0
VERTEX
  8
ゴム等
 10
-29.525
 20
4.925
 70
     8
  0
VERTEX
  8
ゴム等
 10
-29.525
 20
4.95
 70
     8
  0
VERTEX
  8
ゴム等
 10
-29.5
 20
4.975
 70
     8
  0
VERTEX
  8
ゴム等
 10
-29.475
 20
5.0
 70
     8
  0
VERTEX
  8
ゴム等
 10
-29.45
 20
5.0
 70
     8
  0
VERTEX
  8
ゴム等
 10
-29.425
 20
5.025
 70
     8
  0
VERTEX
  8
ゴム等
 10
-29.4
 20
5.05
 70
     8
  0
VERTEX
  8
ゴム等
 10
-29.375
 20
5.075
 70
     8
  0
VERTEX
  8
ゴム等
 10
-29.35
 20
5.075
 70
     8
  0
VERTEX
  8
ゴム等
 10
-29.325
 20
5.1
 70
     8
  0
VERTEX
  8
ゴム等
 10
-29.3
 20
5.125
 70
     8
  0
VERTEX
  8
ゴム等
 10
-29.275
 20
5.125
 70
     8
  0
VERTEX
  8
ゴム等
 10
-29.25
 20
5.15
 70
     8
  0
VERTEX
  8
ゴム等
 10
-29.225
 20
5.175
 70
     8
  0
VERTEX
  8
ゴム等
 10
-29.2
 20
5.2
 70
     8
  0
VERTEX
  8
ゴム等
 10
-29.175
 20
5.2
 70
     8
  0
VERTEX
  8
ゴム等
 10
-29.175
 20
5.225
 70
     8
  0
VERTEX
  8
ゴム等
 10
-29.15
 20
5.25
 70
     8
  0
VERTEX
  8
ゴム等
 10
-29.125
 20
5.25
 70
     8
  0
VERTEX
  8
ゴム等
 10
-29.1
 20
5.275
 70
     8
  0
VERTEX
  8
ゴム等
 10
-29.075
 20
5.3
 70
     8
  0
VERTEX
  8
ゴム等
 10
-29.05
 20
5.325
 70
     8
  0
VERTEX
  8
ゴム等
 10
-29.025
 20
5.325
 70
     8
  0
VERTEX
  8
ゴム等
 10
-29.0
 20
5.35
 70
     8
  0
VERTEX
  8
ゴム等
 10
-28.975
 20
5.375
 70
     8
  0
VERTEX
  8
ゴム等
 10
-28.95
 20
5.375
 70
     8
  0
VERTEX
  8
ゴム等
 10
-28.925
 20
5.4
 70
     8
  0
VERTEX
  8
ゴム等
 10
-28.9
 20
5.425
 70
     8
  0
VERTEX
  8
ゴム等
 10
-28.875
 20
5.45
 70
     8
  0
VERTEX
  8
ゴム等
 10
-28.85
 20
5.45
 70
     8
  0
VERTEX
  8
ゴム等
 10
-28.825
 20
5.475
 70
     8
  0
VERTEX
  8
ゴム等
 10
-28.8
 20
5.5
 70
     8
  0
VERTEX
  8
ゴム等
 10
-28.775
 20
5.5
 70
     8
  0
VERTEX
  8
ゴム等
 10
-28.75
 20
5.525
 70
     8
  0
VERTEX
  8
ゴム等
 10
-28.75
 20
5.55
 70
     8
  0
VERTEX
  8
ゴム等
 10
-28.725
 20
5.575
 70
     8
  0
VERTEX
  8
ゴム等
 10
-28.7
 20
5.575
 70
     8
  0
VERTEX
  8
ゴム等
 10
-28.675
 20
5.6
 70
     8
  0
VERTEX
  8
ゴム等
 10
-28.65
 20
5.625
 70
     8
  0
VERTEX
  8
ゴム等
 10
-28.625
 20
5.625
 70
     8
  0
VERTEX
  8
ゴム等
 10
-28.6
 20
5.65
 70
     8
  0
VERTEX
  8
ゴム等
 10
-28.575
 20
5.675
 70
     8
  0
VERTEX
  8
ゴム等
 10
-28.55
 20
5.675
 70
     8
  0
VERTEX
  8
ゴム等
 10
-28.525
 20
5.7
 70
     8
  0
VERTEX
  8
ゴム等
 10
-28.5
 20
5.725
 70
     8
  0
VERTEX
  8
ゴム等
 10
-28.475
 20
5.75
 70
     8
  0
VERTEX
  8
ゴム等
 10
-28.45
 20
5.75
 70
     8
  0
VERTEX
  8
ゴム等
 10
-28.425
 20
5.775
 70
     8
  0
SEQEND
  0
POLYLINE
  8
ゴム等
  6
CONTINUOUS
 66
     1
 70
     4
  0
VERTEX
  8
ゴム等
 10
-35.2
 20
6.225
 70
     8
  0
VERTEX
  8
ゴム等
 10
-35.175
 20
6.225
 70
     8
  0
VERTEX
  8
ゴム等
 10
-35.15
 20
6.2
 70
     8
  0
VERTEX
  8
ゴム等
 10
-35.1
 20
6.2
 70
     8
  0
VERTEX
  8
ゴム等
 10
-35.075
 20
6.2
 70
     8
  0
VERTEX
  8
ゴム等
 10
-35.05
 20
6.2
 70
     8
  0
VERTEX
  8
ゴム等
 10
-35.025
 20
6.2
 70
     8
  0
VERTEX
  8
ゴム等
 10
-34.975
 20
6.2
 70
     8
  0
VERTEX
  8
ゴム等
 10
-34.95
 20
6.2
 70
     8
  0
VERTEX
  8
ゴム等
 10
-34.925
 20
6.175
 70
     8
  0
VERTEX
  8
ゴム等
 10
-34.875
 20
6.175
 70
     8
  0
VERTEX
  8
ゴム等
 10
-34.85
 20
6.175
 70
     8
  0
VERTEX
  8
ゴム等
 10
-34.825
 20
6.175
 70
     8
  0
VERTEX
  8
ゴム等
 10
-34.775
 20
6.175
 70
     8
  0
VERTEX
  8
ゴム等
 10
-34.75
 20
6.175
 70
     8
  0
VERTEX
  8
ゴム等
 10
-34.725
 20
6.175
 70
     8
  0
VERTEX
  8
ゴム等
 10
-34.675
 20
6.15
 70
     8
  0
VERTEX
  8
ゴム等
 10
-34.65
 20
6.15
 70
     8
  0
VERTEX
  8
ゴム等
 10
-34.625
 20
6.15
 70
     8
  0
VERTEX
  8
ゴム等
 10
-34.6
 20
6.15
 70
     8
  0
VERTEX
  8
ゴム等
 10
-34.55
 20
6.15
 70
     8
  0
VERTEX
  8
ゴム等
 10
-34.525
 20
6.15
 70
     8
  0
VERTEX
  8
ゴム等
 10
-34.5
 20
6.125
 70
     8
  0
VERTEX
  8
ゴム等
 10
-34.45
 20
6.125
 70
     8
  0
VERTEX
  8
ゴム等
 10
-34.425
 20
6.125
 70
     8
  0
VERTEX
  8
ゴム等
 10
-34.4
 20
6.125
 70
     8
  0
VERTEX
  8
ゴム等
 10
-34.35
 20
6.125
 70
     8
  0
VERTEX
  8
ゴム等
 10
-34.325
 20
6.125
 70
     8
  0
VERTEX
  8
ゴム等
 10
-34.3
 20
6.125
 70
     8
  0
VERTEX
  8
ゴム等
 10
-34.25
 20
6.125
 70
     8
  0
VERTEX
  8
ゴム等
 10
-34.225
 20
6.1
 70
     8
  0
VERTEX
  8
ゴム等
 10
-34.2
 20
6.1
 70
     8
  0
VERTEX
  8
ゴム等
 10
-34.15
 20
6.1
 70
     8
  0
VERTEX
  8
ゴム等
 10
-34.125
 20
6.1
 70
     8
  0
VERTEX
  8
ゴム等
 10
-34.1
 20
6.1
 70
     8
  0
VERTEX
  8
ゴム等
 10
-34.075
 20
6.1
 70
     8
  0
VERTEX
  8
ゴム等
 10
-34.025
 20
6.1
 70
     8
  0
VERTEX
  8
ゴム等
 10
-34.0
 20
6.075
 70
     8
  0
VERTEX
  8
ゴム等
 10
-33.975
 20
6.075
 70
     8
  0
VERTEX
  8
ゴム等
 10
-33.925
 20
6.075
 70
     8
  0
VERTEX
  8
ゴム等
 10
-33.9
 20
6.075
 70
     8
  0
VERTEX
  8
ゴム等
 10
-33.875
 20
6.075
 70
     8
  0
VERTEX
  8
ゴム等
 10
-33.825
 20
6.075
 70
     8
  0
VERTEX
  8
ゴム等
 10
-33.8
 20
6.075
 70
     8
  0
VERTEX
  8
ゴム等
 10
-33.775
 20
6.075
 70
     8
  0
VERTEX
  8
ゴム等
 10
-33.725
 20
6.05
 70
     8
  0
VERTEX
  8
ゴム等
 10
-33.7
 20
6.05
 70
     8
  0
VERTEX
  8
ゴム等
 10
-33.675
 20
6.05
 70
     8
  0
VERTEX
  8
ゴム等
 10
-33.65
 20
6.05
 70
     8
  0
VERTEX
  8
ゴム等
 10
-33.6
 20
6.05
 70
     8
  0
VERTEX
  8
ゴム等
 10
-33.575
 20
6.05
 70
     8
  0
VERTEX
  8
ゴム等
 10
-33.55
 20
6.05
 70
     8
  0
VERTEX
  8
ゴム等
 10
-33.5
 20
6.05
 70
     8
  0
VERTEX
  8
ゴム等
 10
-33.475
 20
6.05
 70
     8
  0
VERTEX
  8
ゴム等
 10
-33.45
 20
6.025
 70
     8
  0
VERTEX
  8
ゴム等
 10
-33.4
 20
6.025
 70
     8
  0
VERTEX
  8
ゴム等
 10
-33.375
 20
6.025
 70
     8
  0
VERTEX
  8
ゴム等
 10
-33.35
 20
6.025
 70
     8
  0
VERTEX
  8
ゴム等
 10
-33.3
 20
6.025
 70
     8
  0
VERTEX
  8
ゴム等
 10
-33.275
 20
6.025
 70
     8
  0
VERTEX
  8
ゴム等
 10
-33.25
 20
6.025
 70
     8
  0
VERTEX
  8
ゴム等
 10
-33.225
 20
6.025
 70
     8
  0
VERTEX
  8
ゴム等
 10
-33.175
 20
6.025
 70
     8
  0
VERTEX
  8
ゴム等
 10
-33.15
 20
6.025
 70
     8
  0
VERTEX
  8
ゴム等
 10
-33.125
 20
6.025
 70
     8
  0
VERTEX
  8
ゴム等
 10
-33.075
 20
6.025
 70
     8
  0
VERTEX
  8
ゴム等
 10
-33.05
 20
6.0
 70
     8
  0
VERTEX
  8
ゴム等
 10
-33.025
 20
6.0
 70
     8
  0
VERTEX
  8
ゴム等
 10
-32.975
 20
6.0
 70
     8
  0
VERTEX
  8
ゴム等
 10
-32.95
 20
6.0
 70
     8
  0
VERTEX
  8
ゴム等
 10
-32.925
 20
6.0
 70
     8
  0
VERTEX
  8
ゴム等
 10
-32.875
 20
6.0
 70
     8
  0
VERTEX
  8
ゴム等
 10
-32.85
 20
6.0
 70
     8
  0
VERTEX
  8
ゴム等
 10
-32.825
 20
6.0
 70
     8
  0
VERTEX
  8
ゴム等
 10
-32.8
 20
6.0
 70
     8
  0
VERTEX
  8
ゴム等
 10
-32.75
 20
6.0
 70
     8
  0
VERTEX
  8
ゴム等
 10
-32.725
 20
6.0
 70
     8
  0
VERTEX
  8
ゴム等
 10
-32.7
 20
6.0
 70
     8
  0
VERTEX
  8
ゴム等
 10
-32.65
 20
6.0
 70
     8
  0
VERTEX
  8
ゴム等
 10
-32.625
 20
6.0
 70
     8
  0
VERTEX
  8
ゴム等
 10
-32.6
 20
6.0
 70
     8
  0
VERTEX
  8
ゴム等
 10
-32.55
 20
6.0
 70
     8
  0
VERTEX
  8
ゴム等
 10
-32.525
 20
6.0
 70
     8
  0
VERTEX
  8
ゴム等
 10
-32.5
 20
6.0
 70
     8
  0
VERTEX
  8
ゴム等
 10
-32.475
 20
5.975
 70
     8
  0
VERTEX
  8
ゴム等
 10
-32.425
 20
5.975
 70
     8
  0
VERTEX
  8
ゴム等
 10
-32.4
 20
5.975
 70
     8
  0
VERTEX
  8
ゴム等
 10
-32.375
 20
5.975
 70
     8
  0
VERTEX
  8
ゴム等
 10
-32.325
 20
5.975
 70
     8
  0
VERTEX
  8
ゴム等
 10
-32.3
 20
5.975
 70
     8
  0
VERTEX
  8
ゴム等
 10
-32.275
 20
5.975
 70
     8
  0
VERTEX
  8
ゴム等
 10
-32.225
 20
5.975
 70
     8
  0
VERTEX
  8
ゴム等
 10
-32.2
 20
5.975
 70
     8
  0
VERTEX
  8
ゴム等
 10
-32.175
 20
5.975
 70
     8
  0
VERTEX
  8
ゴム等
 10
-32.15
 20
5.975
 70
     8
  0
VERTEX
  8
ゴム等
 10
-32.1
 20
5.975
 70
     8
  0
VERTEX
  8
ゴム等
 10
-32.075
 20
5.975
 70
     8
  0
VERTEX
  8
ゴム等
 10
-32.05
 20
5.975
 70
     8
  0
VERTEX
  8
ゴム等
 10
-32.0
 20
5.975
 70
     8
  0
VERTEX
  8
ゴム等
 10
-31.975
 20
5.975
 70
     8
  0
VERTEX
  8
ゴム等
 10
-31.95
 20
5.975
 70
     8
  0
VERTEX
  8
ゴム等
 10
-31.9
 20
5.975
 70
     8
  0
VERTEX
  8
ゴム等
 10
-31.875
 20
5.975
 70
     8
  0
VERTEX
  8
ゴム等
 10
-31.85
 20
5.975
 70
     8
  0
VERTEX
  8
ゴム等
 10
-31.825
 20
6.0
 70
     8
  0
VERTEX
  8
ゴム等
 10
-31.775
 20
6.0
 70
     8
  0
VERTEX
  8
ゴム等
 10
-31.75
 20
6.0
 70
     8
  0
VERTEX
  8
ゴム等
 10
-31.725
 20
6.0
 70
     8
  0
VERTEX
  8
ゴム等
 10
-31.675
 20
6.0
 70
     8
  0
VERTEX
  8
ゴム等
 10
-31.65
 20
6.0
 70
     8
  0
VERTEX
  8
ゴム等
 10
-31.625
 20
6.0
 70
     8
  0
VERTEX
  8
ゴム等
 10
-31.575
 20
6.0
 70
     8
  0
VERTEX
  8
ゴム等
 10
-31.55
 20
6.0
 70
     8
  0
VERTEX
  8
ゴム等
 10
-31.525
 20
6.0
 70
     8
  0
VERTEX
  8
ゴム等
 10
-31.5
 20
6.0
 70
     8
  0
VERTEX
  8
ゴム等
 10
-31.45
 20
6.0
 70
     8
  0
VERTEX
  8
ゴム等
 10
-31.425
 20
6.0
 70
     8
  0
VERTEX
  8
ゴム等
 10
-31.4
 20
6.0
 70
     8
  0
VERTEX
  8
ゴム等
 10
-31.35
 20
6.0
 70
     8
  0
VERTEX
  8
ゴム等
 10
-31.325
 20
6.0
 70
     8
  0
VERTEX
  8
ゴム等
 10
-31.3
 20
6.025
 70
     8
  0
VERTEX
  8
ゴム等
 10
-31.25
 20
6.025
 70
     8
  0
VERTEX
  8
ゴム等
 10
-31.225
 20
6.025
 70
     8
  0
VERTEX
  8
ゴム等
 10
-31.2
 20
6.025
 70
     8
  0
VERTEX
  8
ゴム等
 10
-31.175
 20
6.025
 70
     8
  0
VERTEX
  8
ゴム等
 10
-31.125
 20
6.025
 70
     8
  0
VERTEX
  8
ゴム等
 10
-31.1
 20
6.025
 70
     8
  0
VERTEX
  8
ゴム等
 10
-31.075
 20
6.025
 70
     8
  0
VERTEX
  8
ゴム等
 10
-31.025
 20
6.05
 70
     8
  0
VERTEX
  8
ゴム等
 10
-31.0
 20
6.05
 70
     8
  0
VERTEX
  8
ゴム等
 10
-30.975
 20
6.05
 70
     8
  0
VERTEX
  8
ゴム等
 10
-30.95
 20
6.05
 70
     8
  0
VERTEX
  8
ゴム等
 10
-30.9
 20
6.05
 70
     8
  0
VERTEX
  8
ゴム等
 10
-30.875
 20
6.05
 70
     8
  0
VERTEX
  8
ゴム等
 10
-30.85
 20
6.05
 70
     8
  0
VERTEX
  8
ゴム等
 10
-30.8
 20
6.075
 70
     8
  0
VERTEX
  8
ゴム等
 10
-30.775
 20
6.075
 70
     8
  0
VERTEX
  8
ゴム等
 10
-30.75
 20
6.075
 70
     8
  0
VERTEX
  8
ゴム等
 10
-30.725
 20
6.075
 70
     8
  0
VERTEX
  8
ゴム等
 10
-30.675
 20
6.075
 70
     8
  0
VERTEX
  8
ゴム等
 10
-30.65
 20
6.075
 70
     8
  0
VERTEX
  8
ゴム等
 10
-30.625
 20
6.1
 70
     8
  0
VERTEX
  8
ゴム等
 10
-30.575
 20
6.1
 70
     8
  0
VERTEX
  8
ゴム等
 10
-30.55
 20
6.1
 70
     8
  0
VERTEX
  8
ゴム等
 10
-30.525
 20
6.1
 70
     8
  0
VERTEX
  8
ゴム等
 10
-30.475
 20
6.1
 70
     8
  0
VERTEX
  8
ゴム等
 10
-30.45
 20
6.125
 70
     8
  0
VERTEX
  8
ゴム等
 10
-30.425
 20
6.125
 70
     8
  0
VERTEX
  8
ゴム等
 10
-30.4
 20
6.125
 70
     8
  0
VERTEX
  8
ゴム等
 10
-30.35
 20
6.125
 70
     8
  0
VERTEX
  8
ゴム等
 10
-30.325
 20
6.125
 70
     8
  0
VERTEX
  8
ゴム等
 10
-30.3
 20
6.15
 70
     8
  0
VERTEX
  8
ゴム等
 10
-30.25
 20
6.15
 70
     8
  0
VERTEX
  8
ゴム等
 10
-30.225
 20
6.15
 70
     8
  0
VERTEX
  8
ゴム等
 10
-30.2
 20
6.15
 70
     8
  0
VERTEX
  8
ゴム等
 10
-30.175
 20
6.15
 70
     8
  0
VERTEX
  8
ゴム等
 10
-30.125
 20
6.175
 70
     8
  0
VERTEX
  8
ゴム等
 10
-30.1
 20
6.175
 70
     8
  0
VERTEX
  8
ゴム等
 10
-30.075
 20
6.175
 70
     8
  0
VERTEX
  8
ゴム等
 10
-30.025
 20
6.175
 70
     8
  0
VERTEX
  8
ゴム等
 10
-30.0
 20
6.2
 70
     8
  0
VERTEX
  8
ゴム等
 10
-29.975
 20
6.2
 70
     8
  0
VERTEX
  8
ゴム等
 10
-29.95
 20
6.2
 70
     8
  0
VERTEX
  8
ゴム等
 10
-29.9
 20
6.2
 70
     8
  0
VERTEX
  8
ゴム等
 10
-29.875
 20
6.225
 70
     8
  0
VERTEX
  8
ゴム等
 10
-29.85
 20
6.225
 70
     8
  0
VERTEX
  8
ゴム等
 10
-29.8
 20
6.225
 70
     8
  0
VERTEX
  8
ゴム等
 10
-29.775
 20
6.225
 70
     8
  0
VERTEX
  8
ゴム等
 10
-29.75
 20
6.25
 70
     8
  0
VERTEX
  8
ゴム等
 10
-29.725
 20
6.25
 70
     8
  0
VERTEX
  8
ゴム等
 10
-29.675
 20
6.25
 70
     8
  0
VERTEX
  8
ゴム等
 10
-29.65
 20
6.25
 70
     8
  0
VERTEX
  8
ゴム等
 10
-29.625
 20
6.275
 70
     8
  0
VERTEX
  8
ゴム等
 10
-29.575
 20
6.275
 70
     8
  0
VERTEX
  8
ゴム等
 10
-29.55
 20
6.275
 70
     8
  0
VERTEX
  8
ゴム等
 10
-29.525
 20
6.275
 70
     8
  0
VERTEX
  8
ゴム等
 10
-29.5
 20
6.3
 70
     8
  0
VERTEX
  8
ゴム等
 10
-29.45
 20
6.3
 70
     8
  0
VERTEX
  8
ゴム等
 10
-29.425
 20
6.3
 70
     8
  0
VERTEX
  8
ゴム等
 10
-29.4
 20
6.3
 70
     8
  0
VERTEX
  8
ゴム等
 10
-29.35
 20
6.325
 70
     8
  0
VERTEX
  8
ゴム等
 10
-29.325
 20
6.325
 70
     8
  0
VERTEX
  8
ゴム等
 10
-29.3
 20
6.325
 70
     8
  0
VERTEX
  8
ゴム等
 10
-29.275
 20
6.325
 70
     8
  0
VERTEX
  8
ゴム等
 10
-29.225
 20
6.35
 70
     8
  0
VERTEX
  8
ゴム等
 10
-29.2
 20
6.35
 70
     8
  0
VERTEX
  8
ゴム等
 10
-29.175
 20
6.35
 70
     8
  0
VERTEX
  8
ゴム等
 10
-29.15
 20
6.375
 70
     8
  0
VERTEX
  8
ゴム等
 10
-29.1
 20
6.375
 70
     8
  0
VERTEX
  8
ゴム等
 10
-29.075
 20
6.375
 70
     8
  0
VERTEX
  8
ゴム等
 10
-29.05
 20
6.375
 70
     8
  0
VERTEX
  8
ゴム等
 10
-29.0
 20
6.4
 70
     8
  0
VERTEX
  8
ゴム等
 10
-28.975
 20
6.4
 70
     8
  0
VERTEX
  8
ゴム等
 10
-28.95
 20
6.4
 70
     8
  0
VERTEX
  8
ゴム等
 10
-28.925
 20
6.425
 70
     8
  0
VERTEX
  8
ゴム等
 10
-28.875
 20
6.425
 70
     8
  0
VERTEX
  8
ゴム等
 10
-28.85
 20
6.425
 70
     8
  0
VERTEX
  8
ゴム等
 10
-28.825
 20
6.425
 70
     8
  0
VERTEX
  8
ゴム等
 10
-28.775
 20
6.45
 70
     8
  0
VERTEX
  8
ゴム等
 10
-28.75
 20
6.45
 70
     8
  0
VERTEX
  8
ゴム等
 10
-28.725
 20
6.45
 70
     8
  0
SEQEND
  0
ARC
  8
ゴム等
  6
CONTINUOUS
 10
-28.698343
 20
6.067811
 40
0.4
 50
225.0
 51
225.0
  0
ARC
  8
ゴム等
  6
CONTINUOUS
 10
-28.698343
 20
6.067811
 40
0.4
 50
315.0
 51
451.383177
  0
INSERT
  2
*HAT_0011
  8
ゴム等
 10
0.0
 20
0.0
  0
ENDBLK
  0
BLOCK
  2
*GRP_0056
 70
    65
 10
0.0
 20
0.0
  0
POLYLINE
  8
寸法
  6
BYBLOCK
 62
     0
 66
     1
  0
VERTEX
  8
寸法
 10
-76.306567
 20
-72.552082
  0
VERTEX
  8
寸法
 10
-74.806567
 20
-69.954007
  0
VERTEX
  8
寸法
 10
-77.404643
 20
-71.454007
  0
SEQEND
  0
POLYLINE
  8
寸法
  6
BYBLOCK
 62
     0
 66
     1
  0
VERTEX
  8
寸法
 10
-74.806567
 20
-69.954007
  0
VERTEX
  8
寸法
 10
-81.899183
 20
-77.046623
  0
VERTEX
  8
寸法
 10
-85.25524
 20
-77.046623
  0
SEQEND
  0
ENDBLK
  0
BLOCK
  2
*GRP_0057
 70
    65
 10
0.0
 20
0.0
  0
POLYLINE
  8
寸法
  6
BYBLOCK
 62
     0
 66
     1
  0
VERTEX
  8
寸法
 10
-63.92219
 20
-33.65388
  0
VERTEX
  8
寸法
 10
-62.42219
 20
-31.055805
  0
VERTEX
  8
寸法
 10
-65.020268
 20
-32.555805
  0
SEQEND
  0
POLYLINE
  8
寸法
  6
BYBLOCK
 62
     0
 66
     1
  0
VERTEX
  8
寸法
 10
-62.42219
 20
-31.055805
  0
VERTEX
  8
寸法
 10
-66.180648
 20
-34.814263
  0
VERTEX
  8
寸法
 10
-80.090805
 20
-34.814263
  0
SEQEND
  0
ENDBLK
  0
BLOCK
  2
*DIM_0058
 70
    65
 10
0.0
 20
0.0
  0
LINE
  8
寸法
  6
BYBLOCK
 62
     0
 10
-45.980782
 20
-8.606548
 11
-63.958497
 21
9.371723
  0
LINE
  8
寸法
  6
BYBLOCK
 62
     0
 10
-29.12259
 20
7.057768
 11
-47.696985
 21
25.632733
  0
LINE
  8
寸法
  6
BYBLOCK
 62
     0
 10
-63.958497
 20
9.371723
 11
-47.696985
 21
25.632733
  0
POINT
  8
寸法
 62
     0
 10
-63.958497
 20
9.371723
  0
POINT
  8
寸法
 62
     0
 10
-47.696985
 20
25.632733
  0
TEXT
  7
TextStyle03
  8
寸法
  6
CONTINUOUS
 62
     0
 10
-57.613388
 20
16.258185
  1
23
 40
4.0
 50
45.0
 72
     5
 11
-54.608185
 21
19.263388
  0
ENDBLK
  0
BLOCK
  2
*GRP_0059
 70
    65
 10
0.0
 20
0.0
  0
ARC
  8
ゴム等
  6
CONTINUOUS
 10
-35.632969
 20
-0.7208
 40
0.5
 50
-315.000891
 51
-225.000887
  0
LINE
  8
ゴム等
  6
CONTINUOUS
 10
-35.27941
 20
-0.367252
 11
-35.27941
 21
-0.367252
  0
ARC
  8
ゴム等
  6
CONTINUOUS
 10
-35.63297
 20
-0.7208
 40
0.5
 50
-45.000887
 51
44.999155
  0
LINE
  8
ゴム等
  6
CONTINUOUS
 10
-35.986515
 20
-0.36724
 11
-38.814988
 21
-3.195625
  0
ARC
  8
ゴム等
  6
CONTINUOUS
 10
-38.461441
 20
-3.549184
 40
0.5
 50
-225.000887
 51
-135.000891
  0
LINE
  8
ゴム等
  6
CONTINUOUS
 10
-38.815
 20
-3.902733
 11
-38.815
 21
-3.902733
  0
LINE
  8
ゴム等
  6
CONTINUOUS
 10
-35.279422
 20
-1.07436
 11
-38.107892
 21
-3.902743
  0
ARC
  8
ゴム等
  6
CONTINUOUS
 10
-38.461442
 20
-3.549184
 40
0.5
 50
224.999155
 51
314.999113
  0
INSERT
  2
*HAT_0012
  8
ゴム等
 10
0.0
 20
0.0
  0
ENDBLK
  0
BLOCK
  2
*GRP_0060
 70
    65
 10
0.0
 20
0.0
  0
LINE
  8
ゴム等
  6
CONTINUOUS
 10
-154.60424
 20
86.130853
 11
-153.89669
 21
86.838402
  0
LINE
  8
ゴム等
  6
CONTINUOUS
 10
-149.297607
 20
91.437485
 11
-148.590055
 21
92.145038
  0
LINE
  8
ゴム等
  6
CONTINUOUS
 10
-162.852765
 20
76.468115
 11
-163.559872
 21
77.175223
  0
LINE
  8
ゴム等
  6
CONTINUOUS
 10
-163.559872
 20
77.175223
 11
-162.28708
 21
78.448015
  0
LINE
  8
ゴム等
  6
CONTINUOUS
 10
-162.28708
 20
78.448015
 11
-167.943933
 21
84.104867
  0
LINE
  8
ゴム等
  6
CONTINUOUS
 10
-167.943933
 20
84.104867
 11
-156.513015
 21
95.535787
  0
ARC
  8
ゴム等
  6
CONTINUOUS
 10
-150.856161
 20
89.878932
 40
8.0
 50
84.714587
 51
135.0
  0
LINE
  8
ゴム等
  6
CONTINUOUS
 10
-163.772002
 20
83.044208
 11
-163.206318
 21
83.892735
  0
LINE
  8
ゴム等
  6
CONTINUOUS
 10
-162.35779
 20
81.629995
 11
-162.352805
 21
83.545517
  0
ARC
  8
ゴム等
  6
CONTINUOUS
 10
-162.852765
 20
83.539182
 40
0.5
 50
0.726035
 51
135.0
  0
LINE
  8
ゴム等
  6
CONTINUOUS
 10
-160.024338
 20
79.296543
 11
-162.35779
 21
81.629995
  0
LINE
  8
ゴム等
  6
CONTINUOUS
 10
-163.772002
 20
83.044208
 11
-165.327638
 21
84.599842
  0
LINE
  8
ゴム等
  6
CONTINUOUS
 10
-155.640272
 20
85.801925
 11
-154.97033
 21
86.47187
  0
LINE
  8
ゴム等
  6
CONTINUOUS
 10
-154.628867
 20
87.520437
 11
-150.029785
 21
92.11952
  0
LINE
  8
ゴム等
  6
CONTINUOUS
 10
-147.947865
 20
93.494335
 11
-148.956145
 21
92.486055
  0
LINE
  8
ゴム等
  6
CONTINUOUS
 10
-162.852765
 20
76.468115
 11
-160.024338
 21
79.296543
  0
LINE
  8
ゴム等
  6
CONTINUOUS
 10
-154.628867
 20
87.520437
 11
-153.89669
 21
86.838402
  0
LINE
  8
ゴム等
  6
CONTINUOUS
 10
-154.97033
 20
86.47187
 11
-154.60424
 21
86.130853
  0
LINE
  8
ゴム等
  6
CONTINUOUS
 10
-150.029785
 20
92.11952
 11
-149.297607
 21
91.437485
  0
LINE
  8
ゴム等
  6
CONTINUOUS
 10
-148.956145
 20
92.486055
 11
-148.590055
 21
92.145038
  0
LINE
  8
ゴム等
  6
CONTINUOUS
 10
-155.640272
 20
85.801925
 11
-158.373448
 21
88.5351
  0
LINE
  8
ゴム等
  6
CONTINUOUS
 10
-162.263318
 20
87.559025
 11
-165.327638
 21
84.599842
  0
POLYLINE
  8
ゴム等
  6
CONTINUOUS
 66
     1
 70
     4
  0
VERTEX
  8
ゴム等
 10
-147.875
 20
93.575
 70
     8
  0
VERTEX
  8
ゴム等
 10
-147.85
 20
93.6
 70
     8
  0
VERTEX
  8
ゴム等
 10
-147.825
 20
93.625
 70
     8
  0
VERTEX
  8
ゴム等
 10
-147.8
 20
93.625
 70
     8
  0
VERTEX
  8
ゴム等
 10
-147.775
 20
93.65
 70
     8
  0
VERTEX
  8
ゴム等
 10
-147.75
 20
93.675
 70
     8
  0
VERTEX
  8
ゴム等
 10
-147.725
 20
93.7
 70
     8
  0
VERTEX
  8
ゴム等
 10
-147.7
 20
93.725
 70
     8
  0
VERTEX
  8
ゴム等
 10
-147.7
 20
93.725
 70
     8
  0
VERTEX
  8
ゴム等
 10
-147.675
 20
93.75
 70
     8
  0
VERTEX
  8
ゴム等
 10
-147.65
 20
93.775
 70
     8
  0
VERTEX
  8
ゴム等
 10
-147.625
 20
93.8
 70
     8
  0
VERTEX
  8
ゴム等
 10
-147.6
 20
93.825
 70
     8
  0
VERTEX
  8
ゴム等
 10
-147.575
 20
93.825
 70
     8
  0
VERTEX
  8
ゴム等
 10
-147.55
 20
93.85
 70
     8
  0
VERTEX
  8
ゴム等
 10
-147.525
 20
93.875
 70
     8
  0
VERTEX
  8
ゴム等
 10
-147.525
 20
93.9
 70
     8
  0
VERTEX
  8
ゴム等
 10
-147.5
 20
93.925
 70
     8
  0
VERTEX
  8
ゴム等
 10
-147.475
 20
93.925
 70
     8
  0
VERTEX
  8
ゴム等
 10
-147.45
 20
93.95
 70
     8
  0
VERTEX
  8
ゴム等
 10
-147.425
 20
93.975
 70
     8
  0
VERTEX
  8
ゴム等
 10
-147.4
 20
94.0
 70
     8
  0
VERTEX
  8
ゴム等
 10
-147.375
 20
94.025
 70
     8
  0
VERTEX
  8
ゴム等
 10
-147.35
 20
94.025
 70
     8
  0
VERTEX
  8
ゴム等
 10
-147.35
 20
94.05
 70
     8
  0
VERTEX
  8
ゴム等
 10
-147.325
 20
94.075
 70
     8
  0
VERTEX
  8
ゴム等
 10
-147.3
 20
94.1
 70
     8
  0
VERTEX
  8
ゴム等
 10
-147.275
 20
94.125
 70
     8
  0
VERTEX
  8
ゴム等
 10
-147.25
 20
94.125
 70
     8
  0
VERTEX
  8
ゴム等
 10
-147.225
 20
94.15
 70
     8
  0
VERTEX
  8
ゴム等
 10
-147.2
 20
94.175
 70
     8
  0
VERTEX
  8
ゴム等
 10
-147.175
 20
94.2
 70
     8
  0
VERTEX
  8
ゴム等
 10
-147.175
 20
94.225
 70
     8
  0
VERTEX
  8
ゴム等
 10
-147.15
 20
94.225
 70
     8
  0
VERTEX
  8
ゴム等
 10
-147.125
 20
94.25
 70
     8
  0
VERTEX
  8
ゴム等
 10
-147.1
 20
94.275
 70
     8
  0
VERTEX
  8
ゴム等
 10
-147.075
 20
94.3
 70
     8
  0
VERTEX
  8
ゴム等
 10
-147.05
 20
94.325
 70
     8
  0
VERTEX
  8
ゴム等
 10
-147.025
 20
94.325
 70
     8
  0
VERTEX
  8
ゴム等
 10
-147.0
 20
94.35
 70
     8
  0
VERTEX
  8
ゴム等
 10
-147.0
 20
94.375
 70
     8
  0
VERTEX
  8
ゴム等
 10
-146.975
 20
94.4
 70
     8
  0
VERTEX
  8
ゴム等
 10
-146.95
 20
94.425
 70
     8
  0
VERTEX
  8
ゴム等
 10
-146.925
 20
94.425
 70
     8
  0
VERTEX
  8
ゴム等
 10
-146.9
 20
94.45
 70
     8
  0
VERTEX
  8
ゴム等
 10
-146.875
 20
94.475
 70
     8
  0
VERTEX
  8
ゴム等
 10
-146.85
 20
94.5
 70
     8
  0
VERTEX
  8
ゴム等
 10
-146.825
 20
94.525
 70
     8
  0
VERTEX
  8
ゴム等
 10
-146.825
 20
94.525
 70
     8
  0
VERTEX
  8
ゴム等
 10
-146.8
 20
94.55
 70
     8
  0
VERTEX
  8
ゴム等
 10
-146.775
 20
94.575
 70
     8
  0
VERTEX
  8
ゴム等
 10
-146.75
 20
94.6
 70
     8
  0
VERTEX
  8
ゴム等
 10
-146.725
 20
94.625
 70
     8
  0
VERTEX
  8
ゴム等
 10
-146.7
 20
94.625
 70
     8
  0
VERTEX
  8
ゴム等
 10
-146.675
 20
94.65
 70
     8
  0
VERTEX
  8
ゴム等
 10
-146.65
 20
94.675
 70
     8
  0
VERTEX
  8
ゴム等
 10
-146.65
 20
94.7
 70
     8
  0
VERTEX
  8
ゴム等
 10
-146.625
 20
94.7
 70
     8
  0
VERTEX
  8
ゴム等
 10
-146.6
 20
94.725
 70
     8
  0
VERTEX
  8
ゴム等
 10
-146.575
 20
94.75
 70
     8
  0
VERTEX
  8
ゴム等
 10
-146.55
 20
94.775
 70
     8
  0
VERTEX
  8
ゴム等
 10
-146.525
 20
94.8
 70
     8
  0
VERTEX
  8
ゴム等
 10
-146.5
 20
94.8
 70
     8
  0
VERTEX
  8
ゴム等
 10
-146.475
 20
94.825
 70
     8
  0
VERTEX
  8
ゴム等
 10
-146.475
 20
94.85
 70
     8
  0
VERTEX
  8
ゴム等
 10
-146.45
 20
94.875
 70
     8
  0
VERTEX
  8
ゴム等
 10
-146.425
 20
94.9
 70
     8
  0
VERTEX
  8
ゴム等
 10
-146.4
 20
94.9
 70
     8
  0
VERTEX
  8
ゴム等
 10
-146.375
 20
94.925
 70
     8
  0
VERTEX
  8
ゴム等
 10
-146.35
 20
94.95
 70
     8
  0
VERTEX
  8
ゴム等
 10
-146.325
 20
94.975
 70
     8
  0
VERTEX
  8
ゴム等
 10
-146.3
 20
95.0
 70
     8
  0
VERTEX
  8
ゴム等
 10
-146.275
 20
95.0
 70
     8
  0
VERTEX
  8
ゴム等
 10
-146.275
 20
95.025
 70
     8
  0
VERTEX
  8
ゴム等
 10
-146.25
 20
95.05
 70
     8
  0
VERTEX
  8
ゴム等
 10
-146.225
 20
95.075
 70
     8
  0
VERTEX
  8
ゴム等
 10
-146.2
 20
95.075
 70
     8
  0
VERTEX
  8
ゴム等
 10
-146.175
 20
95.1
 70
     8
  0
VERTEX
  8
ゴム等
 10
-146.15
 20
95.125
 70
     8
  0
VERTEX
  8
ゴム等
 10
-146.125
 20
95.15
 70
     8
  0
VERTEX
  8
ゴム等
 10
-146.1
 20
95.175
 70
     8
  0
VERTEX
  8
ゴム等
 10
-146.075
 20
95.175
 70
     8
  0
VERTEX
  8
ゴム等
 10
-146.075
 20
95.2
 70
     8
  0
VERTEX
  8
ゴム等
 10
-146.05
 20
95.225
 70
     8
  0
VERTEX
  8
ゴム等
 10
-146.025
 20
95.25
 70
     8
  0
VERTEX
  8
ゴム等
 10
-146.0
 20
95.25
 70
     8
  0
VERTEX
  8
ゴム等
 10
-145.975
 20
95.275
 70
     8
  0
VERTEX
  8
ゴム等
 10
-145.95
 20
95.3
 70
     8
  0
VERTEX
  8
ゴム等
 10
-145.925
 20
95.325
 70
     8
  0
VERTEX
  8
ゴム等
 10
-145.9
 20
95.35
 70
     8
  0
VERTEX
  8
ゴム等
 10
-145.875
 20
95.35
 70
     8
  0
VERTEX
  8
ゴム等
 10
-145.875
 20
95.375
 70
     8
  0
VERTEX
  8
ゴム等
 10
-145.85
 20
95.4
 70
     8
  0
VERTEX
  8
ゴム等
 10
-145.825
 20
95.425
 70
     8
  0
VERTEX
  8
ゴム等
 10
-145.8
 20
95.425
 70
     8
  0
VERTEX
  8
ゴム等
 10
-145.775
 20
95.45
 70
     8
  0
VERTEX
  8
ゴム等
 10
-145.75
 20
95.475
 70
     8
  0
VERTEX
  8
ゴム等
 10
-145.725
 20
95.5
 70
     8
  0
VERTEX
  8
ゴム等
 10
-145.7
 20
95.525
 70
     8
  0
VERTEX
  8
ゴム等
 10
-145.675
 20
95.525
 70
     8
  0
VERTEX
  8
ゴム等
 10
-145.675
 20
95.55
 70
     8
  0
VERTEX
  8
ゴム等
 10
-145.65
 20
95.575
 70
     8
  0
VERTEX
  8
ゴム等
 10
-145.625
 20
95.6
 70
     8
  0
VERTEX
  8
ゴム等
 10
-145.6
 20
95.6
 70
     8
  0
VERTEX
  8
ゴム等
 10
-145.575
 20
95.625
 70
     8
  0
VERTEX
  8
ゴム等
 10
-145.55
 20
95.65
 70
     8
  0
VERTEX
  8
ゴム等
 10
-145.525
 20
95.675
 70
     8
  0
VERTEX
  8
ゴム等
 10
-145.5
 20
95.675
 70
     8
  0
VERTEX
  8
ゴム等
 10
-145.475
 20
95.7
 70
     8
  0
VERTEX
  8
ゴム等
 10
-145.45
 20
95.725
 70
     8
  0
VERTEX
  8
ゴム等
 10
-145.45
 20
95.75
 70
     8
  0
VERTEX
  8
ゴム等
 10
-145.425
 20
95.775
 70
     8
  0
VERTEX
  8
ゴム等
 10
-145.4
 20
95.775
 70
     8
  0
VERTEX
  8
ゴム等
 10
-145.375
 20
95.8
 70
     8
  0
VERTEX
  8
ゴム等
 10
-145.35
 20
95.825
 70
     8
  0
VERTEX
  8
ゴム等
 10
-145.325
 20
95.85
 70
     8
  0
VERTEX
  8
ゴム等
 10
-145.3
 20
95.85
 70
     8
  0
VERTEX
  8
ゴム等
 10
-145.275
 20
95.875
 70
     8
  0
VERTEX
  8
ゴム等
 10
-145.25
 20
95.9
 70
     8
  0
VERTEX
  8
ゴム等
 10
-145.225
 20
95.925
 70
     8
  0
VERTEX
  8
ゴム等
 10
-145.225
 20
95.925
 70
     8
  0
VERTEX
  8
ゴム等
 10
-145.2
 20
95.95
 70
     8
  0
VERTEX
  8
ゴム等
 10
-145.175
 20
95.975
 70
     8
  0
VERTEX
  8
ゴム等
 10
-145.15
 20
96.0
 70
     8
  0
VERTEX
  8
ゴム等
 10
-145.125
 20
96.0
 70
     8
  0
VERTEX
  8
ゴム等
 10
-145.1
 20
96.025
 70
     8
  0
VERTEX
  8
ゴム等
 10
-145.075
 20
96.05
 70
     8
  0
VERTEX
  8
ゴム等
 10
-145.05
 20
96.075
 70
     8
  0
VERTEX
  8
ゴム等
 10
-145.025
 20
96.075
 70
     8
  0
VERTEX
  8
ゴム等
 10
-145.0
 20
96.1
 70
     8
  0
VERTEX
  8
ゴム等
 10
-144.975
 20
96.125
 70
     8
  0
VERTEX
  8
ゴム等
 10
-144.975
 20
96.15
 70
     8
  0
VERTEX
  8
ゴム等
 10
-144.95
 20
96.15
 70
     8
  0
VERTEX
  8
ゴム等
 10
-144.925
 20
96.175
 70
     8
  0
VERTEX
  8
ゴム等
 10
-144.9
 20
96.2
 70
     8
  0
VERTEX
  8
ゴム等
 10
-144.875
 20
96.225
 70
     8
  0
VERTEX
  8
ゴム等
 10
-144.85
 20
96.225
 70
     8
  0
VERTEX
  8
ゴム等
 10
-144.825
 20
96.25
 70
     8
  0
VERTEX
  8
ゴム等
 10
-144.8
 20
96.275
 70
     8
  0
VERTEX
  8
ゴム等
 10
-144.775
 20
96.3
 70
     8
  0
VERTEX
  8
ゴム等
 10
-144.75
 20
96.3
 70
     8
  0
VERTEX
  8
ゴム等
 10
-144.725
 20
96.325
 70
     8
  0
VERTEX
  8
ゴム等
 10
-144.7
 20
96.35
 70
     8
  0
VERTEX
  8
ゴム等
 10
-144.7
 20
96.375
 70
     8
  0
VERTEX
  8
ゴム等
 10
-144.675
 20
96.375
 70
     8
  0
VERTEX
  8
ゴム等
 10
-144.65
 20
96.4
 70
     8
  0
VERTEX
  8
ゴム等
 10
-144.625
 20
96.425
 70
     8
  0
VERTEX
  8
ゴム等
 10
-144.6
 20
96.45
 70
     8
  0
VERTEX
  8
ゴム等
 10
-144.575
 20
96.45
 70
     8
  0
VERTEX
  8
ゴム等
 10
-144.55
 20
96.475
 70
     8
  0
VERTEX
  8
ゴム等
 10
-144.525
 20
96.5
 70
     8
  0
VERTEX
  8
ゴム等
 10
-144.5
 20
96.525
 70
     8
  0
VERTEX
  8
ゴム等
 10
-144.475
 20
96.525
 70
     8
  0
VERTEX
  8
ゴム等
 10
-144.45
 20
96.55
 70
     8
  0
VERTEX
  8
ゴム等
 10
-144.425
 20
96.575
 70
     8
  0
VERTEX
  8
ゴム等
 10
-144.4
 20
96.575
 70
     8
  0
VERTEX
  8
ゴム等
 10
-144.4
 20
96.6
 70
     8
  0
VERTEX
  8
ゴム等
 10
-144.375
 20
96.625
 70
     8
  0
VERTEX
  8
ゴム等
 10
-144.35
 20
96.65
 70
     8
  0
VERTEX
  8
ゴム等
 10
-144.325
 20
96.65
 70
     8
  0
VERTEX
  8
ゴム等
 10
-144.3
 20
96.675
 70
     8
  0
VERTEX
  8
ゴム等
 10
-144.275
 20
96.7
 70
     8
  0
VERTEX
  8
ゴム等
 10
-144.25
 20
96.725
 70
     8
  0
VERTEX
  8
ゴム等
 10
-144.225
 20
96.725
 70
     8
  0
VERTEX
  8
ゴム等
 10
-144.2
 20
96.75
 70
     8
  0
VERTEX
  8
ゴム等
 10
-144.175
 20
96.775
 70
     8
  0
VERTEX
  8
ゴム等
 10
-144.15
 20
96.775
 70
     8
  0
VERTEX
  8
ゴム等
 10
-144.125
 20
96.8
 70
     8
  0
VERTEX
  8
ゴム等
 10
-144.1
 20
96.825
 70
     8
  0
VERTEX
  8
ゴム等
 10
-144.075
 20
96.85
 70
     8
  0
VERTEX
  8
ゴム等
 10
-144.05
 20
96.85
 70
     8
  0
VERTEX
  8
ゴム等
 10
-144.025
 20
96.875
 70
     8
  0
VERTEX
  8
ゴム等
 10
-144.025
 20
96.9
 70
     8
  0
VERTEX
  8
ゴム等
 10
-144.0
 20
96.9
 70
     8
  0
VERTEX
  8
ゴム等
 10
-143.975
 20
96.925
 70
     8
  0
VERTEX
  8
ゴム等
 10
-143.95
 20
96.95
 70
     8
  0
VERTEX
  8
ゴム等
 10
-143.925
 20
96.975
 70
     8
  0
VERTEX
  8
ゴム等
 10
-143.9
 20
96.975
 70
     8
  0
VERTEX
  8
ゴム等
 10
-143.875
 20
97.0
 70
     8
  0
VERTEX
  8
ゴム等
 10
-143.85
 20
97.025
 70
     8
  0
VERTEX
  8
ゴム等
 10
-143.825
 20
97.025
 70
     8
  0
VERTEX
  8
ゴム等
 10
-143.8
 20
97.05
 70
     8
  0
VERTEX
  8
ゴム等
 10
-143.775
 20
97.075
 70
     8
  0
VERTEX
  8
ゴム等
 10
-143.75
 20
97.1
 70
     8
  0
VERTEX
  8
ゴム等
 10
-143.725
 20
97.1
 70
     8
  0
VERTEX
  8
ゴム等
 10
-143.7
 20
97.125
 70
     8
  0
VERTEX
  8
ゴム等
 10
-143.675
 20
97.15
 70
     8
  0
VERTEX
  8
ゴム等
 10
-143.65
 20
97.15
 70
     8
  0
VERTEX
  8
ゴム等
 10
-143.625
 20
97.175
 70
     8
  0
VERTEX
  8
ゴム等
 10
-143.6
 20
97.2
 70
     8
  0
VERTEX
  8
ゴム等
 10
-143.575
 20
97.2
 70
     8
  0
VERTEX
  8
ゴム等
 10
-143.575
 20
97.225
 70
     8
  0
VERTEX
  8
ゴム等
 10
-143.55
 20
97.25
 70
     8
  0
VERTEX
  8
ゴム等
 10
-143.525
 20
97.275
 70
     8
  0
VERTEX
  8
ゴム等
 10
-143.5
 20
97.275
 70
     8
  0
VERTEX
  8
ゴム等
 10
-143.475
 20
97.3
 70
     8
  0
VERTEX
  8
ゴム等
 10
-143.45
 20
97.325
 70
     8
  0
VERTEX
  8
ゴム等
 10
-143.425
 20
97.325
 70
     8
  0
VERTEX
  8
ゴム等
 10
-143.4
 20
97.35
 70
     8
  0
VERTEX
  8
ゴム等
 10
-143.375
 20
97.375
 70
     8
  0
VERTEX
  8
ゴム等
 10
-143.35
 20
97.375
 70
     8
  0
SEQEND
  0
POLYLINE
  8
ゴム等
  6
CONTINUOUS
 66
     1
 70
     4
  0
VERTEX
  8
ゴム等
 10
-150.125
 20
97.825
 70
     8
  0
VERTEX
  8
ゴム等
 10
-150.1
 20
97.825
 70
     8
  0
VERTEX
  8
ゴム等
 10
-150.075
 20
97.825
 70
     8
  0
VERTEX
  8
ゴム等
 10
-150.025
 20
97.825
 70
     8
  0
VERTEX
  8
ゴム等
 10
-150.0
 20
97.825
 70
     8
  0
VERTEX
  8
ゴム等
 10
-149.975
 20
97.825
 70
     8
  0
VERTEX
  8
ゴム等
 10
-149.925
 20
97.8
 70
     8
  0
VERTEX
  8
ゴム等
 10
-149.9
 20
97.8
 70
     8
  0
VERTEX
  8
ゴム等
 10
-149.875
 20
97.8
 70
     8
  0
VERTEX
  8
ゴム等
 10
-149.825
 20
97.8
 70
     8
  0
VERTEX
  8
ゴム等
 10
-149.8
 20
97.8
 70
     8
  0
VERTEX
  8
ゴム等
 10
-149.775
 20
97.8
 70
     8
  0
VERTEX
  8
ゴム等
 10
-149.75
 20
97.775
 70
     8
  0
VERTEX
  8
ゴム等
 10
-149.7
 20
97.775
 70
     8
  0
VERTEX
  8
ゴム等
 10
-149.675
 20
97.775
 70
     8
  0
VERTEX
  8
ゴム等
 10
-149.65
 20
97.775
 70
     8
  0
VERTEX
  8
ゴム等
 10
-149.6
 20
97.775
 70
     8
  0
VERTEX
  8
ゴム等
 10
-149.575
 20
97.775
 70
     8
  0
VERTEX
  8
ゴム等
 10
-149.55
 20
97.775
 70
     8
  0
VERTEX
  8
ゴム等
 10
-149.5
 20
97.75
 70
     8
  0
VERTEX
  8
ゴム等
 10
-149.475
 20
97.75
 70
     8
  0
VERTEX
  8
ゴム等
 10
-149.45
 20
97.75
 70
     8
  0
VERTEX
  8
ゴム等
 10
-149.4
 20
97.75
 70
     8
  0
VERTEX
  8
ゴム等
 10
-149.375
 20
97.75
 70
     8
  0
VERTEX
  8
ゴム等
 10
-149.35
 20
97.75
 70
     8
  0
VERTEX
  8
ゴム等
 10
-149.325
 20
97.75
 70
     8
  0
VERTEX
  8
ゴム等
 10
-149.275
 20
97.725
 70
     8
  0
VERTEX
  8
ゴム等
 10
-149.25
 20
97.725
 70
     8
  0
VERTEX
  8
ゴム等
 10
-149.225
 20
97.725
 70
     8
  0
VERTEX
  8
ゴム等
 10
-149.175
 20
97.725
 70
     8
  0
VERTEX
  8
ゴム等
 10
-149.15
 20
97.725
 70
     8
  0
VERTEX
  8
ゴム等
 10
-149.125
 20
97.725
 70
     8
  0
VERTEX
  8
ゴム等
 10
-149.075
 20
97.725
 70
     8
  0
VERTEX
  8
ゴム等
 10
-149.05
 20
97.725
 70
     8
  0
VERTEX
  8
ゴム等
 10
-149.025
 20
97.7
 70
     8
  0
VERTEX
  8
ゴム等
 10
-148.975
 20
97.7
 70
     8
  0
VERTEX
  8
ゴム等
 10
-148.95
 20
97.7
 70
     8
  0
VERTEX
  8
ゴム等
 10
-148.925
 20
97.7
 70
     8
  0
VERTEX
  8
ゴム等
 10
-148.875
 20
97.7
 70
     8
  0
VERTEX
  8
ゴム等
 10
-148.85
 20
97.7
 70
     8
  0
VERTEX
  8
ゴム等
 10
-148.825
 20
97.7
 70
     8
  0
VERTEX
  8
ゴム等
 10
-148.8
 20
97.675
 70
     8
  0
VERTEX
  8
ゴム等
 10
-148.75
 20
97.675
 70
     8
  0
VERTEX
  8
ゴム等
 10
-148.725
 20
97.675
 70
     8
  0
VERTEX
  8
ゴム等
 10
-148.7
 20
97.675
 70
     8
  0
VERTEX
  8
ゴム等
 10
-148.65
 20
97.675
 70
     8
  0
VERTEX
  8
ゴム等
 10
-148.625
 20
97.675
 70
     8
  0
VERTEX
  8
ゴム等
 10
-148.6
 20
97.675
 70
     8
  0
VERTEX
  8
ゴム等
 10
-148.55
 20
97.675
 70
     8
  0
VERTEX
  8
ゴム等
 10
-148.525
 20
97.675
 70
     8
  0
VERTEX
  8
ゴム等
 10
-148.5
 20
97.65
 70
     8
  0
VERTEX
  8
ゴム等
 10
-148.45
 20
97.65
 70
     8
  0
VERTEX
  8
ゴム等
 10
-148.425
 20
97.65
 70
     8
  0
VERTEX
  8
ゴム等
 10
-148.4
 20
97.65
 70
     8
  0
VERTEX
  8
ゴム等
 10
-148.375
 20
97.65
 70
     8
  0
VERTEX
  8
ゴム等
 10
-148.325
 20
97.65
 70
     8
  0
VERTEX
  8
ゴム等
 10
-148.3
 20
97.65
 70
     8
  0
VERTEX
  8
ゴム等
 10
-148.275
 20
97.65
 70
     8
  0
VERTEX
  8
ゴム等
 10
-148.225
 20
97.65
 70
     8
  0
VERTEX
  8
ゴム等
 10
-148.2
 20
97.65
 70
     8
  0
VERTEX
  8
ゴム等
 10
-148.175
 20
97.625
 70
     8
  0
VERTEX
  8
ゴム等
 10
-148.125
 20
97.625
 70
     8
  0
VERTEX
  8
ゴム等
 10
-148.1
 20
97.625
 70
     8
  0
VERTEX
  8
ゴム等
 10
-148.075
 20
97.625
 70
     8
  0
VERTEX
  8
ゴム等
 10
-148.025
 20
97.625
 70
     8
  0
VERTEX
  8
ゴム等
 10
-148.0
 20
97.625
 70
     8
  0
VERTEX
  8
ゴム等
 10
-147.975
 20
97.625
 70
     8
  0
VERTEX
  8
ゴム等
 10
-147.95
 20
97.625
 70
     8
  0
VERTEX
  8
ゴム等
 10
-147.9
 20
97.625
 70
     8
  0
VERTEX
  8
ゴム等
 10
-147.875
 20
97.625
 70
     8
  0
VERTEX
  8
ゴム等
 10
-147.85
 20
97.625
 70
     8
  0
VERTEX
  8
ゴム等
 10
-147.8
 20
97.625
 70
     8
  0
VERTEX
  8
ゴム等
 10
-147.775
 20
97.625
 70
     8
  0
VERTEX
  8
ゴム等
 10
-147.75
 20
97.6
 70
     8
  0
VERTEX
  8
ゴム等
 10
-147.7
 20
97.6
 70
     8
  0
VERTEX
  8
ゴム等
 10
-147.675
 20
97.6
 70
     8
  0
VERTEX
  8
ゴム等
 10
-147.65
 20
97.6
 70
     8
  0
VERTEX
  8
ゴム等
 10
-147.625
 20
97.6
 70
     8
  0
VERTEX
  8
ゴム等
 10
-147.575
 20
97.6
 70
     8
  0
VERTEX
  8
ゴム等
 10
-147.55
 20
97.6
 70
     8
  0
VERTEX
  8
ゴム等
 10
-147.525
 20
97.6
 70
     8
  0
VERTEX
  8
ゴム等
 10
-147.475
 20
97.6
 70
     8
  0
VERTEX
  8
ゴム等
 10
-147.45
 20
97.6
 70
     8
  0
VERTEX
  8
ゴム等
 10
-147.425
 20
97.6
 70
     8
  0
VERTEX
  8
ゴム等
 10
-147.375
 20
97.6
 70
     8
  0
VERTEX
  8
ゴム等
 10
-147.35
 20
97.6
 70
     8
  0
VERTEX
  8
ゴム等
 10
-147.325
 20
97.6
 70
     8
  0
VERTEX
  8
ゴム等
 10
-147.275
 20
97.6
 70
     8
  0
VERTEX
  8
ゴム等
 10
-147.25
 20
97.6
 70
     8
  0
VERTEX
  8
ゴム等
 10
-147.225
 20
97.6
 70
     8
  0
VERTEX
  8
ゴム等
 10
-147.2
 20
97.6
 70
     8
  0
VERTEX
  8
ゴム等
 10
-147.15
 20
97.6
 70
     8
  0
VERTEX
  8
ゴム等
 10
-147.125
 20
97.6
 70
     8
  0
VERTEX
  8
ゴム等
 10
-147.1
 20
97.6
 70
     8
  0
VERTEX
  8
ゴム等
 10
-147.05
 20
97.6
 70
     8
  0
VERTEX
  8
ゴム等
 10
-147.025
 20
97.6
 70
     8
  0
VERTEX
  8
ゴム等
 10
-147.0
 20
97.6
 70
     8
  0
VERTEX
  8
ゴム等
 10
-146.95
 20
97.6
 70
     8
  0
VERTEX
  8
ゴム等
 10
-146.925
 20
97.6
 70
     8
  0
VERTEX
  8
ゴム等
 10
-146.9
 20
97.6
 70
     8
  0
VERTEX
  8
ゴム等
 10
-146.875
 20
97.6
 70
     8
  0
VERTEX
  8
ゴム等
 10
-146.825
 20
97.6
 70
     8
  0
VERTEX
  8
ゴム等
 10
-146.8
 20
97.6
 70
     8
  0
VERTEX
  8
ゴム等
 10
-146.775
 20
97.6
 70
     8
  0
VERTEX
  8
ゴム等
 10
-146.725
 20
97.6
 70
     8
  0
VERTEX
  8
ゴム等
 10
-146.7
 20
97.6
 70
     8
  0
VERTEX
  8
ゴム等
 10
-146.675
 20
97.6
 70
     8
  0
VERTEX
  8
ゴム等
 10
-146.625
 20
97.6
 70
     8
  0
VERTEX
  8
ゴム等
 10
-146.6
 20
97.6
 70
     8
  0
VERTEX
  8
ゴム等
 10
-146.575
 20
97.6
 70
     8
  0
VERTEX
  8
ゴム等
 10
-146.55
 20
97.6
 70
     8
  0
VERTEX
  8
ゴム等
 10
-146.5
 20
97.6
 70
     8
  0
VERTEX
  8
ゴム等
 10
-146.475
 20
97.6
 70
     8
  0
VERTEX
  8
ゴム等
 10
-146.45
 20
97.625
 70
     8
  0
VERTEX
  8
ゴム等
 10
-146.4
 20
97.625
 70
     8
  0
VERTEX
  8
ゴム等
 10
-146.375
 20
97.625
 70
     8
  0
VERTEX
  8
ゴム等
 10
-146.35
 20
97.625
 70
     8
  0
VERTEX
  8
ゴム等
 10
-146.325
 20
97.625
 70
     8
  0
VERTEX
  8
ゴム等
 10
-146.275
 20
97.625
 70
     8
  0
VERTEX
  8
ゴム等
 10
-146.25
 20
97.625
 70
     8
  0
VERTEX
  8
ゴム等
 10
-146.225
 20
97.625
 70
     8
  0
VERTEX
  8
ゴム等
 10
-146.175
 20
97.625
 70
     8
  0
VERTEX
  8
ゴム等
 10
-146.15
 20
97.625
 70
     8
  0
VERTEX
  8
ゴム等
 10
-146.125
 20
97.625
 70
     8
  0
VERTEX
  8
ゴム等
 10
-146.075
 20
97.65
 70
     8
  0
VERTEX
  8
ゴム等
 10
-146.05
 20
97.65
 70
     8
  0
VERTEX
  8
ゴム等
 10
-146.025
 20
97.65
 70
     8
  0
VERTEX
  8
ゴム等
 10
-146.0
 20
97.65
 70
     8
  0
VERTEX
  8
ゴム等
 10
-145.95
 20
97.65
 70
     8
  0
VERTEX
  8
ゴム等
 10
-145.925
 20
97.65
 70
     8
  0
VERTEX
  8
ゴム等
 10
-145.9
 20
97.65
 70
     8
  0
VERTEX
  8
ゴム等
 10
-145.85
 20
97.65
 70
     8
  0
VERTEX
  8
ゴム等
 10
-145.825
 20
97.675
 70
     8
  0
VERTEX
  8
ゴム等
 10
-145.8
 20
97.675
 70
     8
  0
VERTEX
  8
ゴム等
 10
-145.775
 20
97.675
 70
     8
  0
VERTEX
  8
ゴム等
 10
-145.725
 20
97.675
 70
     8
  0
VERTEX
  8
ゴム等
 10
-145.7
 20
97.675
 70
     8
  0
VERTEX
  8
ゴム等
 10
-145.675
 20
97.675
 70
     8
  0
VERTEX
  8
ゴム等
 10
-145.625
 20
97.7
 70
     8
  0
VERTEX
  8
ゴム等
 10
-145.6
 20
97.7
 70
     8
  0
VERTEX
  8
ゴム等
 10
-145.575
 20
97.7
 70
     8
  0
VERTEX
  8
ゴム等
 10
-145.525
 20
97.7
 70
     8
  0
VERTEX
  8
ゴム等
 10
-145.5
 20
97.7
 70
     8
  0
VERTEX
  8
ゴム等
 10
-145.475
 20
97.7
 70
     8
  0
VERTEX
  8
ゴム等
 10
-145.45
 20
97.725
 70
     8
  0
VERTEX
  8
ゴム等
 10
-145.4
 20
97.725
 70
     8
  0
VERTEX
  8
ゴム等
 10
-145.375
 20
97.725
 70
     8
  0
VERTEX
  8
ゴム等
 10
-145.35
 20
97.725
 70
     8
  0
VERTEX
  8
ゴム等
 10
-145.3
 20
97.725
 70
     8
  0
VERTEX
  8
ゴム等
 10
-145.275
 20
97.75
 70
     8
  0
VERTEX
  8
ゴム等
 10
-145.25
 20
97.75
 70
     8
  0
VERTEX
  8
ゴム等
 10
-145.225
 20
97.75
 70
     8
  0
VERTEX
  8
ゴム等
 10
-145.175
 20
97.75
 70
     8
  0
VERTEX
  8
ゴム等
 10
-145.15
 20
97.775
 70
     8
  0
VERTEX
  8
ゴム等
 10
-145.125
 20
97.775
 70
     8
  0
VERTEX
  8
ゴム等
 10
-145.075
 20
97.775
 70
     8
  0
VERTEX
  8
ゴム等
 10
-145.05
 20
97.775
 70
     8
  0
VERTEX
  8
ゴム等
 10
-145.025
 20
97.775
 70
     8
  0
VERTEX
  8
ゴム等
 10
-145.0
 20
97.8
 70
     8
  0
VERTEX
  8
ゴム等
 10
-144.95
 20
97.8
 70
     8
  0
VERTEX
  8
ゴム等
 10
-144.925
 20
97.8
 70
     8
  0
VERTEX
  8
ゴム等
 10
-144.9
 20
97.8
 70
     8
  0
VERTEX
  8
ゴム等
 10
-144.85
 20
97.825
 70
     8
  0
VERTEX
  8
ゴム等
 10
-144.825
 20
97.825
 70
     8
  0
VERTEX
  8
ゴム等
 10
-144.8
 20
97.825
 70
     8
  0
VERTEX
  8
ゴム等
 10
-144.775
 20
97.825
 70
     8
  0
VERTEX
  8
ゴム等
 10
-144.725
 20
97.85
 70
     8
  0
VERTEX
  8
ゴム等
 10
-144.7
 20
97.85
 70
     8
  0
VERTEX
  8
ゴム等
 10
-144.675
 20
97.85
 70
     8
  0
VERTEX
  8
ゴム等
 10
-144.625
 20
97.85
 70
     8
  0
VERTEX
  8
ゴム等
 10
-144.6
 20
97.875
 70
     8
  0
VERTEX
  8
ゴム等
 10
-144.575
 20
97.875
 70
     8
  0
VERTEX
  8
ゴム等
 10
-144.55
 20
97.875
 70
     8
  0
VERTEX
  8
ゴム等
 10
-144.5
 20
97.875
 70
     8
  0
VERTEX
  8
ゴム等
 10
-144.475
 20
97.9
 70
     8
  0
VERTEX
  8
ゴム等
 10
-144.45
 20
97.9
 70
     8
  0
VERTEX
  8
ゴム等
 10
-144.4
 20
97.9
 70
     8
  0
VERTEX
  8
ゴム等
 10
-144.375
 20
97.9
 70
     8
  0
VERTEX
  8
ゴム等
 10
-144.35
 20
97.925
 70
     8
  0
VERTEX
  8
ゴム等
 10
-144.325
 20
97.925
 70
     8
  0
VERTEX
  8
ゴム等
 10
-144.275
 20
97.925
 70
     8
  0
VERTEX
  8
ゴム等
 10
-144.25
 20
97.925
 70
     8
  0
VERTEX
  8
ゴム等
 10
-144.225
 20
97.95
 70
     8
  0
VERTEX
  8
ゴム等
 10
-144.175
 20
97.95
 70
     8
  0
VERTEX
  8
ゴム等
 10
-144.15
 20
97.95
 70
     8
  0
VERTEX
  8
ゴム等
 10
-144.125
 20
97.975
 70
     8
  0
VERTEX
  8
ゴム等
 10
-144.1
 20
97.975
 70
     8
  0
VERTEX
  8
ゴム等
 10
-144.05
 20
97.975
 70
     8
  0
VERTEX
  8
ゴム等
 10
-144.025
 20
97.975
 70
     8
  0
VERTEX
  8
ゴム等
 10
-144.0
 20
98.0
 70
     8
  0
VERTEX
  8
ゴム等
 10
-143.95
 20
98.0
 70
     8
  0
VERTEX
  8
ゴム等
 10
-143.925
 20
98.0
 70
     8
  0
VERTEX
  8
ゴム等
 10
-143.9
 20
98.025
 70
     8
  0
VERTEX
  8
ゴム等
 10
-143.875
 20
98.025
 70
     8
  0
VERTEX
  8
ゴム等
 10
-143.825
 20
98.025
 70
     8
  0
VERTEX
  8
ゴム等
 10
-143.8
 20
98.025
 70
     8
  0
VERTEX
  8
ゴム等
 10
-143.775
 20
98.05
 70
     8
  0
VERTEX
  8
ゴム等
 10
-143.75
 20
98.05
 70
     8
  0
VERTEX
  8
ゴム等
 10
-143.7
 20
98.05
 70
     8
  0
VERTEX
  8
ゴム等
 10
-143.675
 20
98.05
 70
     8
  0
VERTEX
  8
ゴム等
 10
-143.65
 20
98.075
 70
     8
  0
SEQEND
  0
ARC
  8
ゴム等
  6
CONTINUOUS
 10
-143.61946
 20
97.681318
 40
0.4
 50
225.0
 51
225.0
  0
ARC
  8
ゴム等
  6
CONTINUOUS
 10
-143.61946
 20
97.681318
 40
0.4
 50
315.0
 51
451.383177
  0
INSERT
  2
*HAT_0013
  8
ゴム等
 10
0.0
 20
0.0
  0
ENDBLK
  0
BLOCK
  2
*GRP_0061
 70
    65
 10
0.0
 20
0.0
  0
ARC
  8
ゴム等
  6
CONTINUOUS
 10
-150.554087
 20
90.892708
 40
0.5
 50
-315.000891
 51
-225.000887
  0
LINE
  8
ゴム等
  6
CONTINUOUS
 10
-150.200528
 20
91.246255
 11
-150.200528
 21
91.246255
  0
ARC
  8
ゴム等
  6
CONTINUOUS
 10
-150.554088
 20
90.892708
 40
0.5
 50
-45.000887
 51
44.999155
  0
LINE
  8
ゴム等
  6
CONTINUOUS
 10
-150.907633
 20
91.246268
 11
-153.736105
 21
88.417883
  0
ARC
  8
ゴム等
  6
CONTINUOUS
 10
-153.382559
 20
88.064323
 40
0.5
 50
-225.000887
 51
-135.000891
  0
LINE
  8
ゴム等
  6
CONTINUOUS
 10
-153.736118
 20
87.710775
 11
-153.736118
 21
87.710775
  0
LINE
  8
ゴム等
  6
CONTINUOUS
 10
-150.20054
 20
90.539148
 11
-153.02901
 21
87.710765
  0
ARC
  8
ゴム等
  6
CONTINUOUS
 10
-153.38256
 20
88.064323
 40
0.5
 50
224.999155
 51
314.999113
  0
INSERT
  2
*HAT_0014
  8
ゴム等
 10
0.0
 20
0.0
  0
ENDBLK
  0
BLOCK
  2
*GRP_0062
 70
    65
 10
0.0
 20
0.0
  0
POLYLINE
  8
寸法
  6
BYBLOCK
 62
     0
 66
     1
  0
VERTEX
  8
寸法
 10
-20.140165
 20
-68.192642
  0
VERTEX
  8
寸法
 10
-17.54209
 20
-69.692642
  0
VERTEX
  8
寸法
 10
-19.04209
 20
-67.094567
  0
SEQEND
  0
POLYLINE
  8
寸法
  6
BYBLOCK
 62
     0
 66
     1
  0
VERTEX
  8
寸法
 10
-17.54209
 20
-69.692642
  0
VERTEX
  8
寸法
 10
-21.693207
 20
-65.541525
  0
VERTEX
  8
寸法
 10
-27.426638
 20
-65.541525
  0
SEQEND
  0
ENDBLK
  0
BLOCK
  2
*GRP_0063
 70
    65
 10
0.0
 20
0.0
  0
LINE
  8
ボルト／ビス
  6
CONTINUOUS
 10
-70.302163
 20
-37.954013
 11
-74.30216
 21
-37.954013
  0
LINE
  8
ボルト／ビス
  6
CONTINUOUS
 10
-70.302155
 20
-41.95401
 11
-74.30216
 21
-41.95401
  0
LINE
  8
ボルト／ビス
  6
CONTINUOUS
 10
-74.30216
 20
-36.954007
 11
-74.30216
 21
-42.954007
  0
LINE
  8
ボルト／ビス
  6
CONTINUOUS
 10
-69.302157
 20
-36.954007
 11
-69.302157
 21
-42.954007
  0
LINE
  8
ボルト／ビス
  6
CONTINUOUS
 10
-69.302157
 20
-36.954007
 11
-70.302163
 21
-36.954007
  0
LINE
  8
ボルト／ビス
  6
CONTINUOUS
 10
-69.302157
 20
-42.954007
 11
-70.302155
 21
-42.954007
  0
LINE
  8
ボルト／ビス
  6
CONTINUOUS
 10
-70.302163
 20
-36.954007
 11
-70.302155
 21
-42.954007
  0
LINE
  8
ボルト／ビス
  6
CONTINUOUS
 10
-69.302157
 20
-37.954013
 11
-69.302157
 21
-37.954013
  0
ARC
  8
ボルト／ビス
  6
CONTINUOUS
 10
-69.302161
 20
-38.454009
 40
0.5
 50
0.000036
 51
90.0
  0
LINE
  8
ボルト／ビス
  6
CONTINUOUS
 10
-68.802163
 20
-38.454007
 11
-68.802155
 21
-41.454007
  0
LINE
  8
ボルト／ビス
  6
CONTINUOUS
 10
-69.302157
 20
-41.95401
 11
-69.302157
 21
-41.95401
  0
ARC
  8
ボルト／ビス
  6
CONTINUOUS
 10
-69.302159
 20
-41.454009
 40
0.5
 50
-90.0
 51
0.000041
  0
LINE
  8
ボルト／ビス
  6
CONTINUOUS
 10
-74.30216
 20
-36.954007
 11
-74.802163
 21
-37.45401
  0
LINE
  8
ボルト／ビス
  6
CONTINUOUS
 10
-74.30216
 20
-42.954007
 11
-74.802155
 21
-42.454013
  0
LINE
  8
ボルト／ビス
  6
CONTINUOUS
 10
-74.802163
 20
-37.45401
 11
-74.802155
 21
-42.454013
  0
ENDBLK
  0
BLOCK
  2
*GRP_0064
 70
    65
 10
0.0
 20
0.0
  0
LINE
  8
ボルト／ビス
  6
CONTINUOUS
 10
-70.302163
 20
-67.954013
 11
-74.30216
 21
-67.954013
  0
LINE
  8
ボルト／ビス
  6
CONTINUOUS
 10
-70.302155
 20
-71.95401
 11
-74.30216
 21
-71.95401
  0
LINE
  8
ボルト／ビス
  6
CONTINUOUS
 10
-74.30216
 20
-66.954007
 11
-74.30216
 21
-72.954007
  0
LINE
  8
ボルト／ビス
  6
CONTINUOUS
 10
-69.302157
 20
-66.954007
 11
-69.302157
 21
-72.954007
  0
LINE
  8
ボルト／ビス
  6
CONTINUOUS
 10
-69.302157
 20
-66.954007
 11
-70.302163
 21
-66.954007
  0
LINE
  8
ボルト／ビス
  6
CONTINUOUS
 10
-69.302157
 20
-72.954007
 11
-70.302155
 21
-72.954007
  0
LINE
  8
ボルト／ビス
  6
CONTINUOUS
 10
-70.302163
 20
-66.954007
 11
-70.302155
 21
-72.954007
  0
LINE
  8
ボルト／ビス
  6
CONTINUOUS
 10
-69.302157
 20
-67.954013
 11
-69.302157
 21
-67.954013
  0
ARC
  8
ボルト／ビス
  6
CONTINUOUS
 10
-69.302161
 20
-68.454009
 40
0.5
 50
0.000036
 51
90.0
  0
LINE
  8
ボルト／ビス
  6
CONTINUOUS
 10
-68.802163
 20
-68.454007
 11
-68.802155
 21
-71.454007
  0
LINE
  8
ボルト／ビス
  6
CONTINUOUS
 10
-69.302157
 20
-71.95401
 11
-69.302157
 21
-71.95401
  0
ARC
  8
ボルト／ビス
  6
CONTINUOUS
 10
-69.302159
 20
-71.454009
 40
0.5
 50
-90.0
 51
0.000041
  0
LINE
  8
ボルト／ビス
  6
CONTINUOUS
 10
-74.30216
 20
-66.954007
 11
-74.802163
 21
-67.45401
  0
LINE
  8
ボルト／ビス
  6
CONTINUOUS
 10
-74.30216
 20
-72.954007
 11
-74.802155
 21
-72.454013
  0
LINE
  8
ボルト／ビス
  6
CONTINUOUS
 10
-74.802163
 20
-67.45401
 11
-74.802155
 21
-72.454013
  0
ENDBLK
  0
BLOCK
  2
*GRP_0065
 70
    65
 10
0.0
 20
0.0
  0
LINE
  8
ボルト／ビス
  6
CONTINUOUS
 10
-39.802153
 20
-82.954005
 11
-39.802153
 21
-86.954003
  0
LINE
  8
ボルト／ビス
  6
CONTINUOUS
 10
-35.802155
 20
-82.953997
 11
-35.802155
 21
-86.954003
  0
LINE
  8
ボルト／ビス
  6
CONTINUOUS
 10
-40.802157
 20
-86.954003
 11
-34.802157
 21
-86.954003
  0
LINE
  8
ボルト／ビス
  6
CONTINUOUS
 10
-40.802157
 20
-81.954
 11
-34.802157
 21
-81.954
  0
LINE
  8
ボルト／ビス
  6
CONTINUOUS
 10
-40.802157
 20
-81.954
 11
-40.802157
 21
-82.954005
  0
LINE
  8
ボルト／ビス
  6
CONTINUOUS
 10
-34.802157
 20
-81.954
 11
-34.802157
 21
-82.953997
  0
LINE
  8
ボルト／ビス
  6
CONTINUOUS
 10
-40.802157
 20
-82.954005
 11
-34.802157
 21
-82.953997
  0
LINE
  8
ボルト／ビス
  6
CONTINUOUS
 10
-39.802153
 20
-81.954
 11
-39.802153
 21
-81.954
  0
ARC
  8
ボルト／ビス
  6
CONTINUOUS
 10
-39.302156
 20
-81.954004
 40
0.5
 50
90.000036
 51
180.0
  0
LINE
  8
ボルト／ビス
  6
CONTINUOUS
 10
-39.302157
 20
-81.454005
 11
-36.302157
 21
-81.453997
  0
LINE
  8
ボルト／ビス
  6
CONTINUOUS
 10
-35.802155
 20
-81.954
 11
-35.802155
 21
-81.954
  0
ARC
  8
ボルト／ビス
  6
CONTINUOUS
 10
-36.302156
 20
-81.954002
 40
0.5
 50
0.0
 51
90.000041
  0
LINE
  8
ボルト／ビス
  6
CONTINUOUS
 10
-40.802157
 20
-86.954003
 11
-40.302155
 21
-87.454005
  0
LINE
  8
ボルト／ビス
  6
CONTINUOUS
 10
-34.802157
 20
-86.954003
 11
-35.302153
 21
-87.453997
  0
LINE
  8
ボルト／ビス
  6
CONTINUOUS
 10
-40.302155
 20
-87.454005
 11
-35.302153
 21
-87.453997
  0
ENDBLK
  0
BLOCK
  2
*GRP_0066
 70
    65
 10
0.0
 20
0.0
  0
LINE
  8
通り芯
  6
CONTINUOUS
 10
-70.302163
 20
-82.954005
 11
-22.802157
 21
-82.954005
  0
ARC
  8
通り芯
  6
CONTINUOUS
 10
-70.302161
 20
-82.954007
 40
2.0
 50
180.0
 51
270.0
  0
ARC
  8
通り芯
  6
CONTINUOUS
 10
-22.802159
 20
-82.954007
 40
2.0
 50
270.0
 51
360.0
  0
LINE
  8
通り芯
  6
CONTINUOUS
 10
-20.802163
 20
-76.954005
 11
-22.802157
 21
-76.954005
  0
LINE
  8
通り芯
  6
CONTINUOUS
 10
-22.802157
 20
-82.954005
 11
-22.802157
 21
-76.954005
  0
LINE
  8
通り芯
  6
CONTINUOUS
 10
-20.802163
 20
-76.954005
 11
-20.802163
 21
-84.954007
  0
LINE
  8
通り芯
  6
CONTINUOUS
 10
-72.302165
 20
-68.304007
 11
-70.302163
 21
-68.304007
  0
LINE
  8
通り芯
  6
CONTINUOUS
 10
-72.302165
 20
-71.604007
 11
-70.302163
 21
-71.604007
  0
LINE
  8
通り芯
  6
CONTINUOUS
 10
-70.802165
 20
-68.304007
 11
-70.802165
 21
-71.604007
  0
LINE
  8
通り芯
  6
CONTINUOUS
 10
-71.302167
 20
-68.304007
 11
-71.302167
 21
-71.604007
  0
LINE
  8
通り芯
  6
CONTINUOUS
 10
-71.802163
 20
-68.304007
 11
-71.802163
 21
-71.604007
  0
LINE
  8
通り芯
  6
CONTINUOUS
 10
-68.985793
 20
-69.954007
 11
-73.61066
 21
-69.954007
  0
LINE
  8
通り芯
  6
CONTINUOUS
 10
-72.302165
 20
-38.304007
 11
-70.302163
 21
-38.304007
  0
LINE
  8
通り芯
  6
CONTINUOUS
 10
-72.302165
 20
-41.604007
 11
-70.302163
 21
-41.604007
  0
LINE
  8
通り芯
  6
CONTINUOUS
 10
-70.802165
 20
-38.304007
 11
-70.802165
 21
-41.604007
  0
LINE
  8
通り芯
  6
CONTINUOUS
 10
-71.302167
 20
-38.304007
 11
-71.302167
 21
-41.604007
  0
LINE
  8
通り芯
  6
CONTINUOUS
 10
-71.802163
 20
-38.304007
 11
-71.802163
 21
-41.604007
  0
LINE
  8
通り芯
  6
CONTINUOUS
 10
-68.985793
 20
-39.954007
 11
-73.61066
 21
-39.954007
  0
LINE
  8
通り芯
  6
CONTINUOUS
 10
-36.152157
 20
-82.954005
 11
-36.152157
 21
-84.954007
  0
LINE
  8
通り芯
  6
CONTINUOUS
 10
-39.452157
 20
-82.954005
 11
-39.452157
 21
-84.954007
  0
LINE
  8
通り芯
  6
CONTINUOUS
 10
-36.152157
 20
-84.454005
 11
-39.452157
 21
-84.454005
  0
LINE
  8
通り芯
  6
CONTINUOUS
 10
-36.152157
 20
-83.954003
 11
-39.452157
 21
-83.954003
  0
LINE
  8
通り芯
  6
CONTINUOUS
 10
-36.152157
 20
-83.454007
 11
-39.452157
 21
-83.454007
  0
LINE
  8
通り芯
  6
CONTINUOUS
 10
-37.802157
 20
-86.270377
 11
-37.802157
 21
-81.64551
  0
LINE
  8
通り芯
  6
CONTINUOUS
 10
-72.302165
 20
-30.120907
 11
-70.302163
 21
-30.120907
  0
LINE
  8
通り芯
  6
CONTINUOUS
 10
-70.302163
 20
-82.954005
 11
-70.302163
 21
-30.120907
  0
LINE
  8
型材断面
  6
CONTINUOUS
 10
-71.302167
 20
-39.954007
 11
-76.17848
 21
-39.954007
  0
LINE
  8
型材断面
  6
CONTINUOUS
 10
-74.30216
 20
-41.604007
 11
-72.302165
 21
-41.604007
  0
LINE
  8
型材断面
  6
CONTINUOUS
 10
-74.30216
 20
-38.304007
 11
-72.302165
 21
-38.304007
  0
LINE
  8
型材断面
  6
CONTINUOUS
 10
-73.802157
 20
-38.304007
 11
-73.802157
 21
-41.604007
  0
LINE
  8
型材断面
  6
CONTINUOUS
 10
-73.302163
 20
-38.304007
 11
-73.302163
 21
-41.604007
  0
LINE
  8
型材断面
  6
CONTINUOUS
 10
-72.80216
 20
-38.304007
 11
-72.80216
 21
-41.604007
  0
LINE
  8
型材断面
  6
CONTINUOUS
 10
-71.302167
 20
-69.954007
 11
-76.17848
 21
-69.954007
  0
LINE
  8
型材断面
  6
CONTINUOUS
 10
-74.30216
 20
-71.604007
 11
-72.302165
 21
-71.604007
  0
LINE
  8
型材断面
  6
CONTINUOUS
 10
-74.30216
 20
-68.304007
 11
-72.302165
 21
-68.304007
  0
LINE
  8
型材断面
  6
CONTINUOUS
 10
-73.802157
 20
-68.304007
 11
-73.802157
 21
-71.604007
  0
LINE
  8
型材断面
  6
CONTINUOUS
 10
-73.302163
 20
-68.304007
 11
-73.302163
 21
-71.604007
  0
LINE
  8
型材断面
  6
CONTINUOUS
 10
-72.80216
 20
-68.304007
 11
-72.80216
 21
-71.604007
  0
LINE
  8
型材断面
  6
CONTINUOUS
 10
-37.802157
 20
-83.95401
 11
-37.802157
 21
-88.830322
  0
LINE
  8
型材断面
  6
CONTINUOUS
 10
-36.152157
 20
-86.954003
 11
-36.152157
 21
-84.954007
  0
LINE
  8
型材断面
  6
CONTINUOUS
 10
-39.452157
 20
-86.954003
 11
-39.452157
 21
-84.954007
  0
LINE
  8
型材断面
  6
CONTINUOUS
 10
-39.452157
 20
-86.454
 11
-36.152157
 21
-86.454
  0
LINE
  8
型材断面
  6
CONTINUOUS
 10
-39.452157
 20
-85.954005
 11
-36.152157
 21
-85.954005
  0
LINE
  8
型材断面
  6
CONTINUOUS
 10
-39.452157
 20
-85.454003
 11
-36.152157
 21
-85.454003
  0
INSERT
  2
*GRP_0063
  8
ボルト／ビス
  6
CONTINUOUS
 10
0.0
 20
0.0
  0
INSERT
  2
*GRP_0064
  8
ボルト／ビス
  6
CONTINUOUS
 10
0.0
 20
0.0
  0
INSERT
  2
*GRP_0065
  8
ボルト／ビス
  6
CONTINUOUS
 10
0.0
 20
0.0
  0
ENDBLK
  0
BLOCK
  2
*GRP_0067
 70
    65
 10
0.0
 20
0.0
  0
INSERT
  2
*HAT_0015
  8
ゴム等
 10
0.0
 20
0.0
  0
LINE
  8
ゴム等
  6
CONTINUOUS
 10
-10.88395
 20
-70.663238
 11
-9.845875
 21
-70.66324
  0
LINE
  8
ゴム等
  6
CONTINUOUS
 10
-15.80772
 20
-70.663263
 11
-16.845788
 21
-70.663263
  0
LINE
  8
ゴム等
  6
CONTINUOUS
 10
-15.807697
 20
-75.663227
 11
-18.346135
 21
-75.61893
  0
POLYLINE
  8
ゴム等
  6
CONTINUOUS
 66
     1
  0
VERTEX
  8
ゴム等
 10
-15.807697
 20
-75.663227
  0
VERTEX
  8
ゴム等
 10
-15.519048
 20
-75.163267
  0
VERTEX
  8
ゴム等
 10
-11.172588
 20
-75.163252
  0
VERTEX
  8
ゴム等
 10
-10.883932
 20
-75.66321
  0
VERTEX
  8
ゴム等
 10
-9.84587
 20
-75.663215
  0
VERTEX
  8
ゴム等
 10
-9.845885
 20
-70.663232
  0
SEQEND
  0
LINE
  8
ゴム等
  6
CONTINUOUS
 10
-16.845807
 20
-64.763298
 11
-18.34617
 21
-64.763303
  0
LINE
  8
ゴム等
  6
CONTINUOUS
 10
-18.346135
 20
-75.61893
 11
-18.34617
 21
-64.763303
  0
LINE
  8
ゴム等
  6
CONTINUOUS
 10
-16.845792
 20
-70.663257
 11
-16.845807
 21
-64.763298
  0
LINE
  8
ゴム等
  6
CONTINUOUS
 10
-14.845845
 20
-69.257042
 11
-14.84586
 21
-64.76329
  0
LINE
  8
ゴム等
  6
CONTINUOUS
 10
-11.84584
 20
-69.25701
 11
-11.845855
 21
-64.763275
  0
LINE
  8
ゴム等
  6
CONTINUOUS
 10
-14.84586
 20
-64.76329
 11
-11.845855
 21
-64.763275
  0
LINE
  8
ゴム等
  6
CONTINUOUS
 10
-10.88395
 20
-70.663238
 11
-11.84584
 21
-69.25701
  0
LINE
  8
ゴム等
  6
CONTINUOUS
 10
-15.80772
 20
-70.663263
 11
-14.845845
 21
-69.257042
  0
ENDBLK
  0
BLOCK
  2
*GRP_0068
 70
    65
 10
0.0
 20
0.0
  0
LINE
  8
型材断面
  6
CONTINUOUS
 10
-8.73768
 20
-78.115985
 11
-8.737677
 21
-77.252283
  0
LINE
  8
型材断面
  6
CONTINUOUS
 10
-18.053637
 20
-78.115982
 11
-18.053635
 21
-77.252272
  0
LINE
  8
型材断面
  6
CONTINUOUS
 10
-8.737677
 20
-77.252283
 11
-18.053635
 21
-77.252272
  0
LINE
  8
ボルト／ビス
  6
CONTINUOUS
 10
-18.395658
 20
-79.055678
 11
-15.475552
 21
-80.11851
  0
LINE
  8
ボルト／ビス
  6
CONTINUOUS
 10
-15.475552
 20
-80.11851
 11
-13.39566
 21
-80.11851
  0
LINE
  8
ボルト／ビス
  6
CONTINUOUS
 10
-18.395658
 20
-79.055678
 11
-13.395662
 21
-79.05568
  0
LINE
  8
ボルト／ビス
  6
CONTINUOUS
 10
-18.053637
 20
-78.115982
 11
-13.39566
 21
-78.115982
  0
LINE
  8
ボルト／ビス
  6
CONTINUOUS
 10
-8.39566
 20
-79.055682
 11
-11.315758
 21
-80.11851
  0
LINE
  8
ボルト／ビス
  6
CONTINUOUS
 10
-11.315758
 20
-80.11851
 11
-13.39566
 21
-80.11851
  0
LINE
  8
ボルト／ビス
  6
CONTINUOUS
 10
-8.39566
 20
-79.055682
 11
-13.395662
 21
-79.05568
  0
LINE
  8
ボルト／ビス
  6
CONTINUOUS
 10
-8.73768
 20
-78.115985
 11
-13.39566
 21
-78.115982
  0
LINE
  8
ボルト／ビス
  6
CONTINUOUS
 10
-8.39566
 20
-79.055682
 11
-8.73768
 21
-78.115985
  0
LINE
  8
ボルト／ビス
  6
CONTINUOUS
 10
-18.395658
 20
-79.055678
 11
-18.053637
 21
-78.115978
  0
ENDBLK
  0
BLOCK
  2
*GRP_0069
 70
    65
 10
0.0
 20
0.0
  0
LINE
  8
ボルト／ビス
  6
CONTINUOUS
 10
-9.89566
 20
-80.11851
 11
-9.987363
 21
-81.166675
  0
ARC
  8
ボルト／ビス
  6
CONTINUOUS
 10
-11.680895
 20
-81.018511
 40
1.7
 50
270.0
 51
355.000011
  0
LINE
  8
ボルト／ビス
  6
CONTINUOUS
 10
-11.680893
 20
-82.71851
 11
-13.39566
 21
-82.71851
  0
LINE
  8
ボルト／ビス
  6
CONTINUOUS
 10
-16.89566
 20
-80.11851
 11
-16.803957
 21
-81.166675
  0
ARC
  8
ボルト／ビス
  6
CONTINUOUS
 10
-15.110428
 20
-81.018511
 40
1.7
 50
184.999989
 51
270.0
  0
LINE
  8
ボルト／ビス
  6
CONTINUOUS
 10
-15.110427
 20
-82.71851
 11
-13.39566
 21
-82.71851
  0
LINE
  8
ボルト／ビス
  6
CONTINUOUS
 10
-10.99902
 20
-82.333605
 11
-10.99902
 21
-82.575767
  0
LINE
  8
ボルト／ビス
  6
CONTINUOUS
 10
-12.69566
 20
-81.683522
 11
-13.39566
 21
-81.683522
  0
LINE
  8
ボルト／ビス
  6
CONTINUOUS
 10
-12.29566
 20
-82.333605
 11
-10.99902
 21
-82.333605
  0
LINE
  8
ボルト／ビス
  6
CONTINUOUS
 10
-12.69566
 20
-81.683522
 11
-12.69566
 21
-81.933605
  0
ARC
  8
ボルト／ビス
  6
CONTINUOUS
 10
-12.295662
 20
-81.933606
 40
0.4
 50
180.0
 51
270.0
  0
LINE
  8
ボルト／ビス
  6
CONTINUOUS
 10
-15.7923
 20
-82.333605
 11
-15.7923
 21
-82.575767
  0
LINE
  8
ボルト／ビス
  6
CONTINUOUS
 10
-14.09566
 20
-81.683522
 11
-13.39566
 21
-81.683522
  0
LINE
  8
ボルト／ビス
  6
CONTINUOUS
 10
-14.49566
 20
-82.333605
 11
-15.7923
 21
-82.333605
  0
LINE
  8
ボルト／ビス
  6
CONTINUOUS
 10
-14.09566
 20
-81.683522
 11
-14.09566
 21
-81.933605
  0
ARC
  8
ボルト／ビス
  6
CONTINUOUS
 10
-14.495662
 20
-81.933606
 40
0.4
 50
270.0
 51
360.0
  0
LINE
  8
ボルト／ビス
  6
CONTINUOUS
 10
-9.89566
 20
-80.11851
 11
-16.89566
 21
-80.11851
  0
LINE
  8
ボルト／ビス
  6
CONTINUOUS
 10
-13.39566
 20
-84.689898
 11
-13.39566
 21
-64.475238
  0
LINE
  8
ボルト／ビス
  6
CONTINUOUS
 10
-11.39566
 20
-66.61851
 11
-11.89566
 21
-66.11851
  0
LINE
  8
ボルト／ビス
  6
CONTINUOUS
 10
-15.39566
 20
-66.61851
 11
-14.89566
 21
-66.11851
  0
LINE
  8
ボルト／ビス
  6
CONTINUOUS
 10
-11.39566
 20
-66.61851
 11
-15.39566
 21
-66.61851
  0
LINE
  8
ボルト／ビス
  6
CONTINUOUS
 10
-11.89566
 20
-66.11851
 11
-14.89566
 21
-66.11851
  0
LINE
  8
ボルト／ビス
  6
CONTINUOUS
 10
-15.39566
 20
-80.11851
 11
-15.39566
 21
-66.61851
  0
LINE
  8
ボルト／ビス
  6
CONTINUOUS
 10
-11.39566
 20
-80.11851
 11
-11.39566
 21
-66.61851
  0
LINE
  8
ボルト／ビス
  6
CONTINUOUS
 10
-11.89566
 20
-80.11851
 11
-11.89566
 21
-66.11851
  0
LINE
  8
ボルト／ビス
  6
CONTINUOUS
 10
-14.89566
 20
-80.11851
 11
-14.89566
 21
-66.11851
  0
ENDBLK
  0
BLOCK
  2
*GRP_0070
 70
    65
 10
0.0
 20
0.0
  0
POLYLINE
  8
寸法
  6
BYBLOCK
 62
     0
 66
     1
  0
VERTEX
  8
寸法
 10
-12.187857
 20
-85.464638
  0
VERTEX
  8
寸法
 10
-13.39566
 20
-82.71851
  0
VERTEX
  8
寸法
 10
-13.722738
 20
-85.700627
  0
SEQEND
  0
POLYLINE
  8
寸法
  6
BYBLOCK
 62
     0
 66
     1
  0
VERTEX
  8
寸法
 10
-13.39566
 20
-82.71851
  0
VERTEX
  8
寸法
 10
-8.185527
 20
-116.605263
  0
VERTEX
  8
寸法
 10
-4.676755
 20
-116.605263
  0
SEQEND
  0
ENDBLK
  0
BLOCK
  2
*GRP_0071
 70
    65
 10
0.0
 20
0.0
  0
POLYLINE
  8
寸法
  6
BYBLOCK
 62
     0
 66
     1
  0
VERTEX
  8
寸法
 10
-2.453237
 20
-71.144855
  0
VERTEX
  8
寸法
 10
-3.953237
 20
-73.742933
  0
VERTEX
  8
寸法
 10
-1.35516
 20
-72.242933
  0
SEQEND
  0
POLYLINE
  8
寸法
  6
BYBLOCK
 62
     0
 66
     1
  0
VERTEX
  8
寸法
 10
-3.953237
 20
-73.742933
  0
VERTEX
  8
寸法
 10
2.560735
 20
-67.228963
  0
VERTEX
  8
寸法
 10
12.3561
 20
-67.228963
  0
SEQEND
  0
ENDBLK
  0
BLOCK
  2
*GRP_0072
 70
    65
 10
0.0
 20
0.0
  0
POLYLINE
  8
寸法
  6
BYBLOCK
 62
     0
 66
     1
  0
VERTEX
  8
寸法
 10
-12.942903
 20
-95.946437
  0
VERTEX
  8
寸法
 10
-14.15
 20
-93.2
  0
VERTEX
  8
寸法
 10
-14.477843
 20
-96.182032
  0
SEQEND
  0
LINE
  8
寸法
  6
BYBLOCK
 62
     0
 10
-14.15
 20
-93.2
 11
-9.753017
 21
-121.846983
  0
ENDBLK
  0
BLOCK
  2
*DIM_0073
 70
    65
 10
0.0
 20
0.0
  0
LINE
  8
寸法
  6
BYBLOCK
 62
     0
 10
60.401147
 20
-91.243657
 11
137.832788
 21
-91.243657
  0
LINE
  8
寸法
  6
BYBLOCK
 62
     0
 10
-54.252165
 20
-106.454003
 11
137.832788
 21
-106.454003
  0
LINE
  8
寸法
  6
BYBLOCK
 62
     0
 10
137.832788
 20
-91.243657
 11
137.832788
 21
-106.454003
  0
POINT
  8
寸法
 62
     0
 10
137.832788
 20
-91.243657
  0
POINT
  8
寸法
 62
     0
 10
137.832788
 20
-106.454003
  0
TEXT
  7
TextStyle03
  8
寸法
  6
CONTINUOUS
 62
     0
 10
137.45
 20
-102.13125
  1
15.2
 40
3.0
 50
90.0
 72
     5
 11
137.45
 21
-95.56875
  0
ENDBLK
  0
BLOCK
  2
*DIM_0074
 70
    65
 10
0.0
 20
0.0
  0
LINE
  8
寸法
  6
BYBLOCK
 62
     0
 10
-74.302165
 20
-91.654003
 11
-74.302165
 21
-125.811187
  0
LINE
  8
寸法
  6
BYBLOCK
 62
     0
 10
-57.302165
 20
-107.154003
 11
-57.302165
 21
-125.811187
  0
LINE
  8
寸法
  6
BYBLOCK
 62
     0
 10
-74.302165
 20
-125.811187
 11
-57.302165
 21
-125.811187
  0
POINT
  8
寸法
 62
     0
 10
-74.302165
 20
-125.811187
  0
POINT
  8
寸法
 62
     0
 10
-57.302165
 20
-125.811187
  0
TEXT
  7
TextStyle03
  8
寸法
  6
CONTINUOUS
 62
     0
 10
-67.41875
 20
-125.45
  1
17
 40
3.0
 72
     5
 11
-64.23125
 21
-125.45
  0
ENDBLK
  0
BLOCK
  2
*GRP_0075
 70
    65
 10
0.0
 20
0.0
  0
POLYLINE
  8
ガラス
  6
CONTINUOUS
 66
     1
 70
     4
  0
VERTEX
  8
ガラス
 10
4.975
 20
-57.7
 70
     8
  0
VERTEX
  8
ガラス
 10
5.0
 20
-57.6
 70
     8
  0
VERTEX
  8
ガラス
 10
5.05
 20
-57.525
 70
     8
  0
VERTEX
  8
ガラス
 10
5.075
 20
-57.425
 70
     8
  0
VERTEX
  8
ガラス
 10
5.1
 20
-57.35
 70
     8
  0
VERTEX
  8
ガラス
 10
5.15
 20
-57.25
 70
     8
  0
VERTEX
  8
ガラス
 10
5.175
 20
-57.175
 70
     8
  0
VERTEX
  8
ガラス
 10
5.225
 20
-57.1
 70
     8
  0
VERTEX
  8
ガラス
 10
5.275
 20
-57.0
 70
     8
  0
VERTEX
  8
ガラス
 10
5.3
 20
-56.925
 70
     8
  0
VERTEX
  8
ガラス
 10
5.35
 20
-56.85
 70
     8
  0
VERTEX
  8
ガラス
 10
5.4
 20
-56.775
 70
     8
  0
VERTEX
  8
ガラス
 10
5.425
 20
-56.7
 70
     8
  0
VERTEX
  8
ガラス
 10
5.475
 20
-56.625
 70
     8
  0
VERTEX
  8
ガラス
 10
5.525
 20
-56.55
 70
     8
  0
VERTEX
  8
ガラス
 10
5.575
 20
-56.475
 70
     8
  0
VERTEX
  8
ガラス
 10
5.625
 20
-56.425
 70
     8
  0
VERTEX
  8
ガラス
 10
5.675
 20
-56.35
 70
     8
  0
VERTEX
  8
ガラス
 10
5.75
 20
-56.3
 70
     8
  0
VERTEX
  8
ガラス
 10
5.8
 20
-56.225
 70
     8
  0
VERTEX
  8
ガラス
 10
5.85
 20
-56.175
 70
     8
  0
VERTEX
  8
ガラス
 10
5.925
 20
-56.125
 70
     8
  0
VERTEX
  8
ガラス
 10
6.0
 20
-56.075
 70
     8
  0
VERTEX
  8
ガラス
 10
6.05
 20
-56.025
 70
     8
  0
VERTEX
  8
ガラス
 10
6.125
 20
-55.975
 70
     8
  0
VERTEX
  8
ガラス
 10
6.2
 20
-55.95
 70
     8
  0
VERTEX
  8
ガラス
 10
6.275
 20
-55.9
 70
     8
  0
VERTEX
  8
ガラス
 10
6.35
 20
-55.875
 70
     8
  0
VERTEX
  8
ガラス
 10
6.45
 20
-55.85
 70
     8
  0
VERTEX
  8
ガラス
 10
6.525
 20
-55.8
 70
     8
  0
VERTEX
  8
ガラス
 10
6.6
 20
-55.775
 70
     8
  0
VERTEX
  8
ガラス
 10
6.7
 20
-55.75
 70
     8
  0
VERTEX
  8
ガラス
 10
6.775
 20
-55.725
 70
     8
  0
VERTEX
  8
ガラス
 10
6.875
 20
-55.7
 70
     8
  0
VERTEX
  8
ガラス
 10
6.95
 20
-55.675
 70
     8
  0
VERTEX
  8
ガラス
 10
7.05
 20
-55.65
 70
     8
  0
VERTEX
  8
ガラス
 10
7.125
 20
-55.65
 70
     8
  0
VERTEX
  8
ガラス
 10
7.225
 20
-55.625
 70
     8
  0
VERTEX
  8
ガラス
 10
7.3
 20
-55.6
 70
     8
  0
VERTEX
  8
ガラス
 10
7.4
 20
-55.575
 70
     8
  0
VERTEX
  8
ガラス
 10
7.5
 20
-55.55
 70
     8
  0
SEQEND
  0
POLYLINE
  8
ガラス
  6
CONTINUOUS
 66
     1
 70
     4
  0
VERTEX
  8
ガラス
 10
7.5
 20
-55.55
 70
     8
  0
VERTEX
  8
ガラス
 10
7.475
 20
-55.625
 70
     8
  0
VERTEX
  8
ガラス
 10
7.45
 20
-55.675
 70
     8
  0
VERTEX
  8
ガラス
 10
7.425
 20
-55.725
 70
     8
  0
VERTEX
  8
ガラス
 10
7.4
 20
-55.775
 70
     8
  0
VERTEX
  8
ガラス
 10
7.375
 20
-55.85
 70
     8
  0
VERTEX
  8
ガラス
 10
7.35
 20
-55.9
 70
     8
  0
VERTEX
  8
ガラス
 10
7.325
 20
-55.95
 70
     8
  0
VERTEX
  8
ガラス
 10
7.3
 20
-56.025
 70
     8
  0
VERTEX
  8
ガラス
 10
7.275
 20
-56.075
 70
     8
  0
VERTEX
  8
ガラス
 10
7.25
 20
-56.125
 70
     8
  0
VERTEX
  8
ガラス
 10
7.225
 20
-56.175
 70
     8
  0
VERTEX
  8
ガラス
 10
7.225
 20
-56.25
 70
     8
  0
VERTEX
  8
ガラス
 10
7.2
 20
-56.3
 70
     8
  0
VERTEX
  8
ガラス
 10
7.175
 20
-56.35
 70
     8
  0
VERTEX
  8
ガラス
 10
7.15
 20
-56.425
 70
     8
  0
VERTEX
  8
ガラス
 10
7.125
 20
-56.475
 70
     8
  0
VERTEX
  8
ガラス
 10
7.125
 20
-56.525
 70
     8
  0
VERTEX
  8
ガラス
 10
7.1
 20
-56.6
 70
     8
  0
VERTEX
  8
ガラス
 10
7.075
 20
-56.65
 70
     8
  0
VERTEX
  8
ガラス
 10
7.075
 20
-56.7
 70
     8
  0
VERTEX
  8
ガラス
 10
7.05
 20
-56.775
 70
     8
  0
VERTEX
  8
ガラス
 10
7.025
 20
-56.825
 70
     8
  0
VERTEX
  8
ガラス
 10
7.025
 20
-56.875
 70
     8
  0
VERTEX
  8
ガラス
 10
7.0
 20
-56.95
 70
     8
  0
VERTEX
  8
ガラス
 10
7.0
 20
-57.0
 70
     8
  0
VERTEX
  8
ガラス
 10
6.975
 20
-57.075
 70
     8
  0
VERTEX
  8
ガラス
 10
6.975
 20
-57.125
 70
     8
  0
VERTEX
  8
ガラス
 10
6.95
 20
-57.175
 70
     8
  0
VERTEX
  8
ガラス
 10
6.95
 20
-57.25
 70
     8
  0
VERTEX
  8
ガラス
 10
6.95
 20
-57.3
 70
     8
  0
VERTEX
  8
ガラス
 10
6.925
 20
-57.375
 70
     8
  0
VERTEX
  8
ガラス
 10
6.925
 20
-57.425
 70
     8
  0
VERTEX
  8
ガラス
 10
6.925
 20
-57.5
 70
     8
  0
VERTEX
  8
ガラス
 10
6.9
 20
-57.55
 70
     8
  0
VERTEX
  8
ガラス
 10
6.9
 20
-57.6
 70
     8
  0
VERTEX
  8
ガラス
 10
6.9
 20
-57.675
 70
     8
  0
VERTEX
  8
ガラス
 10
6.875
 20
-57.725
 70
     8
  0
VERTEX
  8
ガラス
 10
6.875
 20
-57.8
 70
     8
  0
VERTEX
  8
ガラス
 10
6.875
 20
-57.85
 70
     8
  0
VERTEX
  8
ガラス
 10
6.875
 20
-57.925
 70
     8
  0
SEQEND
  0
ARC
  8
ガラス
  6
CONTINUOUS
 10
5.926794
 20
-57.791172
 40
0.955135
 50
173.117443
 51
353.117443
  0
ENDBLK
  0
BLOCK
  2
*GRP_0076
 70
    65
 10
0.0
 20
0.0
  0
POLYLINE
  8
ガラス
  6
CONTINUOUS
 66
     1
 70
     4
  0
VERTEX
  8
ガラス
 10
-11.15
 20
-58.2
 70
     8
  0
VERTEX
  8
ガラス
 10
-11.075
 20
-58.175
 70
     8
  0
VERTEX
  8
ガラス
 10
-10.975
 20
-58.175
 70
     8
  0
VERTEX
  8
ガラス
 10
-10.875
 20
-58.15
 70
     8
  0
VERTEX
  8
ガラス
 10
-10.8
 20
-58.15
 70
     8
  0
VERTEX
  8
ガラス
 10
-10.7
 20
-58.15
 70
     8
  0
VERTEX
  8
ガラス
 10
-10.6
 20
-58.125
 70
     8
  0
VERTEX
  8
ガラス
 10
-10.525
 20
-58.125
 70
     8
  0
VERTEX
  8
ガラス
 10
-10.425
 20
-58.125
 70
     8
  0
VERTEX
  8
ガラス
 10
-10.325
 20
-58.125
 70
     8
  0
VERTEX
  8
ガラス
 10
-10.25
 20
-58.125
 70
     8
  0
VERTEX
  8
ガラス
 10
-10.15
 20
-58.125
 70
     8
  0
VERTEX
  8
ガラス
 10
-10.075
 20
-58.125
 70
     8
  0
VERTEX
  8
ガラス
 10
-9.975
 20
-58.125
 70
     8
  0
VERTEX
  8
ガラス
 10
-9.9
 20
-58.125
 70
     8
  0
VERTEX
  8
ガラス
 10
-9.8
 20
-58.15
 70
     8
  0
VERTEX
  8
ガラス
 10
-9.725
 20
-58.15
 70
     8
  0
VERTEX
  8
ガラス
 10
-9.65
 20
-58.175
 70
     8
  0
VERTEX
  8
ガラス
 10
-9.575
 20
-58.2
 70
     8
  0
VERTEX
  8
ガラス
 10
-9.475
 20
-58.2
 70
     8
  0
VERTEX
  8
ガラス
 10
-9.4
 20
-58.225
 70
     8
  0
VERTEX
  8
ガラス
 10
-9.325
 20
-58.275
 70
     8
  0
VERTEX
  8
ガラス
 10
-9.25
 20
-58.3
 70
     8
  0
VERTEX
  8
ガラス
 10
-9.175
 20
-58.35
 70
     8
  0
VERTEX
  8
ガラス
 10
-9.1
 20
-58.375
 70
     8
  0
VERTEX
  8
ガラス
 10
-9.025
 20
-58.425
 70
     8
  0
VERTEX
  8
ガラス
 10
-8.975
 20
-58.475
 70
     8
  0
VERTEX
  8
ガラス
 10
-8.9
 20
-58.525
 70
     8
  0
VERTEX
  8
ガラス
 10
-8.825
 20
-58.575
 70
     8
  0
VERTEX
  8
ガラス
 10
-8.775
 20
-58.625
 70
     8
  0
VERTEX
  8
ガラス
 10
-8.7
 20
-58.7
 70
     8
  0
VERTEX
  8
ガラス
 10
-8.625
 20
-58.75
 70
     8
  0
VERTEX
  8
ガラス
 10
-8.575
 20
-58.825
 70
     8
  0
VERTEX
  8
ガラス
 10
-8.5
 20
-58.875
 70
     8
  0
VERTEX
  8
ガラス
 10
-8.45
 20
-58.95
 70
     8
  0
VERTEX
  8
ガラス
 10
-8.375
 20
-59.025
 70
     8
  0
VERTEX
  8
ガラス
 10
-8.325
 20
-59.075
 70
     8
  0
VERTEX
  8
ガラス
 10
-8.25
 20
-59.15
 70
     8
  0
VERTEX
  8
ガラス
 10
-8.2
 20
-59.225
 70
     8
  0
VERTEX
  8
ガラス
 10
-8.125
 20
-59.3
 70
     8
  0
VERTEX
  8
ガラス
 10
-8.075
 20
-59.35
 70
     8
  0
SEQEND
  0
POLYLINE
  8
ガラス
  6
CONTINUOUS
 66
     1
 70
     4
  0
VERTEX
  8
ガラス
 10
-8.075
 20
-59.35
 70
     8
  0
VERTEX
  8
ガラス
 10
-8.125
 20
-59.375
 70
     8
  0
VERTEX
  8
ガラス
 10
-8.2
 20
-59.375
 70
     8
  0
VERTEX
  8
ガラス
 10
-8.25
 20
-59.375
 70
     8
  0
VERTEX
  8
ガラス
 10
-8.325
 20
-59.375
 70
     8
  0
VERTEX
  8
ガラス
 10
-8.375
 20
-59.4
 70
     8
  0
VERTEX
  8
ガラス
 10
-8.45
 20
-59.4
 70
     8
  0
VERTEX
  8
ガラス
 10
-8.5
 20
-59.4
 70
     8
  0
VERTEX
  8
ガラス
 10
-8.55
 20
-59.425
 70
     8
  0
VERTEX
  8
ガラス
 10
-8.625
 20
-59.425
 70
     8
  0
VERTEX
  8
ガラス
 10
-8.675
 20
-59.425
 70
     8
  0
VERTEX
  8
ガラス
 10
-8.75
 20
-59.45
 70
     8
  0
VERTEX
  8
ガラス
 10
-8.8
 20
-59.45
 70
     8
  0
VERTEX
  8
ガラス
 10
-8.875
 20
-59.45
 70
     8
  0
VERTEX
  8
ガラス
 10
-8.925
 20
-59.475
 70
     8
  0
VERTEX
  8
ガラス
 10
-8.975
 20
-59.475
 70
     8
  0
VERTEX
  8
ガラス
 10
-9.05
 20
-59.5
 70
     8
  0
VERTEX
  8
ガラス
 10
-9.1
 20
-59.5
 70
     8
  0
VERTEX
  8
ガラス
 10
-9.175
 20
-59.525
 70
     8
  0
VERTEX
  8
ガラス
 10
-9.225
 20
-59.525
 70
     8
  0
VERTEX
  8
ガラス
 10
-9.275
 20
-59.55
 70
     8
  0
VERTEX
  8
ガラス
 10
-9.35
 20
-59.55
 70
     8
  0
VERTEX
  8
ガラス
 10
-9.4
 20
-59.575
 70
     8
  0
VERTEX
  8
ガラス
 10
-9.45
 20
-59.6
 70
     8
  0
VERTEX
  8
ガラス
 10
-9.525
 20
-59.6
 70
     8
  0
VERTEX
  8
ガラス
 10
-9.575
 20
-59.625
 70
     8
  0
VERTEX
  8
ガラス
 10
-9.625
 20
-59.65
 70
     8
  0
VERTEX
  8
ガラス
 10
-9.7
 20
-59.675
 70
     8
  0
VERTEX
  8
ガラス
 10
-9.75
 20
-59.675
 70
     8
  0
VERTEX
  8
ガラス
 10
-9.8
 20
-59.7
 70
     8
  0
VERTEX
  8
ガラス
 10
-9.875
 20
-59.725
 70
     8
  0
VERTEX
  8
ガラス
 10
-9.925
 20
-59.75
 70
     8
  0
VERTEX
  8
ガラス
 10
-9.975
 20
-59.775
 70
     8
  0
VERTEX
  8
ガラス
 10
-10.05
 20
-59.8
 70
     8
  0
VERTEX
  8
ガラス
 10
-10.1
 20
-59.825
 70
     8
  0
VERTEX
  8
ガラス
 10
-10.15
 20
-59.85
 70
     8
  0
VERTEX
  8
ガラス
 10
-10.2
 20
-59.875
 70
     8
  0
VERTEX
  8
ガラス
 10
-10.275
 20
-59.9
 70
     8
  0
VERTEX
  8
ガラス
 10
-10.325
 20
-59.9
 70
     8
  0
VERTEX
  8
ガラス
 10
-10.375
 20
-59.925
 70
     8
  0
VERTEX
  8
ガラス
 10
-10.45
 20
-59.95
 70
     8
  0
SEQEND
  0
ARC
  8
ガラス
  6
CONTINUOUS
 10
-10.787484
 20
-59.062308
 40
0.955135
 50
112.264588
 51
292.264588
  0
ENDBLK
  0
BLOCK
  2
*GRP_0077
 70
    65
 10
0.0
 20
0.0
  0
POLYLINE
  8
ガラス
  6
CONTINUOUS
 66
     1
 70
     4
  0
VERTEX
  8
ガラス
 10
-23.025
 20
-58.2
 70
     8
  0
VERTEX
  8
ガラス
 10
-22.95
 20
-58.175
 70
     8
  0
VERTEX
  8
ガラス
 10
-22.85
 20
-58.175
 70
     8
  0
VERTEX
  8
ガラス
 10
-22.75
 20
-58.15
 70
     8
  0
VERTEX
  8
ガラス
 10
-22.675
 20
-58.15
 70
     8
  0
VERTEX
  8
ガラス
 10
-22.575
 20
-58.15
 70
     8
  0
VERTEX
  8
ガラス
 10
-22.475
 20
-58.125
 70
     8
  0
VERTEX
  8
ガラス
 10
-22.4
 20
-58.125
 70
     8
  0
VERTEX
  8
ガラス
 10
-22.3
 20
-58.125
 70
     8
  0
VERTEX
  8
ガラス
 10
-22.2
 20
-58.125
 70
     8
  0
VERTEX
  8
ガラス
 10
-22.125
 20
-58.125
 70
     8
  0
VERTEX
  8
ガラス
 10
-22.025
 20
-58.125
 70
     8
  0
VERTEX
  8
ガラス
 10
-21.95
 20
-58.125
 70
     8
  0
VERTEX
  8
ガラス
 10
-21.85
 20
-58.125
 70
     8
  0
VERTEX
  8
ガラス
 10
-21.775
 20
-58.125
 70
     8
  0
VERTEX
  8
ガラス
 10
-21.675
 20
-58.15
 70
     8
  0
VERTEX
  8
ガラス
 10
-21.6
 20
-58.15
 70
     8
  0
VERTEX
  8
ガラス
 10
-21.525
 20
-58.175
 70
     8
  0
VERTEX
  8
ガラス
 10
-21.425
 20
-58.2
 70
     8
  0
VERTEX
  8
ガラス
 10
-21.35
 20
-58.2
 70
     8
  0
VERTEX
  8
ガラス
 10
-21.275
 20
-58.225
 70
     8
  0
VERTEX
  8
ガラス
 10
-21.2
 20
-58.275
 70
     8
  0
VERTEX
  8
ガラス
 10
-21.125
 20
-58.3
 70
     8
  0
VERTEX
  8
ガラス
 10
-21.05
 20
-58.35
 70
     8
  0
VERTEX
  8
ガラス
 10
-20.975
 20
-58.375
 70
     8
  0
VERTEX
  8
ガラス
 10
-20.9
 20
-58.425
 70
     8
  0
VERTEX
  8
ガラス
 10
-20.85
 20
-58.475
 70
     8
  0
VERTEX
  8
ガラス
 10
-20.775
 20
-58.525
 70
     8
  0
VERTEX
  8
ガラス
 10
-20.7
 20
-58.575
 70
     8
  0
VERTEX
  8
ガラス
 10
-20.625
 20
-58.625
 70
     8
  0
VERTEX
  8
ガラス
 10
-20.575
 20
-58.7
 70
     8
  0
VERTEX
  8
ガラス
 10
-20.5
 20
-58.75
 70
     8
  0
VERTEX
  8
ガラス
 10
-20.45
 20
-58.825
 70
     8
  0
VERTEX
  8
ガラス
 10
-20.375
 20
-58.875
 70
     8
  0
VERTEX
  8
ガラス
 10
-20.325
 20
-58.95
 70
     8
  0
VERTEX
  8
ガラス
 10
-20.25
 20
-59.025
 70
     8
  0
VERTEX
  8
ガラス
 10
-20.2
 20
-59.075
 70
     8
  0
VERTEX
  8
ガラス
 10
-20.125
 20
-59.15
 70
     8
  0
VERTEX
  8
ガラス
 10
-20.075
 20
-59.225
 70
     8
  0
VERTEX
  8
ガラス
 10
-20.0
 20
-59.3
 70
     8
  0
VERTEX
  8
ガラス
 10
-19.95
 20
-59.35
 70
     8
  0
SEQEND
  0
POLYLINE
  8
ガラス
  6
CONTINUOUS
 66
     1
 70
     4
  0
VERTEX
  8
ガラス
 10
-19.95
 20
-59.35
 70
     8
  0
VERTEX
  8
ガラス
 10
-20.0
 20
-59.375
 70
     8
  0
VERTEX
  8
ガラス
 10
-20.075
 20
-59.375
 70
     8
  0
VERTEX
  8
ガラス
 10
-20.125
 20
-59.375
 70
     8
  0
VERTEX
  8
ガラス
 10
-20.2
 20
-59.375
 70
     8
  0
VERTEX
  8
ガラス
 10
-20.25
 20
-59.4
 70
     8
  0
VERTEX
  8
ガラス
 10
-20.325
 20
-59.4
 70
     8
  0
VERTEX
  8
ガラス
 10
-20.375
 20
-59.4
 70
     8
  0
VERTEX
  8
ガラス
 10
-20.425
 20
-59.425
 70
     8
  0
VERTEX
  8
ガラス
 10
-20.5
 20
-59.425
 70
     8
  0
VERTEX
  8
ガラス
 10
-20.55
 20
-59.425
 70
     8
  0
VERTEX
  8
ガラス
 10
-20.625
 20
-59.45
 70
     8
  0
VERTEX
  8
ガラス
 10
-20.675
 20
-59.45
 70
     8
  0
VERTEX
  8
ガラス
 10
-20.75
 20
-59.45
 70
     8
  0
VERTEX
  8
ガラス
 10
-20.8
 20
-59.475
 70
     8
  0
VERTEX
  8
ガラス
 10
-20.85
 20
-59.475
 70
     8
  0
VERTEX
  8
ガラス
 10
-20.925
 20
-59.5
 70
     8
  0
VERTEX
  8
ガラス
 10
-20.975
 20
-59.5
 70
     8
  0
VERTEX
  8
ガラス
 10
-21.05
 20
-59.525
 70
     8
  0
VERTEX
  8
ガラス
 10
-21.1
 20
-59.525
 70
     8
  0
VERTEX
  8
ガラス
 10
-21.15
 20
-59.55
 70
     8
  0
VERTEX
  8
ガラス
 10
-21.225
 20
-59.55
 70
     8
  0
VERTEX
  8
ガラス
 10
-21.275
 20
-59.575
 70
     8
  0
VERTEX
  8
ガラス
 10
-21.325
 20
-59.6
 70
     8
  0
VERTEX
  8
ガラス
 10
-21.4
 20
-59.6
 70
     8
  0
VERTEX
  8
ガラス
 10
-21.45
 20
-59.625
 70
     8
  0
VERTEX
  8
ガラス
 10
-21.5
 20
-59.65
 70
     8
  0
VERTEX
  8
ガラス
 10
-21.575
 20
-59.675
 70
     8
  0
VERTEX
  8
ガラス
 10
-21.625
 20
-59.675
 70
     8
  0
VERTEX
  8
ガラス
 10
-21.675
 20
-59.7
 70
     8
  0
VERTEX
  8
ガラス
 10
-21.75
 20
-59.725
 70
     8
  0
VERTEX
  8
ガラス
 10
-21.8
 20
-59.75
 70
     8
  0
VERTEX
  8
ガラス
 10
-21.85
 20
-59.775
 70
     8
  0
VERTEX
  8
ガラス
 10
-21.9
 20
-59.8
 70
     8
  0
VERTEX
  8
ガラス
 10
-21.975
 20
-59.825
 70
     8
  0
VERTEX
  8
ガラス
 10
-22.025
 20
-59.85
 70
     8
  0
VERTEX
  8
ガラス
 10
-22.075
 20
-59.875
 70
     8
  0
VERTEX
  8
ガラス
 10
-22.15
 20
-59.9
 70
     8
  0
VERTEX
  8
ガラス
 10
-22.2
 20
-59.9
 70
     8
  0
VERTEX
  8
ガラス
 10
-22.25
 20
-59.925
 70
     8
  0
VERTEX
  8
ガラス
 10
-22.3
 20
-59.95
 70
     8
  0
SEQEND
  0
ARC
  8
ガラス
  6
CONTINUOUS
 10
-22.6605
 20
-59.062308
 40
0.955135
 50
112.264588
 51
292.264588
  0
ENDBLK
  0
BLOCK
  2
*GRP_0078
 70
    65
 10
0.0
 20
0.0
  0
POLYLINE
  8
ガラス
  6
CONTINUOUS
 66
     1
 70
     4
  0
VERTEX
  8
ガラス
 10
-38.275
 20
-61.95
 70
     8
  0
VERTEX
  8
ガラス
 10
-38.25
 20
-61.875
 70
     8
  0
VERTEX
  8
ガラス
 10
-38.2
 20
-61.775
 70
     8
  0
VERTEX
  8
ガラス
 10
-38.175
 20
-61.7
 70
     8
  0
VERTEX
  8
ガラス
 10
-38.125
 20
-61.6
 70
     8
  0
VERTEX
  8
ガラス
 10
-38.1
 20
-61.525
 70
     8
  0
VERTEX
  8
ガラス
 10
-38.05
 20
-61.425
 70
     8
  0
VERTEX
  8
ガラス
 10
-38.025
 20
-61.35
 70
     8
  0
VERTEX
  8
ガラス
 10
-37.975
 20
-61.275
 70
     8
  0
VERTEX
  8
ガラス
 10
-37.95
 20
-61.2
 70
     8
  0
VERTEX
  8
ガラス
 10
-37.9
 20
-61.125
 70
     8
  0
VERTEX
  8
ガラス
 10
-37.85
 20
-61.025
 70
     8
  0
VERTEX
  8
ガラス
 10
-37.8
 20
-60.95
 70
     8
  0
VERTEX
  8
ガラス
 10
-37.775
 20
-60.875
 70
     8
  0
VERTEX
  8
ガラス
 10
-37.725
 20
-60.825
 70
     8
  0
VERTEX
  8
ガラス
 10
-37.675
 20
-60.75
 70
     8
  0
VERTEX
  8
ガラス
 10
-37.625
 20
-60.675
 70
     8
  0
VERTEX
  8
ガラス
 10
-37.55
 20
-60.625
 70
     8
  0
VERTEX
  8
ガラス
 10
-37.5
 20
-60.55
 70
     8
  0
VERTEX
  8
ガラス
 10
-37.45
 20
-60.5
 70
     8
  0
VERTEX
  8
ガラス
 10
-37.375
 20
-60.45
 70
     8
  0
VERTEX
  8
ガラス
 10
-37.325
 20
-60.375
 70
     8
  0
VERTEX
  8
ガラス
 10
-37.25
 20
-60.325
 70
     8
  0
VERTEX
  8
ガラス
 10
-37.175
 20
-60.3
 70
     8
  0
VERTEX
  8
ガラス
 10
-37.125
 20
-60.25
 70
     8
  0
VERTEX
  8
ガラス
 10
-37.05
 20
-60.2
 70
     8
  0
VERTEX
  8
ガラス
 10
-36.975
 20
-60.175
 70
     8
  0
VERTEX
  8
ガラス
 10
-36.875
 20
-60.125
 70
     8
  0
VERTEX
  8
ガラス
 10
-36.8
 20
-60.1
 70
     8
  0
VERTEX
  8
ガラス
 10
-36.725
 20
-60.075
 70
     8
  0
VERTEX
  8
ガラス
 10
-36.65
 20
-60.05
 70
     8
  0
VERTEX
  8
ガラス
 10
-36.55
 20
-60.025
 70
     8
  0
VERTEX
  8
ガラス
 10
-36.475
 20
-60.0
 70
     8
  0
VERTEX
  8
ガラス
 10
-36.375
 20
-59.975
 70
     8
  0
VERTEX
  8
ガラス
 10
-36.3
 20
-59.95
 70
     8
  0
VERTEX
  8
ガラス
 10
-36.2
 20
-59.925
 70
     8
  0
VERTEX
  8
ガラス
 10
-36.125
 20
-59.9
 70
     8
  0
VERTEX
  8
ガラス
 10
-36.025
 20
-59.875
 70
     8
  0
VERTEX
  8
ガラス
 10
-35.925
 20
-59.85
 70
     8
  0
VERTEX
  8
ガラス
 10
-35.85
 20
-59.85
 70
     8
  0
VERTEX
  8
ガラス
 10
-35.75
 20
-59.825
 70
     8
  0
SEQEND
  0
POLYLINE
  8
ガラス
  6
CONTINUOUS
 66
     1
 70
     4
  0
VERTEX
  8
ガラス
 10
-35.75
 20
-59.825
 70
     8
  0
VERTEX
  8
ガラス
 10
-35.775
 20
-59.875
 70
     8
  0
VERTEX
  8
ガラス
 10
-35.8
 20
-59.925
 70
     8
  0
VERTEX
  8
ガラス
 10
-35.825
 20
-60.0
 70
     8
  0
VERTEX
  8
ガラス
 10
-35.85
 20
-60.05
 70
     8
  0
VERTEX
  8
ガラス
 10
-35.875
 20
-60.1
 70
     8
  0
VERTEX
  8
ガラス
 10
-35.9
 20
-60.15
 70
     8
  0
VERTEX
  8
ガラス
 10
-35.925
 20
-60.225
 70
     8
  0
VERTEX
  8
ガラス
 10
-35.95
 20
-60.275
 70
     8
  0
VERTEX
  8
ガラス
 10
-35.975
 20
-60.325
 70
     8
  0
VERTEX
  8
ガラス
 10
-36.0
 20
-60.4
 70
     8
  0
VERTEX
  8
ガラス
 10
-36.0
 20
-60.45
 70
     8
  0
VERTEX
  8
ガラス
 10
-36.025
 20
-60.5
 70
     8
  0
VERTEX
  8
ガラス
 10
-36.05
 20
-60.575
 70
     8
  0
VERTEX
  8
ガラス
 10
-36.075
 20
-60.625
 70
     8
  0
VERTEX
  8
ガラス
 10
-36.1
 20
-60.675
 70
     8
  0
VERTEX
  8
ガラス
 10
-36.125
 20
-60.725
 70
     8
  0
VERTEX
  8
ガラス
 10
-36.125
 20
-60.8
 70
     8
  0
VERTEX
  8
ガラス
 10
-36.15
 20
-60.85
 70
     8
  0
VERTEX
  8
ガラス
 10
-36.175
 20
-60.9
 70
     8
  0
VERTEX
  8
ガラス
 10
-36.175
 20
-60.975
 70
     8
  0
VERTEX
  8
ガラス
 10
-36.2
 20
-61.025
 70
     8
  0
VERTEX
  8
ガラス
 10
-36.225
 20
-61.1
 70
     8
  0
VERTEX
  8
ガラス
 10
-36.225
 20
-61.15
 70
     8
  0
VERTEX
  8
ガラス
 10
-36.25
 20
-61.2
 70
     8
  0
VERTEX
  8
ガラス
 10
-36.25
 20
-61.275
 70
     8
  0
VERTEX
  8
ガラス
 10
-36.275
 20
-61.325
 70
     8
  0
VERTEX
  8
ガラス
 10
-36.275
 20
-61.375
 70
     8
  0
VERTEX
  8
ガラス
 10
-36.275
 20
-61.45
 70
     8
  0
VERTEX
  8
ガラス
 10
-36.3
 20
-61.5
 70
     8
  0
VERTEX
  8
ガラス
 10
-36.3
 20
-61.575
 70
     8
  0
VERTEX
  8
ガラス
 10
-36.325
 20
-61.625
 70
     8
  0
VERTEX
  8
ガラス
 10
-36.325
 20
-61.7
 70
     8
  0
VERTEX
  8
ガラス
 10
-36.325
 20
-61.75
 70
     8
  0
VERTEX
  8
ガラス
 10
-36.35
 20
-61.8
 70
     8
  0
VERTEX
  8
ガラス
 10
-36.35
 20
-61.875
 70
     8
  0
VERTEX
  8
ガラス
 10
-36.35
 20
-61.925
 70
     8
  0
VERTEX
  8
ガラス
 10
-36.375
 20
-62.0
 70
     8
  0
VERTEX
  8
ガラス
 10
-36.375
 20
-62.05
 70
     8
  0
VERTEX
  8
ガラス
 10
-36.375
 20
-62.125
 70
     8
  0
VERTEX
  8
ガラス
 10
-36.375
 20
-62.175
 70
     8
  0
SEQEND
  0
ARC
  8
ガラス
  6
CONTINUOUS
 10
-37.319767
 20
-62.051745
 40
0.955135
 50
173.117443
 51
353.117443
  0
ENDBLK
  0
BLOCK
  2
*GRP_0079
 70
    65
 10
0.0
 20
0.0
  0
POLYLINE
  8
ガラス
  6
CONTINUOUS
 66
     1
 70
     4
  0
VERTEX
  8
ガラス
 10
-38.275
 20
-73.825
 70
     8
  0
VERTEX
  8
ガラス
 10
-38.25
 20
-73.725
 70
     8
  0
VERTEX
  8
ガラス
 10
-38.2
 20
-73.65
 70
     8
  0
VERTEX
  8
ガラス
 10
-38.175
 20
-73.575
 70
     8
  0
VERTEX
  8
ガラス
 10
-38.125
 20
-73.475
 70
     8
  0
VERTEX
  8
ガラス
 10
-38.1
 20
-73.4
 70
     8
  0
VERTEX
  8
ガラス
 10
-38.05
 20
-73.3
 70
     8
  0
VERTEX
  8
ガラス
 10
-38.025
 20
-73.225
 70
     8
  0
VERTEX
  8
ガラス
 10
-37.975
 20
-73.15
 70
     8
  0
VERTEX
  8
ガラス
 10
-37.95
 20
-73.075
 70
     8
  0
VERTEX
  8
ガラス
 10
-37.9
 20
-72.975
 70
     8
  0
VERTEX
  8
ガラス
 10
-37.85
 20
-72.9
 70
     8
  0
VERTEX
  8
ガラス
 10
-37.8
 20
-72.825
 70
     8
  0
VERTEX
  8
ガラス
 10
-37.775
 20
-72.75
 70
     8
  0
VERTEX
  8
ガラス
 10
-37.725
 20
-72.675
 70
     8
  0
VERTEX
  8
ガラス
 10
-37.675
 20
-72.625
 70
     8
  0
VERTEX
  8
ガラス
 10
-37.625
 20
-72.55
 70
     8
  0
VERTEX
  8
ガラス
 10
-37.55
 20
-72.475
 70
     8
  0
VERTEX
  8
ガラス
 10
-37.5
 20
-72.425
 70
     8
  0
VERTEX
  8
ガラス
 10
-37.45
 20
-72.375
 70
     8
  0
VERTEX
  8
ガラス
 10
-37.375
 20
-72.3
 70
     8
  0
VERTEX
  8
ガラス
 10
-37.325
 20
-72.25
 70
     8
  0
VERTEX
  8
ガラス
 10
-37.25
 20
-72.2
 70
     8
  0
VERTEX
  8
ガラス
 10
-37.175
 20
-72.175
 70
     8
  0
VERTEX
  8
ガラス
 10
-37.125
 20
-72.125
 70
     8
  0
VERTEX
  8
ガラス
 10
-37.05
 20
-72.075
 70
     8
  0
VERTEX
  8
ガラス
 10
-36.975
 20
-72.05
 70
     8
  0
VERTEX
  8
ガラス
 10
-36.875
 20
-72.0
 70
     8
  0
VERTEX
  8
ガラス
 10
-36.8
 20
-71.975
 70
     8
  0
VERTEX
  8
ガラス
 10
-36.725
 20
-71.95
 70
     8
  0
VERTEX
  8
ガラス
 10
-36.65
 20
-71.925
 70
     8
  0
VERTEX
  8
ガラス
 10
-36.55
 20
-71.875
 70
     8
  0
VERTEX
  8
ガラス
 10
-36.475
 20
-71.85
 70
     8
  0
VERTEX
  8
ガラス
 10
-36.375
 20
-71.85
 70
     8
  0
VERTEX
  8
ガラス
 10
-36.3
 20
-71.825
 70
     8
  0
VERTEX
  8
ガラス
 10
-36.2
 20
-71.8
 70
     8
  0
VERTEX
  8
ガラス
 10
-36.125
 20
-71.775
 70
     8
  0
VERTEX
  8
ガラス
 10
-36.025
 20
-71.75
 70
     8
  0
VERTEX
  8
ガラス
 10
-35.925
 20
-71.725
 70
     8
  0
VERTEX
  8
ガラス
 10
-35.85
 20
-71.725
 70
     8
  0
VERTEX
  8
ガラス
 10
-35.75
 20
-71.7
 70
     8
  0
SEQEND
  0
POLYLINE
  8
ガラス
  6
CONTINUOUS
 66
     1
 70
     4
  0
VERTEX
  8
ガラス
 10
-35.75
 20
-71.7
 70
     8
  0
VERTEX
  8
ガラス
 10
-35.775
 20
-71.75
 70
     8
  0
VERTEX
  8
ガラス
 10
-35.8
 20
-71.8
 70
     8
  0
VERTEX
  8
ガラス
 10
-35.825
 20
-71.875
 70
     8
  0
VERTEX
  8
ガラス
 10
-35.85
 20
-71.925
 70
     8
  0
VERTEX
  8
ガラス
 10
-35.875
 20
-71.975
 70
     8
  0
VERTEX
  8
ガラス
 10
-35.9
 20
-72.025
 70
     8
  0
VERTEX
  8
ガラス
 10
-35.925
 20
-72.1
 70
     8
  0
VERTEX
  8
ガラス
 10
-35.95
 20
-72.15
 70
     8
  0
VERTEX
  8
ガラス
 10
-35.975
 20
-72.2
 70
     8
  0
VERTEX
  8
ガラス
 10
-36.0
 20
-72.275
 70
     8
  0
VERTEX
  8
ガラス
 10
-36.0
 20
-72.325
 70
     8
  0
VERTEX
  8
ガラス
 10
-36.025
 20
-72.375
 70
     8
  0
VERTEX
  8
ガラス
 10
-36.05
 20
-72.425
 70
     8
  0
VERTEX
  8
ガラス
 10
-36.075
 20
-72.5
 70
     8
  0
VERTEX
  8
ガラス
 10
-36.1
 20
-72.55
 70
     8
  0
VERTEX
  8
ガラス
 10
-36.125
 20
-72.6
 70
     8
  0
VERTEX
  8
ガラス
 10
-36.125
 20
-72.675
 70
     8
  0
VERTEX
  8
ガラス
 10
-36.15
 20
-72.725
 70
     8
  0
VERTEX
  8
ガラス
 10
-36.175
 20
-72.775
 70
     8
  0
VERTEX
  8
ガラス
 10
-36.175
 20
-72.85
 70
     8
  0
VERTEX
  8
ガラス
 10
-36.2
 20
-72.9
 70
     8
  0
VERTEX
  8
ガラス
 10
-36.225
 20
-72.95
 70
     8
  0
VERTEX
  8
ガラス
 10
-36.225
 20
-73.025
 70
     8
  0
VERTEX
  8
ガラス
 10
-36.25
 20
-73.075
 70
     8
  0
VERTEX
  8
ガラス
 10
-36.25
 20
-73.15
 70
     8
  0
VERTEX
  8
ガラス
 10
-36.275
 20
-73.2
 70
     8
  0
VERTEX
  8
ガラス
 10
-36.275
 20
-73.25
 70
     8
  0
VERTEX
  8
ガラス
 10
-36.275
 20
-73.325
 70
     8
  0
VERTEX
  8
ガラス
 10
-36.3
 20
-73.375
 70
     8
  0
VERTEX
  8
ガラス
 10
-36.3
 20
-73.45
 70
     8
  0
VERTEX
  8
ガラス
 10
-36.325
 20
-73.5
 70
     8
  0
VERTEX
  8
ガラス
 10
-36.325
 20
-73.575
 70
     8
  0
VERTEX
  8
ガラス
 10
-36.325
 20
-73.625
 70
     8
  0
VERTEX
  8
ガラス
 10
-36.35
 20
-73.675
 70
     8
  0
VERTEX
  8
ガラス
 10
-36.35
 20
-73.75
 70
     8
  0
VERTEX
  8
ガラス
 10
-36.35
 20
-73.8
 70
     8
  0
VERTEX
  8
ガラス
 10
-36.375
 20
-73.875
 70
     8
  0
VERTEX
  8
ガラス
 10
-36.375
 20
-73.925
 70
     8
  0
VERTEX
  8
ガラス
 10
-36.375
 20
-74.0
 70
     8
  0
VERTEX
  8
ガラス
 10
-36.375
 20
-74.05
 70
     8
  0
SEQEND
  0
ARC
  8
ガラス
  6
CONTINUOUS
 10
-37.319767
 20
-73.924761
 40
0.955135
 50
173.117443
 51
353.117443
  0
ENDBLK
  0
BLOCK
  2
*GRP_0080
 70
    65
 10
0.0
 20
0.0
  0
POLYLINE
  8
ガラス
  6
CONTINUOUS
 66
     1
 70
     4
  0
VERTEX
  8
ガラス
 10
-44.1
 20
-82.375
 70
     8
  0
VERTEX
  8
ガラス
 10
-44.0
 20
-82.375
 70
     8
  0
VERTEX
  8
ガラス
 10
-43.925
 20
-82.35
 70
     8
  0
VERTEX
  8
ガラス
 10
-43.825
 20
-82.35
 70
     8
  0
VERTEX
  8
ガラス
 10
-43.725
 20
-82.35
 70
     8
  0
VERTEX
  8
ガラス
 10
-43.65
 20
-82.325
 70
     8
  0
VERTEX
  8
ガラス
 10
-43.55
 20
-82.325
 70
     8
  0
VERTEX
  8
ガラス
 10
-43.45
 20
-82.325
 70
     8
  0
VERTEX
  8
ガラス
 10
-43.375
 20
-82.3
 70
     8
  0
VERTEX
  8
ガラス
 10
-43.275
 20
-82.3
 70
     8
  0
VERTEX
  8
ガラス
 10
-43.175
 20
-82.3
 70
     8
  0
VERTEX
  8
ガラス
 10
-43.1
 20
-82.3
 70
     8
  0
VERTEX
  8
ガラス
 10
-43.0
 20
-82.3
 70
     8
  0
VERTEX
  8
ガラス
 10
-42.925
 20
-82.3
 70
     8
  0
VERTEX
  8
ガラス
 10
-42.825
 20
-82.325
 70
     8
  0
VERTEX
  8
ガラス
 10
-42.75
 20
-82.325
 70
     8
  0
VERTEX
  8
ガラス
 10
-42.675
 20
-82.35
 70
     8
  0
VERTEX
  8
ガラス
 10
-42.575
 20
-82.35
 70
     8
  0
VERTEX
  8
ガラス
 10
-42.5
 20
-82.375
 70
     8
  0
VERTEX
  8
ガラス
 10
-42.425
 20
-82.4
 70
     8
  0
VERTEX
  8
ガラス
 10
-42.35
 20
-82.425
 70
     8
  0
VERTEX
  8
ガラス
 10
-42.275
 20
-82.45
 70
     8
  0
VERTEX
  8
ガラス
 10
-42.2
 20
-82.5
 70
     8
  0
VERTEX
  8
ガラス
 10
-42.125
 20
-82.525
 70
     8
  0
VERTEX
  8
ガラス
 10
-42.05
 20
-82.575
 70
     8
  0
VERTEX
  8
ガラス
 10
-41.975
 20
-82.625
 70
     8
  0
VERTEX
  8
ガラス
 10
-41.9
 20
-82.65
 70
     8
  0
VERTEX
  8
ガラス
 10
-41.825
 20
-82.7
 70
     8
  0
VERTEX
  8
ガラス
 10
-41.775
 20
-82.775
 70
     8
  0
VERTEX
  8
ガラス
 10
-41.7
 20
-82.825
 70
     8
  0
VERTEX
  8
ガラス
 10
-41.625
 20
-82.875
 70
     8
  0
VERTEX
  8
ガラス
 10
-41.575
 20
-82.95
 70
     8
  0
VERTEX
  8
ガラス
 10
-41.5
 20
-83.0
 70
     8
  0
VERTEX
  8
ガラス
 10
-41.45
 20
-83.075
 70
     8
  0
VERTEX
  8
ガラス
 10
-41.375
 20
-83.125
 70
     8
  0
VERTEX
  8
ガラス
 10
-41.325
 20
-83.2
 70
     8
  0
VERTEX
  8
ガラス
 10
-41.25
 20
-83.275
 70
     8
  0
VERTEX
  8
ガラス
 10
-41.2
 20
-83.325
 70
     8
  0
VERTEX
  8
ガラス
 10
-41.125
 20
-83.4
 70
     8
  0
VERTEX
  8
ガラス
 10
-41.075
 20
-83.475
 70
     8
  0
VERTEX
  8
ガラス
 10
-41.0
 20
-83.55
 70
     8
  0
SEQEND
  0
POLYLINE
  8
ガラス
  6
CONTINUOUS
 66
     1
 70
     4
  0
VERTEX
  8
ガラス
 10
-41.0
 20
-83.55
 70
     8
  0
VERTEX
  8
ガラス
 10
-41.075
 20
-83.55
 70
     8
  0
VERTEX
  8
ガラス
 10
-41.125
 20
-83.55
 70
     8
  0
VERTEX
  8
ガラス
 10
-41.2
 20
-83.575
 70
     8
  0
VERTEX
  8
ガラス
 10
-41.25
 20
-83.575
 70
     8
  0
VERTEX
  8
ガラス
 10
-41.325
 20
-83.575
 70
     8
  0
VERTEX
  8
ガラス
 10
-41.375
 20
-83.6
 70
     8
  0
VERTEX
  8
ガラス
 10
-41.45
 20
-83.6
 70
     8
  0
VERTEX
  8
ガラス
 10
-41.5
 20
-83.6
 70
     8
  0
VERTEX
  8
ガラス
 10
-41.575
 20
-83.6
 70
     8
  0
VERTEX
  8
ガラス
 10
-41.625
 20
-83.625
 70
     8
  0
VERTEX
  8
ガラス
 10
-41.675
 20
-83.625
 70
     8
  0
VERTEX
  8
ガラス
 10
-41.75
 20
-83.65
 70
     8
  0
VERTEX
  8
ガラス
 10
-41.8
 20
-83.65
 70
     8
  0
VERTEX
  8
ガラス
 10
-41.875
 20
-83.65
 70
     8
  0
VERTEX
  8
ガラス
 10
-41.925
 20
-83.675
 70
     8
  0
VERTEX
  8
ガラス
 10
-41.975
 20
-83.675
 70
     8
  0
VERTEX
  8
ガラス
 10
-42.05
 20
-83.7
 70
     8
  0
VERTEX
  8
ガラス
 10
-42.1
 20
-83.7
 70
     8
  0
VERTEX
  8
ガラス
 10
-42.175
 20
-83.725
 70
     8
  0
VERTEX
  8
ガラス
 10
-42.225
 20
-83.725
 70
     8
  0
VERTEX
  8
ガラス
 10
-42.275
 20
-83.75
 70
     8
  0
VERTEX
  8
ガラス
 10
-42.35
 20
-83.775
 70
     8
  0
VERTEX
  8
ガラス
 10
-42.4
 20
-83.775
 70
     8
  0
VERTEX
  8
ガラス
 10
-42.45
 20
-83.8
 70
     8
  0
VERTEX
  8
ガラス
 10
-42.525
 20
-83.825
 70
     8
  0
VERTEX
  8
ガラス
 10
-42.575
 20
-83.825
 70
     8
  0
VERTEX
  8
ガラス
 10
-42.625
 20
-83.85
 70
     8
  0
VERTEX
  8
ガラス
 10
-42.7
 20
-83.875
 70
     8
  0
VERTEX
  8
ガラス
 10
-42.75
 20
-83.9
 70
     8
  0
VERTEX
  8
ガラス
 10
-42.8
 20
-83.925
 70
     8
  0
VERTEX
  8
ガラス
 10
-42.875
 20
-83.95
 70
     8
  0
VERTEX
  8
ガラス
 10
-42.925
 20
-83.95
 70
     8
  0
VERTEX
  8
ガラス
 10
-42.975
 20
-83.975
 70
     8
  0
VERTEX
  8
ガラス
 10
-43.025
 20
-84.0
 70
     8
  0
VERTEX
  8
ガラス
 10
-43.1
 20
-84.025
 70
     8
  0
VERTEX
  8
ガラス
 10
-43.15
 20
-84.05
 70
     8
  0
VERTEX
  8
ガラス
 10
-43.2
 20
-84.075
 70
     8
  0
VERTEX
  8
ガラス
 10
-43.275
 20
-84.1
 70
     8
  0
VERTEX
  8
ガラス
 10
-43.325
 20
-84.125
 70
     8
  0
VERTEX
  8
ガラス
 10
-43.375
 20
-84.15
 70
     8
  0
SEQEND
  0
ARC
  8
ガラス
  6
CONTINUOUS
 10
-43.727828
 20
-83.249742
 40
0.955135
 50
112.264588
 51
292.264588
  0
ENDBLK
  0
BLOCK
  2
*GRP_0081
 70
    65
 10
0.0
 20
0.0
  0
POLYLINE
  8
ガラス
  6
CONTINUOUS
 66
     1
 70
     4
  0
VERTEX
  8
ガラス
 10
-58.6
 20
-82.375
 70
     8
  0
VERTEX
  8
ガラス
 10
-58.5
 20
-82.375
 70
     8
  0
VERTEX
  8
ガラス
 10
-58.4
 20
-82.35
 70
     8
  0
VERTEX
  8
ガラス
 10
-58.325
 20
-82.35
 70
     8
  0
VERTEX
  8
ガラス
 10
-58.225
 20
-82.35
 70
     8
  0
VERTEX
  8
ガラス
 10
-58.125
 20
-82.325
 70
     8
  0
VERTEX
  8
ガラス
 10
-58.05
 20
-82.325
 70
     8
  0
VERTEX
  8
ガラス
 10
-57.95
 20
-82.325
 70
     8
  0
VERTEX
  8
ガラス
 10
-57.85
 20
-82.3
 70
     8
  0
VERTEX
  8
ガラス
 10
-57.775
 20
-82.3
 70
     8
  0
VERTEX
  8
ガラス
 10
-57.675
 20
-82.3
 70
     8
  0
VERTEX
  8
ガラス
 10
-57.6
 20
-82.3
 70
     8
  0
VERTEX
  8
ガラス
 10
-57.5
 20
-82.3
 70
     8
  0
VERTEX
  8
ガラス
 10
-57.425
 20
-82.3
 70
     8
  0
VERTEX
  8
ガラス
 10
-57.325
 20
-82.325
 70
     8
  0
VERTEX
  8
ガラス
 10
-57.25
 20
-82.325
 70
     8
  0
VERTEX
  8
ガラス
 10
-57.15
 20
-82.35
 70
     8
  0
VERTEX
  8
ガラス
 10
-57.075
 20
-82.35
 70
     8
  0
VERTEX
  8
ガラス
 10
-57.0
 20
-82.375
 70
     8
  0
VERTEX
  8
ガラス
 10
-56.925
 20
-82.4
 70
     8
  0
VERTEX
  8
ガラス
 10
-56.825
 20
-82.425
 70
     8
  0
VERTEX
  8
ガラス
 10
-56.75
 20
-82.45
 70
     8
  0
VERTEX
  8
ガラス
 10
-56.675
 20
-82.5
 70
     8
  0
VERTEX
  8
ガラス
 10
-56.6
 20
-82.525
 70
     8
  0
VERTEX
  8
ガラス
 10
-56.55
 20
-82.575
 70
     8
  0
VERTEX
  8
ガラス
 10
-56.475
 20
-82.625
 70
     8
  0
VERTEX
  8
ガラス
 10
-56.4
 20
-82.65
 70
     8
  0
VERTEX
  8
ガラス
 10
-56.325
 20
-82.7
 70
     8
  0
VERTEX
  8
ガラス
 10
-56.25
 20
-82.775
 70
     8
  0
VERTEX
  8
ガラス
 10
-56.2
 20
-82.825
 70
     8
  0
VERTEX
  8
ガラス
 10
-56.125
 20
-82.875
 70
     8
  0
VERTEX
  8
ガラス
 10
-56.075
 20
-82.95
 70
     8
  0
VERTEX
  8
ガラス
 10
-56.0
 20
-83.0
 70
     8
  0
VERTEX
  8
ガラス
 10
-55.925
 20
-83.075
 70
     8
  0
VERTEX
  8
ガラス
 10
-55.875
 20
-83.125
 70
     8
  0
VERTEX
  8
ガラス
 10
-55.8
 20
-83.2
 70
     8
  0
VERTEX
  8
ガラス
 10
-55.75
 20
-83.275
 70
     8
  0
VERTEX
  8
ガラス
 10
-55.7
 20
-83.325
 70
     8
  0
VERTEX
  8
ガラス
 10
-55.625
 20
-83.4
 70
     8
  0
VERTEX
  8
ガラス
 10
-55.575
 20
-83.475
 70
     8
  0
VERTEX
  8
ガラス
 10
-55.5
 20
-83.55
 70
     8
  0
SEQEND
  0
POLYLINE
  8
ガラス
  6
CONTINUOUS
 66
     1
 70
     4
  0
VERTEX
  8
ガラス
 10
-55.5
 20
-83.55
 70
     8
  0
VERTEX
  8
ガラス
 10
-55.575
 20
-83.55
 70
     8
  0
VERTEX
  8
ガラス
 10
-55.625
 20
-83.55
 70
     8
  0
VERTEX
  8
ガラス
 10
-55.7
 20
-83.575
 70
     8
  0
VERTEX
  8
ガラス
 10
-55.75
 20
-83.575
 70
     8
  0
VERTEX
  8
ガラス
 10
-55.8
 20
-83.575
 70
     8
  0
VERTEX
  8
ガラス
 10
-55.875
 20
-83.6
 70
     8
  0
VERTEX
  8
ガラス
 10
-55.925
 20
-83.6
 70
     8
  0
VERTEX
  8
ガラス
 10
-56.0
 20
-83.6
 70
     8
  0
VERTEX
  8
ガラス
 10
-56.05
 20
-83.6
 70
     8
  0
VERTEX
  8
ガラス
 10
-56.125
 20
-83.625
 70
     8
  0
VERTEX
  8
ガラス
 10
-56.175
 20
-83.625
 70
     8
  0
VERTEX
  8
ガラス
 10
-56.225
 20
-83.65
 70
     8
  0
VERTEX
  8
ガラス
 10
-56.3
 20
-83.65
 70
     8
  0
VERTEX
  8
ガラス
 10
-56.35
 20
-83.65
 70
     8
  0
VERTEX
  8
ガラス
 10
-56.425
 20
-83.675
 70
     8
  0
VERTEX
  8
ガラス
 10
-56.475
 20
-83.675
 70
     8
  0
VERTEX
  8
ガラス
 10
-56.55
 20
-83.7
 70
     8
  0
VERTEX
  8
ガラス
 10
-56.6
 20
-83.7
 70
     8
  0
VERTEX
  8
ガラス
 10
-56.65
 20
-83.725
 70
     8
  0
VERTEX
  8
ガラス
 10
-56.725
 20
-83.725
 70
     8
  0
VERTEX
  8
ガラス
 10
-56.775
 20
-83.75
 70
     8
  0
VERTEX
  8
ガラス
 10
-56.825
 20
-83.775
 70
     8
  0
VERTEX
  8
ガラス
 10
-56.9
 20
-83.775
 70
     8
  0
VERTEX
  8
ガラス
 10
-56.95
 20
-83.8
 70
     8
  0
VERTEX
  8
ガラス
 10
-57.0
 20
-83.825
 70
     8
  0
VERTEX
  8
ガラス
 10
-57.075
 20
-83.825
 70
     8
  0
VERTEX
  8
ガラス
 10
-57.125
 20
-83.85
 70
     8
  0
VERTEX
  8
ガラス
 10
-57.175
 20
-83.875
 70
     8
  0
VERTEX
  8
ガラス
 10
-57.25
 20
-83.9
 70
     8
  0
VERTEX
  8
ガラス
 10
-57.3
 20
-83.925
 70
     8
  0
VERTEX
  8
ガラス
 10
-57.35
 20
-83.95
 70
     8
  0
VERTEX
  8
ガラス
 10
-57.425
 20
-83.95
 70
     8
  0
VERTEX
  8
ガラス
 10
-57.475
 20
-83.975
 70
     8
  0
VERTEX
  8
ガラス
 10
-57.525
 20
-84.0
 70
     8
  0
VERTEX
  8
ガラス
 10
-57.575
 20
-84.025
 70
     8
  0
VERTEX
  8
ガラス
 10
-57.65
 20
-84.05
 70
     8
  0
VERTEX
  8
ガラス
 10
-57.7
 20
-84.075
 70
     8
  0
VERTEX
  8
ガラス
 10
-57.75
 20
-84.1
 70
     8
  0
VERTEX
  8
ガラス
 10
-57.825
 20
-84.125
 70
     8
  0
VERTEX
  8
ガラス
 10
-57.875
 20
-84.15
 70
     8
  0
SEQEND
  0
ARC
  8
ガラス
  6
CONTINUOUS
 10
-58.219891
 20
-83.249742
 40
0.955135
 50
112.264588
 51
292.264588
  0
ENDBLK
  0
BLOCK
  2
*GRP_0082
 70
    65
 10
0.0
 20
0.0
  0
POLYLINE
  8
ガラス
  6
CONTINUOUS
 66
     1
 70
     4
  0
VERTEX
  8
ガラス
 10
-80.25
 20
-88.725
 70
     8
  0
VERTEX
  8
ガラス
 10
-80.2
 20
-88.65
 70
     8
  0
VERTEX
  8
ガラス
 10
-80.175
 20
-88.55
 70
     8
  0
VERTEX
  8
ガラス
 10
-80.125
 20
-88.475
 70
     8
  0
VERTEX
  8
ガラス
 10
-80.1
 20
-88.4
 70
     8
  0
VERTEX
  8
ガラス
 10
-80.05
 20
-88.3
 70
     8
  0
VERTEX
  8
ガラス
 10
-80.025
 20
-88.225
 70
     8
  0
VERTEX
  8
ガラス
 10
-79.975
 20
-88.125
 70
     8
  0
VERTEX
  8
ガラス
 10
-79.95
 20
-88.05
 70
     8
  0
VERTEX
  8
ガラス
 10
-79.9
 20
-87.975
 70
     8
  0
VERTEX
  8
ガラス
 10
-79.85
 20
-87.9
 70
     8
  0
VERTEX
  8
ガラス
 10
-79.825
 20
-87.825
 70
     8
  0
VERTEX
  8
ガラス
 10
-79.775
 20
-87.75
 70
     8
  0
VERTEX
  8
ガラス
 10
-79.725
 20
-87.675
 70
     8
  0
VERTEX
  8
ガラス
 10
-79.675
 20
-87.6
 70
     8
  0
VERTEX
  8
ガラス
 10
-79.625
 20
-87.525
 70
     8
  0
VERTEX
  8
ガラス
 10
-79.575
 20
-87.45
 70
     8
  0
VERTEX
  8
ガラス
 10
-79.525
 20
-87.4
 70
     8
  0
VERTEX
  8
ガラス
 10
-79.475
 20
-87.325
 70
     8
  0
VERTEX
  8
ガラス
 10
-79.4
 20
-87.275
 70
     8
  0
VERTEX
  8
ガラス
 10
-79.35
 20
-87.225
 70
     8
  0
VERTEX
  8
ガラス
 10
-79.275
 20
-87.175
 70
     8
  0
VERTEX
  8
ガラス
 10
-79.225
 20
-87.125
 70
     8
  0
VERTEX
  8
ガラス
 10
-79.15
 20
-87.075
 70
     8
  0
VERTEX
  8
ガラス
 10
-79.075
 20
-87.025
 70
     8
  0
VERTEX
  8
ガラス
 10
-79.0
 20
-87.0
 70
     8
  0
VERTEX
  8
ガラス
 10
-78.925
 20
-86.95
 70
     8
  0
VERTEX
  8
ガラス
 10
-78.85
 20
-86.925
 70
     8
  0
VERTEX
  8
ガラス
 10
-78.775
 20
-86.875
 70
     8
  0
VERTEX
  8
ガラス
 10
-78.675
 20
-86.85
 70
     8
  0
VERTEX
  8
ガラス
 10
-78.6
 20
-86.825
 70
     8
  0
VERTEX
  8
ガラス
 10
-78.525
 20
-86.8
 70
     8
  0
VERTEX
  8
ガラス
 10
-78.425
 20
-86.775
 70
     8
  0
VERTEX
  8
ガラス
 10
-78.35
 20
-86.75
 70
     8
  0
VERTEX
  8
ガラス
 10
-78.25
 20
-86.725
 70
     8
  0
VERTEX
  8
ガラス
 10
-78.175
 20
-86.7
 70
     8
  0
VERTEX
  8
ガラス
 10
-78.075
 20
-86.675
 70
     8
  0
VERTEX
  8
ガラス
 10
-77.975
 20
-86.65
 70
     8
  0
VERTEX
  8
ガラス
 10
-77.9
 20
-86.65
 70
     8
  0
VERTEX
  8
ガラス
 10
-77.8
 20
-86.625
 70
     8
  0
VERTEX
  8
ガラス
 10
-77.725
 20
-86.6
 70
     8
  0
SEQEND
  0
POLYLINE
  8
ガラス
  6
CONTINUOUS
 66
     1
 70
     4
  0
VERTEX
  8
ガラス
 10
-77.725
 20
-86.6
 70
     8
  0
VERTEX
  8
ガラス
 10
-77.75
 20
-86.65
 70
     8
  0
VERTEX
  8
ガラス
 10
-77.75
 20
-86.725
 70
     8
  0
VERTEX
  8
ガラス
 10
-77.775
 20
-86.775
 70
     8
  0
VERTEX
  8
ガラス
 10
-77.8
 20
-86.825
 70
     8
  0
VERTEX
  8
ガラス
 10
-77.825
 20
-86.875
 70
     8
  0
VERTEX
  8
ガラス
 10
-77.85
 20
-86.95
 70
     8
  0
VERTEX
  8
ガラス
 10
-77.875
 20
-87.0
 70
     8
  0
VERTEX
  8
ガラス
 10
-77.9
 20
-87.05
 70
     8
  0
VERTEX
  8
ガラス
 10
-77.925
 20
-87.125
 70
     8
  0
VERTEX
  8
ガラス
 10
-77.95
 20
-87.175
 70
     8
  0
VERTEX
  8
ガラス
 10
-77.975
 20
-87.225
 70
     8
  0
VERTEX
  8
ガラス
 10
-78.0
 20
-87.3
 70
     8
  0
VERTEX
  8
ガラス
 10
-78.0
 20
-87.35
 70
     8
  0
VERTEX
  8
ガラス
 10
-78.025
 20
-87.4
 70
     8
  0
VERTEX
  8
ガラス
 10
-78.05
 20
-87.45
 70
     8
  0
VERTEX
  8
ガラス
 10
-78.075
 20
-87.525
 70
     8
  0
VERTEX
  8
ガラス
 10
-78.1
 20
-87.575
 70
     8
  0
VERTEX
  8
ガラス
 10
-78.1
 20
-87.625
 70
     8
  0
VERTEX
  8
ガラス
 10
-78.125
 20
-87.7
 70
     8
  0
VERTEX
  8
ガラス
 10
-78.15
 20
-87.75
 70
     8
  0
VERTEX
  8
ガラス
 10
-78.15
 20
-87.8
 70
     8
  0
VERTEX
  8
ガラス
 10
-78.175
 20
-87.875
 70
     8
  0
VERTEX
  8
ガラス
 10
-78.175
 20
-87.925
 70
     8
  0
VERTEX
  8
ガラス
 10
-78.2
 20
-88.0
 70
     8
  0
VERTEX
  8
ガラス
 10
-78.2
 20
-88.05
 70
     8
  0
VERTEX
  8
ガラス
 10
-78.225
 20
-88.1
 70
     8
  0
VERTEX
  8
ガラス
 10
-78.225
 20
-88.175
 70
     8
  0
VERTEX
  8
ガラス
 10
-78.25
 20
-88.225
 70
     8
  0
VERTEX
  8
ガラス
 10
-78.25
 20
-88.3
 70
     8
  0
VERTEX
  8
ガラス
 10
-78.275
 20
-88.35
 70
     8
  0
VERTEX
  8
ガラス
 10
-78.275
 20
-88.4
 70
     8
  0
VERTEX
  8
ガラス
 10
-78.275
 20
-88.475
 70
     8
  0
VERTEX
  8
ガラス
 10
-78.3
 20
-88.525
 70
     8
  0
VERTEX
  8
ガラス
 10
-78.3
 20
-88.6
 70
     8
  0
VERTEX
  8
ガラス
 10
-78.3
 20
-88.65
 70
     8
  0
VERTEX
  8
ガラス
 10
-78.325
 20
-88.725
 70
     8
  0
VERTEX
  8
ガラス
 10
-78.325
 20
-88.775
 70
     8
  0
VERTEX
  8
ガラス
 10
-78.325
 20
-88.85
 70
     8
  0
VERTEX
  8
ガラス
 10
-78.325
 20
-88.9
 70
     8
  0
VERTEX
  8
ガラス
 10
-78.35
 20
-88.95
 70
     8
  0
SEQEND
  0
ARC
  8
ガラス
  6
CONTINUOUS
 10
-79.278629
 20
-88.834285
 40
0.955135
 50
173.117443
 51
353.117443
  0
ENDBLK
  0
BLOCK
  2
*GRP_0083
 70
    65
 10
0.0
 20
0.0
  0
POLYLINE
  8
ガラス
  6
CONTINUOUS
 66
     1
 70
     4
  0
VERTEX
  8
ガラス
 10
-83.15
 20
-100.425
 70
     8
  0
VERTEX
  8
ガラス
 10
-83.125
 20
-100.35
 70
     8
  0
VERTEX
  8
ガラス
 10
-83.075
 20
-100.25
 70
     8
  0
VERTEX
  8
ガラス
 10
-83.05
 20
-100.175
 70
     8
  0
VERTEX
  8
ガラス
 10
-83.0
 20
-100.075
 70
     8
  0
VERTEX
  8
ガラス
 10
-82.975
 20
-100.0
 70
     8
  0
VERTEX
  8
ガラス
 10
-82.925
 20
-99.925
 70
     8
  0
VERTEX
  8
ガラス
 10
-82.9
 20
-99.825
 70
     8
  0
VERTEX
  8
ガラス
 10
-82.85
 20
-99.75
 70
     8
  0
VERTEX
  8
ガラス
 10
-82.8
 20
-99.675
 70
     8
  0
VERTEX
  8
ガラス
 10
-82.775
 20
-99.6
 70
     8
  0
VERTEX
  8
ガラス
 10
-82.725
 20
-99.525
 70
     8
  0
VERTEX
  8
ガラス
 10
-82.675
 20
-99.45
 70
     8
  0
VERTEX
  8
ガラス
 10
-82.625
 20
-99.375
 70
     8
  0
VERTEX
  8
ガラス
 10
-82.575
 20
-99.3
 70
     8
  0
VERTEX
  8
ガラス
 10
-82.525
 20
-99.225
 70
     8
  0
VERTEX
  8
ガラス
 10
-82.475
 20
-99.15
 70
     8
  0
VERTEX
  8
ガラス
 10
-82.425
 20
-99.1
 70
     8
  0
VERTEX
  8
ガラス
 10
-82.375
 20
-99.025
 70
     8
  0
VERTEX
  8
ガラス
 10
-82.325
 20
-98.975
 70
     8
  0
VERTEX
  8
ガラス
 10
-82.25
 20
-98.925
 70
     8
  0
VERTEX
  8
ガラス
 10
-82.2
 20
-98.875
 70
     8
  0
VERTEX
  8
ガラス
 10
-82.125
 20
-98.825
 70
     8
  0
VERTEX
  8
ガラス
 10
-82.05
 20
-98.775
 70
     8
  0
VERTEX
  8
ガラス
 10
-81.975
 20
-98.725
 70
     8
  0
VERTEX
  8
ガラス
 10
-81.9
 20
-98.7
 70
     8
  0
VERTEX
  8
ガラス
 10
-81.825
 20
-98.65
 70
     8
  0
VERTEX
  8
ガラス
 10
-81.75
 20
-98.625
 70
     8
  0
VERTEX
  8
ガラス
 10
-81.675
 20
-98.575
 70
     8
  0
VERTEX
  8
ガラス
 10
-81.6
 20
-98.55
 70
     8
  0
VERTEX
  8
ガラス
 10
-81.5
 20
-98.525
 70
     8
  0
VERTEX
  8
ガラス
 10
-81.425
 20
-98.5
 70
     8
  0
VERTEX
  8
ガラス
 10
-81.35
 20
-98.475
 70
     8
  0
VERTEX
  8
ガラス
 10
-81.25
 20
-98.45
 70
     8
  0
VERTEX
  8
ガラス
 10
-81.175
 20
-98.425
 70
     8
  0
VERTEX
  8
ガラス
 10
-81.075
 20
-98.4
 70
     8
  0
VERTEX
  8
ガラス
 10
-80.975
 20
-98.375
 70
     8
  0
VERTEX
  8
ガラス
 10
-80.9
 20
-98.35
 70
     8
  0
VERTEX
  8
ガラス
 10
-80.8
 20
-98.35
 70
     8
  0
VERTEX
  8
ガラス
 10
-80.725
 20
-98.325
 70
     8
  0
VERTEX
  8
ガラス
 10
-80.625
 20
-98.3
 70
     8
  0
SEQEND
  0
POLYLINE
  8
ガラス
  6
CONTINUOUS
 66
     1
 70
     4
  0
VERTEX
  8
ガラス
 10
-80.625
 20
-98.3
 70
     8
  0
VERTEX
  8
ガラス
 10
-80.65
 20
-98.35
 70
     8
  0
VERTEX
  8
ガラス
 10
-80.675
 20
-98.425
 70
     8
  0
VERTEX
  8
ガラス
 10
-80.7
 20
-98.475
 70
     8
  0
VERTEX
  8
ガラス
 10
-80.725
 20
-98.525
 70
     8
  0
VERTEX
  8
ガラス
 10
-80.75
 20
-98.575
 70
     8
  0
VERTEX
  8
ガラス
 10
-80.775
 20
-98.65
 70
     8
  0
VERTEX
  8
ガラス
 10
-80.8
 20
-98.7
 70
     8
  0
VERTEX
  8
ガラス
 10
-80.825
 20
-98.75
 70
     8
  0
VERTEX
  8
ガラス
 10
-80.825
 20
-98.825
 70
     8
  0
VERTEX
  8
ガラス
 10
-80.85
 20
-98.875
 70
     8
  0
VERTEX
  8
ガラス
 10
-80.875
 20
-98.925
 70
     8
  0
VERTEX
  8
ガラス
 10
-80.9
 20
-98.975
 70
     8
  0
VERTEX
  8
ガラス
 10
-80.925
 20
-99.05
 70
     8
  0
VERTEX
  8
ガラス
 10
-80.95
 20
-99.1
 70
     8
  0
VERTEX
  8
ガラス
 10
-80.95
 20
-99.15
 70
     8
  0
VERTEX
  8
ガラス
 10
-80.975
 20
-99.225
 70
     8
  0
VERTEX
  8
ガラス
 10
-81.0
 20
-99.275
 70
     8
  0
VERTEX
  8
ガラス
 10
-81.025
 20
-99.325
 70
     8
  0
VERTEX
  8
ガラス
 10
-81.025
 20
-99.4
 70
     8
  0
VERTEX
  8
ガラス
 10
-81.05
 20
-99.45
 70
     8
  0
VERTEX
  8
ガラス
 10
-81.075
 20
-99.5
 70
     8
  0
VERTEX
  8
ガラス
 10
-81.075
 20
-99.575
 70
     8
  0
VERTEX
  8
ガラス
 10
-81.1
 20
-99.625
 70
     8
  0
VERTEX
  8
ガラス
 10
-81.1
 20
-99.7
 70
     8
  0
VERTEX
  8
ガラス
 10
-81.125
 20
-99.75
 70
     8
  0
VERTEX
  8
ガラス
 10
-81.125
 20
-99.8
 70
     8
  0
VERTEX
  8
ガラス
 10
-81.15
 20
-99.875
 70
     8
  0
VERTEX
  8
ガラス
 10
-81.15
 20
-99.925
 70
     8
  0
VERTEX
  8
ガラス
 10
-81.175
 20
-100.0
 70
     8
  0
VERTEX
  8
ガラス
 10
-81.175
 20
-100.05
 70
     8
  0
VERTEX
  8
ガラス
 10
-81.175
 20
-100.1
 70
     8
  0
VERTEX
  8
ガラス
 10
-81.2
 20
-100.175
 70
     8
  0
VERTEX
  8
ガラス
 10
-81.2
 20
-100.225
 70
     8
  0
VERTEX
  8
ガラス
 10
-81.2
 20
-100.3
 70
     8
  0
VERTEX
  8
ガラス
 10
-81.225
 20
-100.35
 70
     8
  0
VERTEX
  8
ガラス
 10
-81.225
 20
-100.425
 70
     8
  0
VERTEX
  8
ガラス
 10
-81.225
 20
-100.475
 70
     8
  0
VERTEX
  8
ガラス
 10
-81.25
 20
-100.525
 70
     8
  0
VERTEX
  8
ガラス
 10
-81.25
 20
-100.6
 70
     8
  0
VERTEX
  8
ガラス
 10
-81.25
 20
-100.65
 70
     8
  0
SEQEND
  0
ARC
  8
ガラス
  6
CONTINUOUS
 10
-82.188682
 20
-100.532697
 40
0.955135
 50
173.117443
 51
353.117443
  0
ENDBLK
  0
BLOCK
  2
*GRP_0084
 70
    65
 10
0.0
 20
0.0
  0
POLYLINE
  8
ガラス
  6
CONTINUOUS
 66
     1
 70
     4
  0
VERTEX
  8
ガラス
 10
-24.625
 20
-43.75
 70
     8
  0
VERTEX
  8
ガラス
 10
-24.675
 20
-43.65
 70
     8
  0
VERTEX
  8
ガラス
 10
-24.7
 20
-43.575
 70
     8
  0
VERTEX
  8
ガラス
 10
-24.75
 20
-43.475
 70
     8
  0
VERTEX
  8
ガラス
 10
-24.775
 20
-43.4
 70
     8
  0
VERTEX
  8
ガラス
 10
-24.825
 20
-43.3
 70
     8
  0
VERTEX
  8
ガラス
 10
-24.85
 20
-43.225
 70
     8
  0
VERTEX
  8
ガラス
 10
-24.9
 20
-43.15
 70
     8
  0
VERTEX
  8
ガラス
 10
-24.925
 20
-43.075
 70
     8
  0
VERTEX
  8
ガラス
 10
-24.975
 20
-42.975
 70
     8
  0
VERTEX
  8
ガラス
 10
-25.0
 20
-42.9
 70
     8
  0
VERTEX
  8
ガラス
 10
-25.05
 20
-42.825
 70
     8
  0
VERTEX
  8
ガラス
 10
-25.1
 20
-42.75
 70
     8
  0
VERTEX
  8
ガラス
 10
-25.15
 20
-42.675
 70
     8
  0
VERTEX
  8
ガラス
 10
-25.2
 20
-42.6
 70
     8
  0
VERTEX
  8
ガラス
 10
-25.25
 20
-42.525
 70
     8
  0
VERTEX
  8
ガラス
 10
-25.3
 20
-42.475
 70
     8
  0
VERTEX
  8
ガラス
 10
-25.35
 20
-42.4
 70
     8
  0
VERTEX
  8
ガラス
 10
-25.4
 20
-42.35
 70
     8
  0
VERTEX
  8
ガラス
 10
-25.475
 20
-42.275
 70
     8
  0
VERTEX
  8
ガラス
 10
-25.525
 20
-42.225
 70
     8
  0
VERTEX
  8
ガラス
 10
-25.6
 20
-42.175
 70
     8
  0
VERTEX
  8
ガラス
 10
-25.65
 20
-42.125
 70
     8
  0
VERTEX
  8
ガラス
 10
-25.725
 20
-42.075
 70
     8
  0
VERTEX
  8
ガラス
 10
-25.8
 20
-42.05
 70
     8
  0
VERTEX
  8
ガラス
 10
-25.875
 20
-42.0
 70
     8
  0
VERTEX
  8
ガラス
 10
-25.95
 20
-41.95
 70
     8
  0
VERTEX
  8
ガラス
 10
-26.025
 20
-41.925
 70
     8
  0
VERTEX
  8
ガラス
 10
-26.1
 20
-41.9
 70
     8
  0
VERTEX
  8
ガラス
 10
-26.175
 20
-41.85
 70
     8
  0
VERTEX
  8
ガラス
 10
-26.275
 20
-41.825
 70
     8
  0
VERTEX
  8
ガラス
 10
-26.35
 20
-41.8
 70
     8
  0
VERTEX
  8
ガラス
 10
-26.45
 20
-41.775
 70
     8
  0
VERTEX
  8
ガラス
 10
-26.525
 20
-41.75
 70
     8
  0
VERTEX
  8
ガラス
 10
-26.625
 20
-41.725
 70
     8
  0
VERTEX
  8
ガラス
 10
-26.7
 20
-41.7
 70
     8
  0
VERTEX
  8
ガラス
 10
-26.8
 20
-41.7
 70
     8
  0
VERTEX
  8
ガラス
 10
-26.875
 20
-41.675
 70
     8
  0
VERTEX
  8
ガラス
 10
-26.975
 20
-41.65
 70
     8
  0
VERTEX
  8
ガラス
 10
-27.075
 20
-41.625
 70
     8
  0
VERTEX
  8
ガラス
 10
-27.15
 20
-41.6
 70
     8
  0
SEQEND
  0
POLYLINE
  8
ガラス
  6
CONTINUOUS
 66
     1
 70
     4
  0
VERTEX
  8
ガラス
 10
-27.15
 20
-41.6
 70
     8
  0
VERTEX
  8
ガラス
 10
-27.125
 20
-41.675
 70
     8
  0
VERTEX
  8
ガラス
 10
-27.1
 20
-41.725
 70
     8
  0
VERTEX
  8
ガラス
 10
-27.075
 20
-41.775
 70
     8
  0
VERTEX
  8
ガラス
 10
-27.05
 20
-41.85
 70
     8
  0
VERTEX
  8
ガラス
 10
-27.025
 20
-41.9
 70
     8
  0
VERTEX
  8
ガラス
 10
-27.025
 20
-41.95
 70
     8
  0
VERTEX
  8
ガラス
 10
-27.0
 20
-42.0
 70
     8
  0
VERTEX
  8
ガラス
 10
-26.975
 20
-42.075
 70
     8
  0
VERTEX
  8
ガラス
 10
-26.95
 20
-42.125
 70
     8
  0
VERTEX
  8
ガラス
 10
-26.925
 20
-42.175
 70
     8
  0
VERTEX
  8
ガラス
 10
-26.9
 20
-42.25
 70
     8
  0
VERTEX
  8
ガラス
 10
-26.875
 20
-42.3
 70
     8
  0
VERTEX
  8
ガラス
 10
-26.85
 20
-42.35
 70
     8
  0
VERTEX
  8
ガラス
 10
-26.825
 20
-42.4
 70
     8
  0
VERTEX
  8
ガラス
 10
-26.825
 20
-42.475
 70
     8
  0
VERTEX
  8
ガラス
 10
-26.8
 20
-42.525
 70
     8
  0
VERTEX
  8
ガラス
 10
-26.775
 20
-42.575
 70
     8
  0
VERTEX
  8
ガラス
 10
-26.75
 20
-42.65
 70
     8
  0
VERTEX
  8
ガラス
 10
-26.75
 20
-42.7
 70
     8
  0
VERTEX
  8
ガラス
 10
-26.725
 20
-42.75
 70
     8
  0
VERTEX
  8
ガラス
 10
-26.7
 20
-42.825
 70
     8
  0
VERTEX
  8
ガラス
 10
-26.7
 20
-42.875
 70
     8
  0
VERTEX
  8
ガラス
 10
-26.675
 20
-42.95
 70
     8
  0
VERTEX
  8
ガラス
 10
-26.675
 20
-43.0
 70
     8
  0
VERTEX
  8
ガラス
 10
-26.65
 20
-43.05
 70
     8
  0
VERTEX
  8
ガラス
 10
-26.65
 20
-43.125
 70
     8
  0
VERTEX
  8
ガラス
 10
-26.625
 20
-43.175
 70
     8
  0
VERTEX
  8
ガラス
 10
-26.625
 20
-43.25
 70
     8
  0
VERTEX
  8
ガラス
 10
-26.625
 20
-43.3
 70
     8
  0
VERTEX
  8
ガラス
 10
-26.6
 20
-43.35
 70
     8
  0
VERTEX
  8
ガラス
 10
-26.6
 20
-43.425
 70
     8
  0
VERTEX
  8
ガラス
 10
-26.575
 20
-43.475
 70
     8
  0
VERTEX
  8
ガラス
 10
-26.575
 20
-43.55
 70
     8
  0
VERTEX
  8
ガラス
 10
-26.575
 20
-43.6
 70
     8
  0
VERTEX
  8
ガラス
 10
-26.55
 20
-43.675
 70
     8
  0
VERTEX
  8
ガラス
 10
-26.55
 20
-43.725
 70
     8
  0
VERTEX
  8
ガラス
 10
-26.55
 20
-43.775
 70
     8
  0
VERTEX
  8
ガラス
 10
-26.55
 20
-43.85
 70
     8
  0
VERTEX
  8
ガラス
 10
-26.525
 20
-43.9
 70
     8
  0
VERTEX
  8
ガラス
 10
-26.525
 20
-43.975
 70
     8
  0
SEQEND
  0
ARC
  8
ガラス
  6
CONTINUOUS
 10
-25.565713
 20
-43.842883
 40
0.955135
 50
186.882557
 51
366.882557
  0
ENDBLK
  0
BLOCK
  2
*GRP_0085
 70
    65
 10
0.0
 20
0.0
  0
POLYLINE
  8
ガラス
  6
CONTINUOUS
 66
     1
 70
     4
  0
VERTEX
  8
ガラス
 10
-22.775
 20
-51.65
 70
     8
  0
VERTEX
  8
ガラス
 10
-22.8
 20
-51.575
 70
     8
  0
VERTEX
  8
ガラス
 10
-22.85
 20
-51.475
 70
     8
  0
VERTEX
  8
ガラス
 10
-22.875
 20
-51.4
 70
     8
  0
VERTEX
  8
ガラス
 10
-22.925
 20
-51.3
 70
     8
  0
VERTEX
  8
ガラス
 10
-22.95
 20
-51.225
 70
     8
  0
VERTEX
  8
ガラス
 10
-23.0
 20
-51.15
 70
     8
  0
VERTEX
  8
ガラス
 10
-23.025
 20
-51.05
 70
     8
  0
VERTEX
  8
ガラス
 10
-23.075
 20
-50.975
 70
     8
  0
VERTEX
  8
ガラス
 10
-23.1
 20
-50.9
 70
     8
  0
VERTEX
  8
ガラス
 10
-23.15
 20
-50.825
 70
     8
  0
VERTEX
  8
ガラス
 10
-23.2
 20
-50.75
 70
     8
  0
VERTEX
  8
ガラス
 10
-23.225
 20
-50.675
 70
     8
  0
VERTEX
  8
ガラス
 10
-23.275
 20
-50.6
 70
     8
  0
VERTEX
  8
ガラス
 10
-23.325
 20
-50.525
 70
     8
  0
VERTEX
  8
ガラス
 10
-23.375
 20
-50.45
 70
     8
  0
VERTEX
  8
ガラス
 10
-23.425
 20
-50.375
 70
     8
  0
VERTEX
  8
ガラス
 10
-23.5
 20
-50.325
 70
     8
  0
VERTEX
  8
ガラス
 10
-23.55
 20
-50.25
 70
     8
  0
VERTEX
  8
ガラス
 10
-23.6
 20
-50.2
 70
     8
  0
VERTEX
  8
ガラス
 10
-23.675
 20
-50.15
 70
     8
  0
VERTEX
  8
ガラス
 10
-23.725
 20
-50.1
 70
     8
  0
VERTEX
  8
ガラス
 10
-23.8
 20
-50.05
 70
     8
  0
VERTEX
  8
ガラス
 10
-23.875
 20
-50.0
 70
     8
  0
VERTEX
  8
ガラス
 10
-23.925
 20
-49.95
 70
     8
  0
VERTEX
  8
ガラス
 10
-24.0
 20
-49.925
 70
     8
  0
VERTEX
  8
ガラス
 10
-24.075
 20
-49.875
 70
     8
  0
VERTEX
  8
ガラス
 10
-24.15
 20
-49.85
 70
     8
  0
VERTEX
  8
ガラス
 10
-24.25
 20
-49.8
 70
     8
  0
VERTEX
  8
ガラス
 10
-24.325
 20
-49.775
 70
     8
  0
VERTEX
  8
ガラス
 10
-24.4
 20
-49.75
 70
     8
  0
VERTEX
  8
ガラス
 10
-24.5
 20
-49.725
 70
     8
  0
VERTEX
  8
ガラス
 10
-24.575
 20
-49.7
 70
     8
  0
VERTEX
  8
ガラス
 10
-24.675
 20
-49.675
 70
     8
  0
VERTEX
  8
ガラス
 10
-24.75
 20
-49.65
 70
     8
  0
VERTEX
  8
ガラス
 10
-24.85
 20
-49.625
 70
     8
  0
VERTEX
  8
ガラス
 10
-24.925
 20
-49.6
 70
     8
  0
VERTEX
  8
ガラス
 10
-25.025
 20
-49.575
 70
     8
  0
VERTEX
  8
ガラス
 10
-25.1
 20
-49.575
 70
     8
  0
VERTEX
  8
ガラス
 10
-25.2
 20
-49.55
 70
     8
  0
VERTEX
  8
ガラス
 10
-25.3
 20
-49.525
 70
     8
  0
SEQEND
  0
POLYLINE
  8
ガラス
  6
CONTINUOUS
 66
     1
 70
     4
  0
VERTEX
  8
ガラス
 10
-25.3
 20
-49.525
 70
     8
  0
VERTEX
  8
ガラス
 10
-25.275
 20
-49.575
 70
     8
  0
VERTEX
  8
ガラス
 10
-25.25
 20
-49.65
 70
     8
  0
VERTEX
  8
ガラス
 10
-25.225
 20
-49.7
 70
     8
  0
VERTEX
  8
ガラス
 10
-25.2
 20
-49.75
 70
     8
  0
VERTEX
  8
ガラス
 10
-25.175
 20
-49.8
 70
     8
  0
VERTEX
  8
ガラス
 10
-25.15
 20
-49.875
 70
     8
  0
VERTEX
  8
ガラス
 10
-25.125
 20
-49.925
 70
     8
  0
VERTEX
  8
ガラス
 10
-25.1
 20
-49.975
 70
     8
  0
VERTEX
  8
ガラス
 10
-25.075
 20
-50.05
 70
     8
  0
VERTEX
  8
ガラス
 10
-25.05
 20
-50.1
 70
     8
  0
VERTEX
  8
ガラス
 10
-25.025
 20
-50.15
 70
     8
  0
VERTEX
  8
ガラス
 10
-25.025
 20
-50.2
 70
     8
  0
VERTEX
  8
ガラス
 10
-25.0
 20
-50.275
 70
     8
  0
VERTEX
  8
ガラス
 10
-24.975
 20
-50.325
 70
     8
  0
VERTEX
  8
ガラス
 10
-24.95
 20
-50.375
 70
     8
  0
VERTEX
  8
ガラス
 10
-24.925
 20
-50.45
 70
     8
  0
VERTEX
  8
ガラス
 10
-24.925
 20
-50.5
 70
     8
  0
VERTEX
  8
ガラス
 10
-24.9
 20
-50.55
 70
     8
  0
VERTEX
  8
ガラス
 10
-24.875
 20
-50.625
 70
     8
  0
VERTEX
  8
ガラス
 10
-24.875
 20
-50.675
 70
     8
  0
VERTEX
  8
ガラス
 10
-24.85
 20
-50.725
 70
     8
  0
VERTEX
  8
ガラス
 10
-24.825
 20
-50.8
 70
     8
  0
VERTEX
  8
ガラス
 10
-24.825
 20
-50.85
 70
     8
  0
VERTEX
  8
ガラス
 10
-24.8
 20
-50.925
 70
     8
  0
VERTEX
  8
ガラス
 10
-24.8
 20
-50.975
 70
     8
  0
VERTEX
  8
ガラス
 10
-24.775
 20
-51.025
 70
     8
  0
VERTEX
  8
ガラス
 10
-24.775
 20
-51.1
 70
     8
  0
VERTEX
  8
ガラス
 10
-24.75
 20
-51.15
 70
     8
  0
VERTEX
  8
ガラス
 10
-24.75
 20
-51.225
 70
     8
  0
VERTEX
  8
ガラス
 10
-24.75
 20
-51.275
 70
     8
  0
VERTEX
  8
ガラス
 10
-24.725
 20
-51.325
 70
     8
  0
VERTEX
  8
ガラス
 10
-24.725
 20
-51.4
 70
     8
  0
VERTEX
  8
ガラス
 10
-24.725
 20
-51.45
 70
     8
  0
VERTEX
  8
ガラス
 10
-24.7
 20
-51.525
 70
     8
  0
VERTEX
  8
ガラス
 10
-24.7
 20
-51.575
 70
     8
  0
VERTEX
  8
ガラス
 10
-24.7
 20
-51.65
 70
     8
  0
VERTEX
  8
ガラス
 10
-24.675
 20
-51.7
 70
     8
  0
VERTEX
  8
ガラス
 10
-24.675
 20
-51.775
 70
     8
  0
VERTEX
  8
ガラス
 10
-24.675
 20
-51.825
 70
     8
  0
VERTEX
  8
ガラス
 10
-24.675
 20
-51.875
 70
     8
  0
SEQEND
  0
ARC
  8
ガラス
  6
CONTINUOUS
 10
-23.703279
 20
-51.758227
 40
0.955135
 50
186.882557
 51
366.882557
  0
ENDBLK
  0
BLOCK
  2
*GRP_0086
 70
    65
 10
0.0
 20
0.0
  0
LINE
  8
型材断面
  6
DOT
 10
-72.302165
 20
-76.954
 11
-74.302167
 21
-76.954
  0
LINE
  8
型材断面
  6
DOT
 10
-72.302165
 20
-84.954003
 11
-74.302167
 21
-84.954003
  0
LINE
  8
型材断面
  6
DOT
 10
-73.90217
 20
-84.954003
 11
-73.90217
 21
-76.954
  0
LINE
  8
型材断面
  6
DOT
 10
-73.502165
 20
-84.954003
 11
-73.502165
 21
-76.954
  0
LINE
  8
型材断面
  6
DOT
 10
-73.102167
 20
-84.954003
 11
-73.102167
 21
-76.954
  0
LINE
  8
型材断面
  6
DOT
 10
-72.702163
 20
-84.954003
 11
-72.702163
 21
-76.954
  0
ENDBLK
  0
BLOCK
  2
*GRP_0087
 70
    65
 10
0.0
 20
0.0
  0
LINE
  8
別途部材
  6
DOT
 10
-72.302165
 20
-74.954005
 11
-62.302167
 21
-74.954005
  0
LINE
  8
別途部材
  6
DOT
 10
-62.302167
 20
-84.954003
 11
-62.302167
 21
-74.954005
  0
INSERT
  2
*HAT_0016
  8
別途部材
 10
0.0
 20
0.0
  0
LINE
  8
別途部材
  6
DOT
 10
-72.302165
 20
-84.954003
 11
-72.302165
 21
-74.954005
  0
LINE
  8
別途部材
  6
DOT
 10
-72.302165
 20
-84.954003
 11
-62.302167
 21
-84.954003
  0
ENDBLK
  0
ENDSEC
  0
SECTION
  2
ENTITIES
  0
POLYLINE
  8
通り芯
  6
CONTINUOUS
 66
     1
 70
     1
  0
VERTEX
  8
通り芯
 10
-210.0
 20
-148.5
  0
VERTEX
  8
通り芯
 10
210.0
 20
-148.5
  0
VERTEX
  8
通り芯
 10
210.0
 20
148.5
  0
VERTEX
  8
通り芯
 10
-210.0
 20
148.5
  0
SEQEND
  0
INSERT
  2
*GRP_0066
  8
通り芯
  6
CONTINUOUS
 10
0.0
 20
0.0
  0
LINE
  8
型材断面
  6
DASHDOT
 10
43.20239
 20
130.5
 11
43.20239
 21
-130.5
  0
LINE
  8
型材断面
  6
CONTINUOUS
 10
43.20239
 20
67.566918
 11
48.265052
 21
68.822215
  0
LINE
  8
型材断面
  6
CONTINUOUS
 10
43.20239
 20
67.566918
 11
48.265052
 21
66.31162
  0
LINE
  8
型材断面
  6
CONTINUOUS
 10
48.265052
 20
68.822215
 11
48.265052
 21
66.31162
  0
LINE
  8
型材断面
  6
CONTINUOUS
 10
-6.278972
 20
-24.974453
 11
14.580782
 21
-45.833765
  0
LINE
  8
型材断面
  6
CONTINUOUS
 10
-12.501102
 20
-15.923343
 11
52.44538
 21
49.021125
  0
LINE
  8
型材断面
  6
CONTINUOUS
 10
-11.584652
 20
-22.497092
 11
56.190462
 21
45.275928
  0
LINE
  8
型材断面
  6
CONTINUOUS
 10
-14.480995
 20
-13.943433
 11
50.46551
 21
51.001055
  0
LINE
  8
型材断面
  6
CONTINUOUS
 10
-8.402725
 20
-25.679122
 11
59.372395
 21
42.093895
  0
LINE
  8
型材断面
  6
CONTINUOUS
 10
-6.278935
 20
-24.97449
 11
60.08194
 21
41.384327
  0
LINE
  8
型材断面
  6
CONTINUOUS
 10
0.0851
 20
-31.33839
 11
66.445805
 21
35.020265
  0
LINE
  8
型材断面
  6
CONTINUOUS
 10
6.802728
 20
-38.05547
 11
73.163057
 21
28.302805
  0
LINE
  8
型材断面
  6
CONTINUOUS
 10
14.580782
 20
-45.833765
 11
80.941113
 21
20.52451
  0
LINE
  8
型材断面
  6
CONTINUOUS
 10
43.20239
 20
67.566918
 11
154.058197
 21
67.566918
  0
LINE
  8
型材断面
  6
CONTINUOUS
 10
154.058197
 20
67.566918
 11
148.995535
 21
68.822215
  0
LINE
  8
型材断面
  6
CONTINUOUS
 10
154.058197
 20
67.566918
 11
148.995535
 21
66.31162
  0
LINE
  8
型材断面
  6
CONTINUOUS
 10
148.995535
 20
68.822215
 11
148.995535
 21
66.31162
  0
LINE
  8
型材断面
  6
CONTINUOUS
 10
152.011708
 20
67.566918
 11
146.949045
 21
68.822215
  0
LINE
  8
型材断面
  6
CONTINUOUS
 10
152.011708
 20
67.566918
 11
146.949045
 21
66.31162
  0
LINE
  8
型材断面
  6
CONTINUOUS
 10
146.949045
 20
68.822215
 11
146.949045
 21
66.31162
  0
INSERT
  2
*GRP_0012
  8
型材断面
  6
CONTINUOUS
 62
    47
 10
0.0
 20
0.0
  0
INSERT
  2
*GRP_0013
  8
型材断面
  6
CONTINUOUS
 62
    47
 10
0.0
 20
0.0
  0
INSERT
  2
*GRP_0014
  8
型材断面
  6
CONTINUOUS
 62
    47
 10
0.0
 20
0.0
  0
INSERT
  2
*GRP_0020
  8
型材断面
  6
CONTINUOUS
 10
0.0
 20
0.0
  0
LINE
  8
型材断面
  6
CONTINUOUS
 10
-97.763882
 20
91.495058
 11
-123.324835
 21
65.934102
  0
LINE
  8
型材断面
  6
CONTINUOUS
 10
-114.451375
 20
108.18255
 11
-137.183537
 21
85.45039
  0
LINE
  8
型材断面
  6
CONTINUOUS
 10
-110.20889
 20
103.940063
 11
-132.94114
 21
81.207813
  0
LINE
  8
型材断面
  6
CONTINUOUS
 10
-107.380368
 20
101.111543
 11
-132.94125
 21
75.55066
  0
POLYLINE
  8
型材断面
  6
CONTINUOUS
 66
     1
 70
     1
  0
VERTEX
  8
型材断面
 10
-95.007155
 20
125.252832
  0
VERTEX
  8
型材断面
 10
-173.14669
 20
125.252832
  0
VERTEX
  8
型材断面
 10
-173.14669
 20
39.5164
  0
VERTEX
  8
型材断面
 10
-95.007155
 20
39.5164
  0
SEQEND
  0
INSERT
  2
*GRP_0033
  8
型材断面
  6
CONTINUOUS
 62
    47
 10
0.0
 20
0.0
  0
INSERT
  2
*GRP_0034
  8
型材断面
  6
CONTINUOUS
 62
    47
 10
0.0
 20
0.0
  0
INSERT
  2
*GRP_0046
  8
型材断面
  6
CONTINUOUS
 10
0.0
 20
0.0
  0
INSERT
  2
*GRP_0047
  8
型材断面
  6
CONTINUOUS
 10
0.0
 20
0.0
  0
LINE
  8
型材断面
  6
DOT
 10
-136.084972
 20
57.128385
 11
-137.287053
 21
58.330467
  0
LINE
  8
型材断面
  6
DOT
 10
-131.842332
 20
61.371025
 11
-133.044412
 21
62.573107
  0
LINE
  8
型材断面
  6
DOT
 10
-136.986532
 20
58.029947
 11
-132.743893
 21
62.272588
  0
LINE
  8
型材断面
  6
DOT
 10
-136.686013
 20
57.729425
 11
-132.443372
 21
61.972065
  0
LINE
  8
型材断面
  6
DOT
 10
-136.385492
 20
57.428905
 11
-132.142853
 21
61.671545
  0
LINE
  8
型材断面
  6
DOT
 10
-58.538093
 20
-32.115883
 11
-59.952305
 21
-33.530095
  0
LINE
  8
型材断面
  6
DOT
 10
-62.073625
 20
-28.580347
 11
-63.48784
 21
-29.994563
  0
LINE
  8
型材断面
  6
DOT
 10
-58.891645
 20
-32.469435
 11
-62.427178
 21
-28.9339
  0
LINE
  8
型材断面
  6
DOT
 10
-59.245197
 20
-32.82299
 11
-62.780732
 21
-29.287455
  0
LINE
  8
型材断面
  6
DOT
 10
-59.598752
 20
-33.176542
 11
-63.134285
 21
-29.641007
  0
LINE
  8
型材断面
  6
DOT
 10
-21.168263
 20
-34.485123
 11
-22.370342
 21
-33.28304
  0
LINE
  8
型材断面
  6
DOT
 10
-16.925623
 20
-30.242483
 11
-18.127703
 21
-29.0404
  0
LINE
  8
型材断面
  6
DOT
 10
-22.069823
 20
-33.58356
 11
-17.827182
 21
-29.34092
  0
LINE
  8
型材断面
  6
DOT
 10
-21.769302
 20
-33.884083
 11
-17.526663
 21
-29.641442
  0
LINE
  8
型材断面
  6
DOT
 10
-21.468782
 20
-34.184602
 11
-17.226142
 21
-29.941963
  0
LINE
  8
型材断面
  6
DOT
 10
-26.431365
 20
-45.126875
 11
-26.431238
 21
-47.955177
  0
LINE
  8
型材断面
  6
DOT
 10
-18.431725
 20
-37.12724
 11
-18.431598
 21
-39.955537
  0
LINE
  8
型材断面
  6
DOT
 10
-26.431333
 20
-45.83395
 11
-18.431693
 21
-37.834315
  0
LINE
  8
型材断面
  6
DOT
 10
-26.4313
 20
-46.541025
 11
-18.431663
 21
-38.541388
  0
LINE
  8
型材断面
  6
DOT
 10
-26.43127
 20
-47.248103
 11
-18.43163
 21
-39.248463
  0
LINE
  8
型材断面
  6
DOT
 10
-32.297663
 20
-60.248458
 11
-34.297657
 21
-60.248458
  0
LINE
  8
型材断面
  6
DOT
 10
-32.297663
 20
-52.248458
 11
-34.297657
 21
-52.248458
  0
LINE
  8
型材断面
  6
DOT
 10
-33.797657
 20
-60.24848
 11
-33.797657
 21
-52.248458
  0
LINE
  8
型材断面
  6
DOT
 10
-33.29766
 20
-60.248473
 11
-33.29766
 21
-52.248458
  0
LINE
  8
型材断面
  6
DOT
 10
-32.79766
 20
-60.248465
 11
-32.79766
 21
-52.248458
  0
LINE
  8
型材断面
  6
DOT
 10
-1.302063
 20
-52.248458
 11
-3.302063
 21
-52.248458
  0
LINE
  8
型材断面
  6
DOT
 10
-3.302063
 20
-60.24366
 11
-1.302063
 21
-60.24366
  0
LINE
  8
型材断面
  6
DOT
 10
-2.802063
 20
-60.24366
 11
-2.802063
 21
-52.248458
  0
LINE
  8
型材断面
  6
DOT
 10
-2.302063
 20
-60.24366
 11
-2.302063
 21
-52.248458
  0
LINE
  8
型材断面
  6
DOT
 10
-1.802063
 20
-60.24366
 11
-1.802063
 21
-52.248458
  0
INSERT
  2
*HAT_0017
  8
型材断面
 10
0.0
 20
0.0
  0
INSERT
  2
*GRP_0086
  8
型材断面
  6
DOT
 10
0.0
 20
0.0
  0
LINE
  8
ガラス
  6
CONTINUOUS
 10
-123.50259
 20
117.233765
 11
-157.194358
 21
83.541998
  0
LINE
  8
ガラス
  6
CONTINUOUS
 10
-123.149038
 20
116.880213
 11
-156.840805
 21
83.188445
  0
LINE
  8
ガラス
  6
CONTINUOUS
 10
-119.047818
 20
112.77899
 11
-152.739582
 21
79.087225
  0
LINE
  8
ガラス
  6
CONTINUOUS
 10
-118.694265
 20
112.425438
 11
-152.38603
 21
78.733672
  0
LINE
  8
ガラス
  6
CONTINUOUS
 10
-157.194358
 20
83.541998
 11
-152.38603
 21
78.733672
  0
LINE
  8
ガラス
  6
CONTINUOUS
 10
46.222907
 20
55.24379
 11
-29.684188
 21
-20.660952
  0
LINE
  8
ガラス
  6
CONTINUOUS
 10
45.86936
 20
55.59735
 11
-30.03773
 21
-20.307385
  0
LINE
  8
ガラス
  6
CONTINUOUS
 10
41.414653
 20
60.052195
 11
-34.492363
 21
-15.852477
  0
LINE
  8
ガラス
  6
CONTINUOUS
 10
41.7682
 20
59.698635
 11
-34.13882
 21
-16.206045
  0
LINE
  8
ガラス
  6
CONTINUOUS
 10
37.17208
 20
64.294897
 11
-38.734875
 21
-11.609705
  0
LINE
  8
ガラス
  6
CONTINUOUS
 10
36.81853
 20
64.648455
 11
-39.088418
 21
-11.256142
  0
LINE
  8
ガラス
  6
CONTINUOUS
 10
33.636598
 20
67.83049
 11
-42.270298
 21
-8.074063
  0
LINE
  8
ガラス
  6
CONTINUOUS
 10
33.990145
 20
67.47693
 11
-41.916755
 21
-8.42763
  0
LINE
  8
ガラス
  6
CONTINUOUS
 10
-29.684188
 20
-20.660952
 11
-42.270298
 21
-8.074063
  0
LINE
  8
ガラス
  6
CONTINUOUS
 10
-34.492167
 20
-7.36713
 11
-30.249658
 21
-11.609903
  0
LINE
  8
ガラス
  6
CONTINUOUS
 10
-30.249658
 20
-11.609903
 11
-38.734875
 21
-11.609705
  0
LINE
  8
ガラス
  6
CONTINUOUS
 10
-34.492167
 20
-7.36713
 11
-34.492363
 21
-15.852477
  0
INSERT
  2
*GRP_0075
  8
ガラス
  6
CONTINUOUS
 10
0.0
 20
0.0
  0
INSERT
  2
*GRP_0076
  8
ガラス
  6
CONTINUOUS
 10
0.0
 20
0.0
  0
INSERT
  2
*GRP_0077
  8
ガラス
  6
CONTINUOUS
 10
0.0
 20
0.0
  0
INSERT
  2
*GRP_0078
  8
ガラス
  6
CONTINUOUS
 10
0.0
 20
0.0
  0
INSERT
  2
*GRP_0079
  8
ガラス
  6
CONTINUOUS
 10
0.0
 20
0.0
  0
INSERT
  2
*GRP_0080
  8
ガラス
  6
CONTINUOUS
 10
0.0
 20
0.0
  0
INSERT
  2
*GRP_0081
  8
ガラス
  6
CONTINUOUS
 10
0.0
 20
0.0
  0
INSERT
  2
*GRP_0082
  8
ガラス
  6
CONTINUOUS
 10
0.0
 20
0.0
  0
INSERT
  2
*GRP_0083
  8
ガラス
  6
CONTINUOUS
 10
0.0
 20
0.0
  0
INSERT
  2
*GRP_0084
  8
ガラス
  6
CONTINUOUS
 10
0.0
 20
0.0
  0
INSERT
  2
*GRP_0085
  8
ガラス
  6
CONTINUOUS
 10
0.0
 20
0.0
  0
INSERT
  2
*GRP_0001
  8
ゴム等
  6
CONTINUOUS
 10
0.0
 20
0.0
  0
INSERT
  2
*GRP_0007
  8
ゴム等
  6
CONTINUOUS
 10
0.0
 20
0.0
  0
INSERT
  2
*GRP_0008
  8
ゴム等
  6
CONTINUOUS
 10
0.0
 20
0.0
  0
INSERT
  2
*GRP_0009
  8
ゴム等
  6
CONTINUOUS
 10
0.0
 20
0.0
  0
INSERT
  2
*GRP_0010
  8
ゴム等
  6
CONTINUOUS
 10
0.0
 20
0.0
  0
INSERT
  2
*GRP_0011
  8
ゴム等
  6
CONTINUOUS
 10
0.0
 20
0.0
  0
INSERT
  2
*GRP_0035
  8
ゴム等
  6
CONTINUOUS
 10
0.0
 20
0.0
  0
INSERT
  2
*GRP_0036
  8
ゴム等
  6
CONTINUOUS
 10
0.0
 20
0.0
  0
INSERT
  2
*GRP_0048
  8
ゴム等
  6
CONTINUOUS
 10
0.0
 20
0.0
  0
INSERT
  2
*GRP_0055
  8
ゴム等
  6
CONTINUOUS
 10
0.0
 20
0.0
  0
INSERT
  2
*GRP_0059
  8
ゴム等
  6
CONTINUOUS
 10
0.0
 20
0.0
  0
INSERT
  2
*GRP_0060
  8
ゴム等
  6
CONTINUOUS
 10
0.0
 20
0.0
  0
INSERT
  2
*GRP_0061
  8
ゴム等
  6
CONTINUOUS
 10
0.0
 20
0.0
  0
INSERT
  2
*GRP_0067
  8
ゴム等
  6
CONTINUOUS
 10
0.0
 20
0.0
  0
INSERT
  2
*GRP_0015
  8
ボルト／ビス
  6
CONTINUOUS
 10
0.0
 20
0.0
  0
INSERT
  2
*GRP_0016
  8
ボルト／ビス
  6
CONTINUOUS
 10
0.0
 20
0.0
  0
INSERT
  2
*GRP_0017
  8
ボルト／ビス
  6
CONTINUOUS
 10
0.0
 20
0.0
  0
INSERT
  2
*GRP_0037
  8
ボルト／ビス
  6
CONTINUOUS
 10
0.0
 20
0.0
  0
INSERT
  2
*GRP_0068
  8
ボルト／ビス
  6
CONTINUOUS
 10
0.0
 20
0.0
  0
INSERT
  2
*GRP_0069
  8
ボルト／ビス
  6
CONTINUOUS
 10
0.0
 20
0.0
  0
TEXT
  7
TextStyle03
  8
文字
  6
CONTINUOUS
 10
68.275
 20
68.55
  1
呼称寸法
 40
3.5
 72
     5
 11
83.625
 21
68.55
  0
TEXT
  7
TextStyle03
  8
文字
  6
CONTINUOUS
 10
-94.6
 20
-5.075
  1
TK-1117
 40
4.0
 72
     5
 11
-79.1
 21
-5.075
  0
TEXT
  7
TextStyle03
  8
文字
  6
CONTINUOUS
 10
-104.275
 20
-69.575
  1
TK-1111
 40
4.0
 72
     5
 11
-88.775
 21
-69.575
  0
TEXT
  7
TextStyle03
  8
文字
  6
CONTINUOUS
 10
9.075
 20
-15.65
  1
TK-1120
 40
4.0
 72
     5
 11
24.575
 21
-15.65
  0
TEXT
  7
TextStyle03
  8
文字
  6
CONTINUOUS
 10
-24.25
 20
11.9
  1
TK-1118
 40
4.0
 72
     5
 11
-8.75
 21
11.9
  0
TEXT
  7
TextStyle03
  8
文字
  6
CONTINUOUS
 10
67.025
 20
-50.25
  1
TK-1105
 40
4.0
 72
     5
 11
82.525
 21
-50.25
  0
TEXT
  7
TextStyle03
  8
文字
  6
CONTINUOUS
 10
-151.4
 20
43.25
  1
シングルガラスタイプ
 40
3.5
 72
     5
 11
-112.35
 21
43.25
  0
TEXT
  7
TextStyle03
  8
文字
  6
CONTINUOUS
 10
-155.925
 20
109.575
  1
TK-1118
 40
4.0
 72
     5
 11
-140.425
 21
109.575
  0
TEXT
  7
TextStyle03
  8
文字
  6
CONTINUOUS
 10
57.825
 20
-102.775
  1
KA-50C　末栄金属
 40
4.0
 72
     5
 11
93.325
 21
-102.775
  0
TEXT
  7
TextStyle03
  8
文字
  6
CONTINUOUS
 10
-76.05
 20
-0.225
  1
TKR-1502
 40
4.0
 72
     5
 11
-58.3
 21
-0.225
  0
TEXT
  7
TextStyle03
  8
文字
  6
CONTINUOUS
 10
-95.725
 20
-15.675
  1
TKR-1501
 40
4.0
 72
     5
 11
-77.975
 21
-15.675
  0
TEXT
  7
TextStyle03
  8
文字
  6
CONTINUOUS
 10
-98.8
 20
-42.925
  1
TKR-1401
 40
4.0
 72
     5
 11
-81.05
 21
-42.925
  0
TEXT
  7
TextStyle03
  8
文字
  6
CONTINUOUS
 10
-100.525
 20
-58.825
  1
TKR-1402
 40
4.0
 72
     5
 11
-82.775
 21
-58.825
  0
TEXT
  7
TextStyle03
  8
文字
  6
CONTINUOUS
 10
13.275
 20
-2.375
  1
TKR-1102
 40
4.0
 72
     5
 11
31.025
 21
-2.375
  0
TEXT
  7
TextStyle03
  8
文字
  6
CONTINUOUS
 10
12.325
 20
-9.55
  1
TKR-1202
 40
4.0
 72
     5
 11
30.075
 21
-9.55
  0
TEXT
  7
TextStyle03
  8
文字
  6
CONTINUOUS
 10
-159.775
 20
117.55
  1
TKR-1502
 40
4.0
 72
     5
 11
-142.025
 21
117.55
  0
TEXT
  7
TextStyle03
  8
文字
  6
CONTINUOUS
 10
-130.2
 20
87.9
  1
TKR-1202
 40
4.0
 72
     5
 11
-112.45
 21
87.9
  0
TEXT
  7
TextStyle03
  8
文字
  6
CONTINUOUS
 10
-179.125
 20
63.475
  1
TKR-1102
 40
4.0
 72
     5
 11
-161.375
 21
63.475
  0
TEXT
  7
TextStyle03
  8
文字
  6
CONTINUOUS
 10
-177.3
 20
50.075
  1
TKR-1402
 40
4.0
 72
     5
 11
-159.55
 21
50.075
  0
TEXT
  7
TextStyle03
  8
文字
  6
CONTINUOUS
 10
-116.425
 20
53.625
  1
TK-1119
 40
4.0
 72
     5
 11
-100.925
 21
53.625
  0
TEXT
  7
TextStyle03
  8
文字
  6
CONTINUOUS
 10
-106.075
 20
-76.675
  1
M4リベット
 40
4.0
 72
     5
 11
-84.075
 21
-76.675
  0
TEXT
  7
TextStyle03
  8
文字
  6
CONTINUOUS
 10
-106.075
 20
-81.175
  1
(コーナー)
 40
4.0
 72
     5
 11
-83.825
 21
-81.175
  0
TEXT
  7
TextStyle03
  8
文字
  6
CONTINUOUS
 10
11.55
 20
-124.3
  1
コーナー部工場シール
 40
4.0
 72
     5
 11
56.05
 21
-124.3
  0
TEXT
  7
TextStyle03
  8
文字
  6
CONTINUOUS
 10
-104.55
 20
-47.875
  1
TKR-1101
 40
4.0
 72
     5
 11
-86.8
 21
-47.875
  0
TEXT
  7
TextStyle03
  8
文字
  6
CONTINUOUS
 10
-104.55
 20
-52.375
  1
(障子固定)
 40
4.0
 72
     5
 11
-82.3
 21
-52.375
  0
TEXT
  7
TextStyle03
  8
文字
  6
CONTINUOUS
 10
-90.525
 20
-36.275
  1
水抜穴
 40
3.0
 72
     5
 11
-80.775
 21
-36.275
  0
TEXT
  7
TextStyle03
  8
文字
  6
CONTINUOUS
 10
-45.825
 20
-67.55
  1
TKR-1402
 40
4.0
 72
     5
 11
-28.075
 21
-67.55
  0
TEXT
  7
TextStyle03
  8
文字
  6
CONTINUOUS
 10
-3.375
 20
-118.425
  1
ﾎﾞﾝﾃﾞｯﾄﾞﾜｯｼｬ付き
 40
4.0
 72
     5
 11
32.125
 21
-118.425
  0
TEXT
  7
TextStyle03
  8
文字
  6
CONTINUOUS
 10
13.475
 20
-68.925
  1
全周シール
 40
4.0
 72
     5
 11
35.475
 21
-68.925
  0
TEXT
  7
TextStyle03
  8
文字
  6
CONTINUOUS
 10
95.425
 20
93.175
  1
ＮＳコード：ＮＳ４ＹＫ
 40
5.0
 72
     5
 11
156.675
 21
93.175
  0
TEXT
  7
TextStyle03
  8
文字
  6
CONTINUOUS
 10
95.425
 20
87.55
  1
　　　　　　ＮＳ４ＧＫ
 40
5.0
 72
     5
 11
156.675
 21
87.55
  0
TEXT
  7
TextStyle03
  8
文字
  6
CONTINUOUS
 10
95.8
 20
120.375
  1
シリーズ：ＤＦＹＫ・ＤＦ４Ｋ
 40
5.0
 72
     5
 11
173.925
 21
120.375
  0
TEXT
  7
TextStyle03
  8
文字
  6
CONTINUOUS
 10
95.8
 20
114.75
  1
　　　　　Ｖ型四角錘・四角錘
 40
5.0
 72
     5
 11
173.925
 21
114.75
  0
TEXT
  7
TextStyle03
  8
文字
  6
CONTINUOUS
 10
95.8
 20
109.125
  1
　　　　　（固定）
 40
5.0
 72
     5
 11
145.8
 21
109.125
  0
TEXT
  7
TextStyle03
  8
文字
  6
CONTINUOUS
 10
95.8
 20
103.5
  1
図面名　：下枠断面詳細図
 40
5.0
 72
     5
 11
162.675
 21
103.5
  0
INSERT
  2
*DIM_0002
  8
寸法
  6
CONTINUOUS
 10
0.0
 20
0.0
  0
INSERT
  2
*DIM_0003
  8
寸法
  6
CONTINUOUS
 10
0.0
 20
0.0
  0
INSERT
  2
*DIM_0004
  8
寸法
  6
CONTINUOUS
 10
0.0
 20
0.0
  0
INSERT
  2
*DIM_0005
  8
寸法
  6
CONTINUOUS
 10
0.0
 20
0.0
  0
INSERT
  2
*DIM_0006
  8
寸法
  6
CONTINUOUS
 10
0.0
 20
0.0
  0
INSERT
  2
*DIM_0018
  8
寸法
  6
CONTINUOUS
 10
0.0
 20
0.0
  0
INSERT
  2
*DIM_0019
  8
寸法
  6
CONTINUOUS
 10
0.0
 20
0.0
  0
INSERT
  2
*GRP_0021
  8
寸法
  6
CONTINUOUS
 10
0.0
 20
0.0
  0
INSERT
  2
*GRP_0022
  8
寸法
  6
CONTINUOUS
 10
0.0
 20
0.0
  0
INSERT
  2
*GRP_0023
  8
寸法
  6
CONTINUOUS
 10
0.0
 20
0.0
  0
INSERT
  2
*GRP_0024
  8
寸法
  6
CONTINUOUS
 10
0.0
 20
0.0
  0
INSERT
  2
*GRP_0025
  8
寸法
  6
CONTINUOUS
 10
0.0
 20
0.0
  0
INSERT
  2
*GRP_0026
  8
寸法
  6
CONTINUOUS
 10
0.0
 20
0.0
  0
INSERT
  2
*GRP_0027
  8
寸法
  6
CONTINUOUS
 10
0.0
 20
0.0
  0
INSERT
  2
*GRP_0028
  8
寸法
  6
CONTINUOUS
 10
0.0
 20
0.0
  0
INSERT
  2
*GRP_0029
  8
寸法
  6
CONTINUOUS
 10
0.0
 20
0.0
  0
INSERT
  2
*GRP_0030
  8
寸法
  6
CONTINUOUS
 10
0.0
 20
0.0
  0
INSERT
  2
*GRP_0031
  8
寸法
  6
CONTINUOUS
 10
0.0
 20
0.0
  0
INSERT
  2
*GRP_0032
  8
寸法
  6
CONTINUOUS
 10
0.0
 20
0.0
  0
INSERT
  2
*GRP_0038
  8
寸法
  6
CONTINUOUS
 10
0.0
 20
0.0
  0
INSERT
  2
*GRP_0039
  8
寸法
  6
CONTINUOUS
 10
0.0
 20
0.0
  0
INSERT
  2
*DIM_0040
  8
寸法
  6
CONTINUOUS
 10
0.0
 20
0.0
  0
INSERT
  2
*DIM_0041
  8
寸法
  6
CONTINUOUS
 10
0.0
 20
0.0
  0
INSERT
  2
*DIM_0042
  8
寸法
  6
CONTINUOUS
 10
0.0
 20
0.0
  0
INSERT
  2
*GRP_0043
  8
寸法
  6
CONTINUOUS
 10
0.0
 20
0.0
  0
INSERT
  2
*GRP_0045
  8
寸法
  6
CONTINUOUS
 10
0.0
 20
0.0
  0
INSERT
  2
*GRP_0049
  8
寸法
  6
CONTINUOUS
 10
0.0
 20
0.0
  0
INSERT
  2
*GRP_0050
  8
寸法
  6
CONTINUOUS
 10
0.0
 20
0.0
  0
INSERT
  2
*GRP_0051
  8
寸法
  6
CONTINUOUS
 10
0.0
 20
0.0
  0
INSERT
  2
*GRP_0052
  8
寸法
  6
CONTINUOUS
 10
0.0
 20
0.0
  0
INSERT
  2
*GRP_0053
  8
寸法
  6
CONTINUOUS
 10
0.0
 20
0.0
  0
INSERT
  2
*GRP_0056
  8
寸法
  6
CONTINUOUS
 10
0.0
 20
0.0
  0
INSERT
  2
*GRP_0057
  8
寸法
  6
CONTINUOUS
 10
0.0
 20
0.0
  0
INSERT
  2
*DIM_0058
  8
寸法
  6
CONTINUOUS
 10
0.0
 20
0.0
  0
INSERT
  2
*GRP_0062
  8
寸法
  6
CONTINUOUS
 10
0.0
 20
0.0
  0
INSERT
  2
*GRP_0070
  8
寸法
  6
CONTINUOUS
 10
0.0
 20
0.0
  0
INSERT
  2
*GRP_0071
  8
寸法
  6
CONTINUOUS
 10
0.0
 20
0.0
  0
INSERT
  2
*GRP_0072
  8
寸法
  6
CONTINUOUS
 10
0.0
 20
0.0
  0
INSERT
  2
*DIM_0073
  8
寸法
  6
CONTINUOUS
 10
0.0
 20
0.0
  0
INSERT
  2
*DIM_0074
  8
寸法
  6
CONTINUOUS
 10
0.0
 20
0.0
  0
INSERT
  2
*GRP_0044
  8
別途部材
  6
CONTINUOUS
 10
0.0
 20
0.0
  0
INSERT
  2
*GRP_0087
  8
別途部材
  6
DOT
 10
0.0
 20
0.0
  0
LINE
  8
曲げ物
  6
CONTINUOUS
 10
27.994442
 20
73.472818
 11
-41.548433
 21
3.932087
  0
LINE
  8
曲げ物
  6
CONTINUOUS
 10
-129.159253
 20
122.890428
 11
-160.376855
 21
91.672827
  0
LINE
  8
St
  6
CONTINUOUS
 10
26.703387
 20
74.763915
 11
-53.452492
 21
-5.389492
  0
INSERT
  2
*GRP_0054
  8
St
  6
CONTINUOUS
 10
0.0
 20
0.0
  0
LINE
  8
その他部品等
  6
CONTINUOUS
 10
-53.502165
 20
-106.454003
 11
-20.302165
 21
-94.554003
  0
LINE
  8
その他部品等
  6
CONTINUOUS
 10
-17.302165
 20
-93.854003
 11
-3.302063
 21
-91.24366
  0
INSERT
  2
*HAT_0018
  8
その他部品等
 10
0.0
 20
0.0
  0
LINE
  8
その他部品等
  6
CONTINUOUS
 10
-67.802165
 20
-90.654003
 11
-57.302165
 21
-90.654003
  0
INSERT
  2
*HAT_0019
  8
その他部品等
 10
0.0
 20
0.0
  0
INSERT
  2
*HAT_0020
  8
その他部品等
 10
0.0
 20
0.0
  0
ENDSEC
  0
EOF
