  0
SECTION
  2
HEADER
  9
$EXTMIN
 10
-210.0
 20
-148.5
  9
$EXTMAX
 10
210.0
 20
148.5
  9
$PDMODE
 70
    32
  9
$PDSIZE
 40
1.5
  9
$LTSCALE
 40
10.0
  0
ENDSEC
  0
SECTION
  2
TABLES
  0
TABLE
  2
LTYPE
 70
    15
  0
LTYPE
  2
CONTINUOUS
 70
    64
  3
実線
 72
    65
 73
     0
 40
0.0
  0
LTYPE
  2
DASHED
 70
    64
  3
破線A
 72
    65
 73
     2
 40
0.6
 49
0.4
 49
-0.2
  0
LTYPE
  2
DASHEDX2
 70
    64
  3
破線B
 72
    65
 73
     2
 40
1.3
 49
0.9
 49
-0.4
  0
LTYPE
  2
DASHDOT
 70
    64
  3
１点鎖線A
 72
    65
 73
     4
 40
0.5375
 49
0.375
 49
-0.05
 49
0.0625
 49
-0.05
  0
LTYPE
  2
DASHDOTX2
 70
    64
  3
１点鎖線B
 72
    65
 73
     4
 40
1.075
 49
0.75
 49
-0.1
 49
0.125
 49
-0.1
  0
LTYPE
  2
DIVIDE2
 70
    64
  3
２点鎖線A
 72
    65
 73
     6
 40
0.5125
 49
0.3
 49
-0.0375
 49
0.05
 49
-0.0375
 49
0.05
 49
-0.0375
  0
LTYPE
  2
DIVIDE
 70
    64
  3
２点鎖線B
 72
    65
 73
     6
 40
1.05
 49
0.55
 49
-0.1
 49
0.1
 49
-0.1
 49
0.1
 49
-0.1
  0
LTYPE
  2
DOT
 70
    64
  3
点線A
 72
    65
 73
     2
 40
0.1125
 49
0.0625
 49
-0.05
  0
LTYPE
  2
DOTX2
 70
    64
  3
点線B
 72
    65
 73
     2
 40
0.275
 49
0.15
 49
-0.125
  0
LTYPE
  2
CONTINUOUS
 70
    64
  3
実線
 72
    65
 73
     0
 40
0.0
  0
LTYPE
  2
CONTINUOUS
 70
    64
  3
実線
 72
    65
 73
     0
 40
0.0
  0
LTYPE
  2
CONTINUOUS
 70
    64
  3
実線
 72
    65
 73
     0
 40
0.0
  0
LTYPE
  2
CONTINUOUS
 70
    64
  3
実線
 72
    65
 73
     0
 40
0.0
  0
LTYPE
  2
CONTINUOUS
 70
    64
  3
実線
 72
    65
 73
     0
 40
0.0
  0
LTYPE
  2
CONTINUOUS
 70
    64
  3
実線
 72
    65
 73
     0
 40
0.0
  0
ENDTAB
  0
TABLE
  2
LAYER
 70
    34
  0
LAYER
  2
通り芯
 70
     0
 62
    15
  6
CONTINUOUS
  0
LAYER
  2
補助線
 70
     0
 62
    16
  6
DOT
  0
LAYER
  2
躯体
 70
     0
 62
    31
  6
CONTINUOUS
  0
LAYER
  2
型材
 70
     0
 62
    32
  6
CONTINUOUS
  0
LAYER
  2
型材断面
 70
     0
 62
    47
  6
CONTINUOUS
  0
LAYER
  2
ガラス
 70
     0
 62
    48
  6
CONTINUOUS
  0
LAYER
  2
ゴム等
 70
     0
 62
    63
  6
CONTINUOUS
  0
LAYER
  2
ボルト／ビス
 70
     0
 62
    64
  6
CONTINUOUS
  0
LAYER
  2
文字
 70
     0
 62
    79
  6
CONTINUOUS
  0
LAYER
  2
寸法
 70
     0
 62
    80
  6
CONTINUOUS
  0
LAYER
  2
ﾊｯﾁﾝｸﾞ
 70
     0
 62
    95
  6
CONTINUOUS
  0
LAYER
  2
別途部材
 70
     0
 62
    96
  6
CONTINUOUS
  0
LAYER
  2
曲げ物
 70
     0
 62
   111
  6
CONTINUOUS
  0
LAYER
  2
鉄骨等
 70
     0
 62
   112
  6
CONTINUOUS
  0
LAYER
  2
St
 70
     0
 62
   127
  6
CONTINUOUS
  0
LAYER
  2
その他部品等
 70
     0
 62
   128
  6
CONTINUOUS
  0
LAYER
  2
ｶﾞｽｹｯﾄ
 70
     0
 62
   143
  6
CONTINUOUS
  0
LAYER
  2
ｽｹｯﾁ
 70
     0
 62
    14
  6
CONTINUOUS
  0
LAYER
  2
0
 70
     0
 62
    17
  6
CONTINUOUS
  0
LAYER
  2
1
 70
     0
 62
    30
  6
CONTINUOUS
  0
LAYER
  2
4
 70
     0
 62
    33
  6
CONTINUOUS
  0
LAYER
  2
ﾚｲﾔ3
 70
     0
 62
    46
  6
CONTINUOUS
  0
LAYER
  2
外形線
 70
     0
 62
    49
  6
CONTINUOUS
  0
LAYER
  2
部品
 70
     0
 62
    14
  6
CONTINUOUS
  0
LAYER
  2
サッシ芯
 70
     0
 62
    17
  6
DASHDOTX2
  0
LAYER
  2
寸法線
 70
     0
 62
    62
  6
CONTINUOUS
  0
LAYER
  2
姿図外形線
 70
     0
 62
    65
  6
CONTINUOUS
  0
LAYER
  2
姿補助線
 70
     0
 62
    30
  6
CONTINUOUS
  0
LAYER
  2
透視線
 70
     0
 62
    78
  6
DOT
  0
LAYER
  2
用紙
 70
     0
 62
    81
  6
CONTINUOUS
  0
LAYER
  2
実線図枠
 70
     0
 62
    94
  6
CONTINUOUS
  0
LAYER
  2
補助図枠
 70
     0
 62
    97
  6
CONTINUOUS
  0
LAYER
  2
建具記号
 70
     0
 62
   110
  6
CONTINUOUS
  0
LAYER
  2
補助文字
 70
     0
 62
   113
  6
CONTINUOUS
  0
ENDTAB
  0
TABLE
  2
STYLE
 70
    10
  0
STYLE
  2
STANDARD
 70
     0
 40
1.0
 41
1.0
 42
1.0
 50
0.0
 71
     0
  3
TXT
  4
BIGFONT
  0
STYLE
  2
TATE
 70
     4
 40
1.0
 41
1.0
 42
1.0
 50
0.0
 71
     0
  3
TXT
  4
BIGFONT
  0
STYLE
  2
TextStyle03
 70
     0
 40
1.0
 41
1.0
 42
1.0
 50
0.0
 71
     0
  3
MONOTXT
  4
BIGFONT
  0
STYLE
  2
TextStyle04
 70
     0
 40
1.0
 41
1.0
 42
1.0
 50
0.0
 71
     0
  3
MONOTXT
  4
BIGFONT
  0
STYLE
  2
TextStyle05
 70
     0
 40
1.0
 41
1.0
 42
1.0
 50
0.0
 71
     0
  3
MONOTXT
  4
BIGFONT
  0
STYLE
  2
TextStyle06
 70
     0
 40
1.0
 41
1.0
 42
1.0
 50
0.0
 71
     0
  3
MONOTXT
  4
BIGFONT
  0
STYLE
  2
TextStyle07
 70
     0
 40
1.0
 41
1.0
 42
1.0
 50
0.0
 71
     0
  3
MONOTXT
  4
BIGFONT
  0
STYLE
  2
TextStyle08
 70
     0
 40
1.0
 41
1.0
 42
1.0
 50
0.0
 71
     0
  3
MONOTXT
  4
BIGFONT
  0
STYLE
  2
TextStyle09
 70
     0
 40
1.0
 41
1.0
 42
1.0
 50
0.0
 71
     0
  3
MONOTXT
  4
BIGFONT
  0
STYLE
  2
TextStyle10
 70
     0
 40
1.0
 41
1.0
 42
1.0
 50
0.0
 71
     0
  3
MONOTXT
  4
BIGFONT
  0
ENDTAB
  0
ENDSEC
  0
SECTION
  2
BLOCKS
  0
BLOCK
  2
*HAT_0001
 70
    65
 10
0.0
 20
0.0
  0
LINE
  8
別途部材
  6
DOT
 10
-71.75
 20
-86.05
 11
-71.975
 21
-85.825
  0
LINE
  8
別途部材
  6
DOT
 10
-69.275
 20
-86.05
 11
-71.975
 21
-83.275
  0
LINE
  8
別途部材
  6
DOT
 10
-66.725
 20
-86.05
 11
-71.975
 21
-80.725
  0
LINE
  8
別途部材
  6
DOT
 10
-64.175
 20
-86.05
 11
-71.975
 21
-78.175
  0
LINE
  8
別途部材
  6
DOT
 10
-62.0
 20
-85.675
 11
-71.6
 21
-76.0
  0
LINE
  8
別途部材
  6
DOT
 10
-62.0
 20
-83.125
 11
-69.05
 21
-76.0
  0
LINE
  8
別途部材
  6
DOT
 10
-62.0
 20
-80.575
 11
-66.575
 21
-76.0
  0
LINE
  8
別途部材
  6
DOT
 10
-62.0
 20
-78.025
 11
-64.025
 21
-76.0
  0
ENDBLK
  0
BLOCK
  2
*HAT_0002
 70
    65
 10
0.0
 20
0.0
  0
LINE
  8
ﾊｯﾁﾝｸﾞ
 10
-9.7
 20
-77.55
 11
-2.875
 21
-70.725
  0
LINE
  8
ﾊｯﾁﾝｸﾞ
 10
-9.7
 20
-74.725
 11
-2.975
 21
-68.025
  0
LINE
  8
ﾊｯﾁﾝｸﾞ
 10
-9.7
 20
-71.9
 11
-3.25
 21
-65.45
  0
LINE
  8
ﾊｯﾁﾝｸﾞ
 10
-10.075
 20
-69.45
 11
-6.075
 21
-65.45
  0
LINE
  8
ﾊｯﾁﾝｸﾞ
 10
-10.1
 20
-66.65
 11
-8.9
 21
-65.45
  0
LINE
  8
ﾊｯﾁﾝｸﾞ
 10
-9.7
 20
-77.975
 11
-9.7
 21
-77.975
  0
LINE
  8
ﾊｯﾁﾝｸﾞ
 10
-9.7
 20
-75.15
 11
-8.125
 21
-76.725
  0
LINE
  8
ﾊｯﾁﾝｸﾞ
 10
-9.7
 20
-72.325
 11
-6.55
 21
-75.475
  0
LINE
  8
ﾊｯﾁﾝｸﾞ
 10
-10.1
 20
-69.1
 11
-9.75
 21
-69.45
  0
LINE
  8
ﾊｯﾁﾝｸﾞ
 10
-9.7
 20
-69.5
 11
-5.0
 21
-74.2
  0
LINE
  8
ﾊｯﾁﾝｸﾞ
 10
-10.1
 20
-66.275
 11
-3.425
 21
-72.95
  0
LINE
  8
ﾊｯﾁﾝｸﾞ
 10
-8.1
 20
-65.45
 11
-2.875
 21
-70.675
  0
LINE
  8
ﾊｯﾁﾝｸﾞ
 10
-5.275
 20
-65.45
 11
-3.0
 21
-67.725
  0
ENDBLK
  0
BLOCK
  2
*HAT_0003
 70
    65
 10
0.0
 20
0.0
  0
LINE
  8
ﾊｯﾁﾝｸﾞ
 10
-17.5
 20
-93.825
 11
-16.0
 21
-92.325
  0
LINE
  8
ﾊｯﾁﾝｸﾞ
 10
-18.6
 20
-92.1
 11
-13.775
 21
-87.3
  0
LINE
  8
ﾊｯﾁﾝｸﾞ
 10
-18.6
 20
-89.275
 11
-11.575
 21
-82.25
  0
LINE
  8
ﾊｯﾁﾝｸﾞ
 10
-18.6
 20
-86.45
 11
-10.125
 21
-78.0
  0
LINE
  8
ﾊｯﾁﾝｸﾞ
 10
-18.6
 20
-83.625
 11
-12.95
 21
-78.0
  0
LINE
  8
ﾊｯﾁﾝｸﾞ
 10
-18.6
 20
-80.8
 11
-15.775
 21
-78.0
  0
LINE
  8
ﾊｯﾁﾝｸﾞ
 10
-18.6
 20
-91.7
 11
-16.6
 21
-93.7
  0
LINE
  8
ﾊｯﾁﾝｸﾞ
 10
-18.6
 20
-88.875
 11
-15.725
 21
-91.725
  0
LINE
  8
ﾊｯﾁﾝｸﾞ
 10
-18.6
 20
-86.05
 11
-14.875
 21
-89.775
  0
LINE
  8
ﾊｯﾁﾝｸﾞ
 10
-18.6
 20
-83.225
 11
-14.0
 21
-87.8
  0
LINE
  8
ﾊｯﾁﾝｸﾞ
 10
-18.6
 20
-80.4
 11
-13.15
 21
-85.85
  0
LINE
  8
ﾊｯﾁﾝｸﾞ
 10
-18.175
 20
-78.0
 11
-12.275
 21
-83.875
  0
LINE
  8
ﾊｯﾁﾝｸﾞ
 10
-15.35
 20
-78.0
 11
-11.425
 21
-81.9
  0
LINE
  8
ﾊｯﾁﾝｸﾞ
 10
-12.525
 20
-78.0
 11
-10.55
 21
-79.95
  0
ENDBLK
  0
BLOCK
  2
*HAT_0004
 70
    65
 10
0.0
 20
0.0
  0
LINE
  8
ﾊｯﾁﾝｸﾞ
 10
-22.425
 20
-95.95
 11
-20.1
 21
-93.6
  0
LINE
  8
ﾊｯﾁﾝｸﾞ
 10
-26.1
 20
-96.8
 11
-20.7
 21
-91.4
  0
LINE
  8
ﾊｯﾁﾝｸﾞ
 10
-29.775
 20
-97.625
 11
-22.6
 21
-90.45
  0
LINE
  8
ﾊｯﾁﾝｸﾞ
 10
-22.025
 20
-89.9
 11
-20.1
 21
-87.95
  0
LINE
  8
ﾊｯﾁﾝｸﾞ
 10
-33.45
 20
-98.475
 11
-22.35
 21
-87.4
  0
LINE
  8
ﾊｯﾁﾝｸﾞ
 10
-37.125
 20
-99.325
 11
-25.2
 21
-87.4
  0
LINE
  8
ﾊｯﾁﾝｸﾞ
 10
-40.8
 20
-100.175
 11
-28.025
 21
-87.4
  0
LINE
  8
ﾊｯﾁﾝｸﾞ
 10
-44.475
 20
-101.025
 11
-30.85
 21
-87.4
  0
LINE
  8
ﾊｯﾁﾝｸﾞ
 10
-46.1
 20
-99.825
 11
-33.675
 21
-87.4
  0
LINE
  8
ﾊｯﾁﾝｸﾞ
 10
-46.1
 20
-97.0
 11
-36.5
 21
-87.4
  0
LINE
  8
ﾊｯﾁﾝｸﾞ
 10
-46.1
 20
-94.15
 11
-39.325
 21
-87.4
  0
LINE
  8
ﾊｯﾁﾝｸﾞ
 10
-46.1
 20
-91.325
 11
-42.15
 21
-87.4
  0
LINE
  8
ﾊｯﾁﾝｸﾞ
 10
-46.1
 20
-88.5
 11
-44.975
 21
-87.4
  0
LINE
  8
ﾊｯﾁﾝｸﾞ
 10
-46.1
 20
-100.95
 11
-45.75
 21
-101.3
  0
LINE
  8
ﾊｯﾁﾝｸﾞ
 10
-46.1
 20
-98.125
 11
-43.45
 21
-100.775
  0
LINE
  8
ﾊｯﾁﾝｸﾞ
 10
-46.1
 20
-95.3
 11
-41.15
 21
-100.25
  0
LINE
  8
ﾊｯﾁﾝｸﾞ
 10
-46.1
 20
-92.475
 11
-38.85
 21
-99.725
  0
LINE
  8
ﾊｯﾁﾝｸﾞ
 10
-46.1
 20
-89.65
 11
-36.55
 21
-99.2
  0
LINE
  8
ﾊｯﾁﾝｸﾞ
 10
-45.525
 20
-87.4
 11
-34.25
 21
-98.675
  0
LINE
  8
ﾊｯﾁﾝｸﾞ
 10
-42.7
 20
-87.4
 11
-31.95
 21
-98.125
  0
LINE
  8
ﾊｯﾁﾝｸﾞ
 10
-39.875
 20
-87.4
 11
-29.65
 21
-97.6
  0
LINE
  8
ﾊｯﾁﾝｸﾞ
 10
-37.05
 20
-87.4
 11
-27.35
 21
-97.075
  0
LINE
  8
ﾊｯﾁﾝｸﾞ
 10
-34.225
 20
-87.4
 11
-25.05
 21
-96.55
  0
LINE
  8
ﾊｯﾁﾝｸﾞ
 10
-31.4
 20
-87.4
 11
-22.775
 21
-96.025
  0
LINE
  8
ﾊｯﾁﾝｸﾞ
 10
-28.575
 20
-87.4
 11
-20.475
 21
-95.5
  0
LINE
  8
ﾊｯﾁﾝｸﾞ
 10
-25.75
 20
-87.4
 11
-22.6
 21
-90.525
  0
LINE
  8
ﾊｯﾁﾝｸﾞ
 10
-21.75
 20
-91.4
 11
-20.1
 21
-93.025
  0
LINE
  8
ﾊｯﾁﾝｸﾞ
 10
-22.9
 20
-87.4
 11
-20.4
 21
-89.9
  0
ENDBLK
  0
BLOCK
  2
*GRP_0001
 70
    65
 10
0.0
 20
0.0
  0
LINE
  8
型材断面
  6
CONTINUOUS
 10
195.0
 20
133.5
 11
195.0
 21
-133.5
  0
LINE
  8
型材断面
  6
CONTINUOUS
 10
195.0
 20
-133.5
 11
-185.0
 21
-133.5
  0
LINE
  8
型材断面
  6
CONTINUOUS
 10
-185.0
 20
-133.5
 11
-185.0
 21
133.5
  0
LINE
  8
型材断面
  6
CONTINUOUS
 10
195.0
 20
133.5
 11
-185.0
 21
133.5
  0
LINE
  8
型材断面
  6
CONTINUOUS
 10
145.0
 20
-133.5
 11
145.0
 21
-118.5
  0
LINE
  8
型材断面
  6
CONTINUOUS
 10
195.0
 20
-118.5
 11
145.0
 21
-118.5
  0
ENDBLK
  0
BLOCK
  2
*GRP_0002
 70
    65
 10
0.0
 20
0.0
  0
LINE
  8
ボルト／ビス
  6
CONTINUOUS
 62
    64
 10
35.122968
 20
-75.629447
 11
35.031265
 21
-76.67761
  0
ARC
  8
ボルト／ビス
  6
CONTINUOUS
 62
    64
 10
33.337718
 20
-76.52946
 40
1.7
 50
270.0
 51
355.000011
  0
LINE
  8
ボルト／ビス
  6
CONTINUOUS
 62
    64
 10
33.337735
 20
-78.22945
 11
31.622965
 21
-78.22945
  0
LINE
  8
ボルト／ビス
  6
CONTINUOUS
 62
    64
 10
28.12297
 20
-75.629447
 11
28.214673
 21
-76.67761
  0
ARC
  8
ボルト／ビス
  6
CONTINUOUS
 62
    64
 10
29.908185
 20
-76.52946
 40
1.7
 50
184.999989
 51
270.0
  0
LINE
  8
ボルト／ビス
  6
CONTINUOUS
 62
    64
 10
29.908202
 20
-78.22945
 11
31.622965
 21
-78.22945
  0
LINE
  8
ボルト／ビス
  6
CONTINUOUS
 62
    64
 10
34.019605
 20
-77.844542
 11
34.019605
 21
-78.086702
  0
LINE
  8
ボルト／ビス
  6
CONTINUOUS
 62
    64
 10
32.32297
 20
-77.194458
 11
31.622965
 21
-77.194458
  0
LINE
  8
ボルト／ビス
  6
CONTINUOUS
 62
    64
 10
32.722968
 20
-77.844542
 11
34.019605
 21
-77.844542
  0
LINE
  8
ボルト／ビス
  6
CONTINUOUS
 62
    64
 10
32.32297
 20
-77.194458
 11
32.32297
 21
-77.444545
  0
ARC
  8
ボルト／ビス
  6
CONTINUOUS
 62
    64
 10
32.722951
 20
-77.444555
 40
0.4
 50
180.0
 51
270.0
  0
LINE
  8
ボルト／ビス
  6
CONTINUOUS
 62
    64
 10
29.226325
 20
-77.844542
 11
29.226325
 21
-78.086702
  0
LINE
  8
ボルト／ビス
  6
CONTINUOUS
 62
    64
 10
30.922968
 20
-77.194458
 11
31.622965
 21
-77.194458
  0
LINE
  8
ボルト／ビス
  6
CONTINUOUS
 62
    64
 10
30.52297
 20
-77.844542
 11
29.226325
 21
-77.844542
  0
LINE
  8
ボルト／ビス
  6
CONTINUOUS
 62
    64
 10
30.922968
 20
-77.194458
 11
30.922968
 21
-77.444545
  0
ARC
  8
ボルト／ビス
  6
CONTINUOUS
 62
    64
 10
30.522951
 20
-77.444555
 40
0.4
 50
270.0
 51
360.0
  0
LINE
  8
ボルト／ビス
  6
CONTINUOUS
 62
    64
 10
35.122968
 20
-75.629447
 11
28.12297
 21
-75.629447
  0
LINE
  8
ボルト／ビス
  6
CONTINUOUS
 62
    64
 10
33.622968
 20
-68.129447
 11
33.122965
 21
-67.629445
  0
LINE
  8
ボルト／ビス
  6
CONTINUOUS
 62
    64
 10
29.62297
 20
-68.129447
 11
30.122965
 21
-67.629445
  0
LINE
  8
ボルト／ビス
  6
CONTINUOUS
 62
    64
 10
33.122965
 20
-75.629447
 11
33.122965
 21
-67.629445
  0
LINE
  8
ボルト／ビス
  6
CONTINUOUS
 62
    64
 10
33.622968
 20
-75.629447
 11
33.622968
 21
-68.129447
  0
LINE
  8
ボルト／ビス
  6
CONTINUOUS
 62
    64
 10
30.122965
 20
-75.629447
 11
30.122965
 21
-67.629445
  0
LINE
  8
ボルト／ビス
  6
CONTINUOUS
 62
    64
 10
29.62297
 20
-75.629447
 11
29.62297
 21
-68.129447
  0
LINE
  8
ボルト／ビス
  6
CONTINUOUS
 62
    64
 10
33.622968
 20
-68.129447
 11
29.62297
 21
-68.129447
  0
LINE
  8
ボルト／ビス
  6
CONTINUOUS
 62
    64
 10
33.122965
 20
-67.629445
 11
30.122965
 21
-67.629445
  0
LINE
  8
ボルト／ビス
  6
CONTINUOUS
 62
    64
 10
31.622965
 20
-80.200832
 11
31.622965
 21
-65.37895
  0
ENDBLK
  0
BLOCK
  2
*GRP_0003
 70
    65
 10
0.0
 20
0.0
  0
LINE
  8
型材断面
  6
CONTINUOUS
 62
    47
 10
-15.68432
 20
-70.929453
 11
-14.78432
 21
-69.729453
  0
LINE
  8
型材断面
  6
CONTINUOUS
 62
    47
 10
-10.684325
 20
-70.929453
 11
-11.584325
 21
-69.729453
  0
LINE
  8
型材断面
  6
CONTINUOUS
 62
    47
 10
-10.684325
 20
-70.929453
 11
-9.68432
 21
-70.929453
  0
LINE
  8
型材断面
  6
CONTINUOUS
 62
    47
 10
-15.68432
 20
-70.929453
 11
-16.684325
 21
-70.929453
  0
LINE
  8
型材断面
  6
CONTINUOUS
 62
    47
 10
-9.68432
 20
-69.429453
 11
-10.084325
 21
-69.429453
  0
LINE
  8
型材断面
  6
CONTINUOUS
 62
    47
 10
-9.68432
 20
-70.929453
 11
-9.68432
 21
-69.429453
  0
LINE
  8
型材断面
  6
CONTINUOUS
 62
    47
 10
-16.28432
 20
-69.429453
 11
-16.684325
 21
-69.429453
  0
LINE
  8
型材断面
  6
CONTINUOUS
 62
    47
 10
-16.684325
 20
-70.929453
 11
-16.684325
 21
-69.429453
  0
LINE
  8
型材断面
  6
CONTINUOUS
 62
    47
 10
-10.084325
 20
-69.429453
 11
-10.084325
 21
-65.429447
  0
LINE
  8
型材断面
  6
CONTINUOUS
 62
    47
 10
-3.080263
 20
-65.429447
 11
-10.084325
 21
-65.429447
  0
LINE
  8
型材断面
  6
CONTINUOUS
 62
    47
 10
-16.28432
 20
-69.429453
 11
-16.28432
 21
-65.429447
  0
LINE
  8
型材断面
  6
CONTINUOUS
 62
    47
 10
-30.580265
 20
-65.429447
 11
-16.28432
 21
-65.429447
  0
LINE
  8
型材断面
  6
CONTINUOUS
 62
    47
 10
-14.78432
 20
-69.729453
 11
-14.78432
 21
-65.429447
  0
LINE
  8
型材断面
  6
CONTINUOUS
 62
    47
 10
-29.44784
 20
-38.769835
 11
-30.154932
 21
-38.769812
  0
LINE
  8
型材断面
  6
CONTINUOUS
 62
    47
 10
-29.44784
 20
-38.769835
 11
-29.447825
 21
-38.062735
  0
LINE
  8
型材断面
  6
CONTINUOUS
 62
    47
 10
-30.154932
 20
-38.769812
 11
-33.336957
 21
-41.951755
  0
LINE
  8
型材断面
  6
CONTINUOUS
 62
    47
 10
-41.11505
 20
-35.58769
 11
-40.407935
 21
-34.880598
  0
LINE
  8
型材断面
  6
CONTINUOUS
 62
    47
 10
-41.11505
 20
-35.58769
 11
-41.115065
 21
-37.001905
  0
LINE
  8
型材断面
  6
CONTINUOUS
 62
    47
 10
-41.115065
 20
-37.001905
 11
-34.397645
 21
-43.719513
  0
LINE
  8
型材断面
  6
CONTINUOUS
 62
    47
 10
-34.397645
 20
-43.719513
 11
-32.276322
 21
-43.719535
  0
LINE
  8
型材断面
  6
CONTINUOUS
 62
    47
 10
-29.447825
 20
-38.062727
 11
-26.265793
 21
-34.880778
  0
LINE
  8
型材断面
  6
CONTINUOUS
 62
    47
 10
-1.080267
 20
-27.539207
 11
-9.790272
 21
-18.829382
  0
LINE
  8
型材断面
  6
CONTINUOUS
 62
    47
 10
-14.38655
 20
-30.496487
 11
-16.861452
 21
-28.021637
  0
LINE
  8
型材断面
  6
CONTINUOUS
 62
    47
 10
-15.44723
 20
-31.55713
 11
-18.982798
 21
-28.02163
  0
LINE
  8
型材断面
  6
CONTINUOUS
 62
    47
 10
-16.861452
 20
-28.021637
 11
-15.093657
 21
-26.253895
  0
LINE
  8
型材断面
  6
CONTINUOUS
 62
    47
 10
-11.558075
 20
-22.718418
 11
-9.79028
 21
-20.950675
  0
LINE
  8
型材断面
  6
CONTINUOUS
 62
    47
 10
-7.315377
 20
-23.425525
 11
-9.79028
 21
-20.950675
  0
LINE
  8
型材断面
  6
CONTINUOUS
 62
    47
 10
-22.518492
 20
-38.628175
 11
-15.44723
 21
-31.55713
  0
LINE
  8
型材断面
  6
CONTINUOUS
 62
    47
 10
-14.38655
 20
-30.496487
 11
-7.315377
 21
-23.425525
  0
LINE
  8
型材断面
  6
CONTINUOUS
 62
    47
 10
-12.194473
 20
-21.233507
 11
-9.790182
 21
-18.829292
  0
LINE
  8
型材断面
  6
CONTINUOUS
 62
    47
 10
-12.194473
 20
-22.082028
 11
-11.558075
 21
-22.718418
  0
LINE
  8
型材断面
  6
CONTINUOUS
 62
    47
 10
-12.194473
 20
-21.233507
 11
-12.194473
 21
-22.082028
  0
LINE
  8
型材断面
  6
CONTINUOUS
 62
    47
 10
-16.578597
 20
-25.617505
 11
-18.982798
 21
-28.02163
  0
LINE
  8
型材断面
  6
CONTINUOUS
 62
    47
 10
-15.730062
 20
-25.617505
 11
-15.093657
 21
-26.253895
  0
LINE
  8
型材断面
  6
CONTINUOUS
 62
    47
 10
-16.578597
 20
-25.617505
 11
-15.730062
 21
-25.617505
  0
LINE
  8
型材断面
  6
CONTINUOUS
 62
    47
 10
-37.084512
 20
-38.628377
 11
-37.084512
 21
-38.20411
  0
LINE
  8
型材断面
  6
CONTINUOUS
 62
    47
 10
-37.084512
 20
-38.628377
 11
-36.660253
 21
-38.628377
  0
LINE
  8
型材断面
  6
CONTINUOUS
 62
    47
 10
-33.336957
 20
-41.951755
 11
-36.660253
 21
-38.628377
  0
LINE
  8
型材断面
  6
CONTINUOUS
 62
    47
 10
-37.084512
 20
-38.20411
 11
-40.407935
 21
-34.880598
  0
LINE
  8
型材断面
  6
CONTINUOUS
 62
    47
 10
-26.265793
 20
-34.880778
 11
-25.346562
 21
-35.80003
  0
LINE
  8
型材断面
  6
CONTINUOUS
 62
    47
 10
-25.346562
 20
-35.80003
 11
-26.265815
 21
-36.719253
  0
LINE
  8
型材断面
  6
CONTINUOUS
 62
    47
 10
-26.265815
 20
-36.719253
 11
-24.568782
 21
-38.416338
  0
LINE
  8
型材断面
  6
CONTINUOUS
 62
    47
 10
-24.568782
 20
-38.416338
 11
-23.64953
 21
-37.497108
  0
LINE
  8
型材断面
  6
CONTINUOUS
 62
    47
 10
-22.518492
 20
-38.628175
 11
-23.64953
 21
-37.497108
  0
LINE
  8
型材断面
  6
CONTINUOUS
 62
    47
 10
-6.254705
 20
-24.203335
 11
-22.518515
 21
-40.46665
  0
LINE
  8
型材断面
  6
CONTINUOUS
 62
    47
 10
-22.518515
 20
-40.46665
 11
-23.64956
 21
-39.335582
  0
LINE
  8
型材断面
  6
CONTINUOUS
 62
    47
 10
-29.280267
 20
-44.96617
 11
-23.64956
 21
-39.335582
  0
LINE
  8
型材断面
  6
CONTINUOUS
 62
    47
 10
-32.276322
 20
-43.719535
 11
-31.003497
 21
-42.44677
  0
LINE
  8
型材断面
  6
CONTINUOUS
 62
    47
 10
-31.003497
 20
-42.44677
 11
-29.801428
 21
-43.64887
  0
LINE
  8
型材断面
  6
CONTINUOUS
 62
    47
 10
-1.080267
 20
-27.539207
 11
-1.080267
 21
-46.42945
  0
LINE
  8
型材断面
  6
CONTINUOUS
 62
    47
 10
-29.801428
 20
-43.64887
 11
-30.580265
 21
-44.427693
  0
LINE
  8
型材断面
  6
CONTINUOUS
 62
    47
 10
-14.78432
 20
-65.429447
 11
-11.584325
 21
-65.429447
  0
LINE
  8
型材断面
  6
CONTINUOUS
 62
    47
 10
-11.584325
 20
-69.729453
 11
-11.584325
 21
-65.429447
  0
LINE
  8
型材断面
  6
CONTINUOUS
 62
    47
 10
-29.280267
 20
-44.96617
 11
-29.280267
 21
-63.929447
  0
LINE
  8
型材断面
  6
CONTINUOUS
 62
    47
 10
-30.580265
 20
-65.429447
 11
-30.580265
 21
-60.22945
  0
LINE
  8
型材断面
  6
CONTINUOUS
 62
    47
 10
-30.580265
 20
-59.62945
 11
-30.580265
 21
-44.427693
  0
LINE
  8
型材断面
  6
CONTINUOUS
 62
    47
 10
-1.080267
 20
-47.92945
 11
-1.080267
 21
-63.929447
  0
LINE
  8
型材断面
  6
CONTINUOUS
 62
    47
 10
-2.77706
 20
-65.429447
 11
-2.77706
 21
-72.429445
  0
LINE
  8
型材断面
  6
CONTINUOUS
 62
    47
 10
35.622955
 20
-72.429445
 11
35.622955
 21
-65.429447
  0
ARC
  8
型材断面
  6
CONTINUOUS
 62
    47
 10
4.172939
 20
-71.67944
 40
0.75
 50
0.0
 51
90.0
  0
LINE
  8
型材断面
  6
CONTINUOUS
 62
    47
 10
4.922942
 20
-71.679445
 11
4.922942
 21
-71.679445
  0
ARC
  8
型材断面
  6
CONTINUOUS
 62
    47
 10
4.172939
 20
-71.67944
 40
0.75
 50
-90.0
 51
0.0
  0
ARC
  8
型材断面
  6
CONTINUOUS
 62
    47
 10
28.672954
 20
-71.67944
 40
0.75
 50
90.0
 51
180.0
  0
LINE
  8
型材断面
  6
CONTINUOUS
 62
    47
 10
27.922953
 20
-71.679445
 11
27.922953
 21
-71.679445
  0
ARC
  8
型材断面
  6
CONTINUOUS
 62
    47
 10
28.672954
 20
-71.67944
 40
0.75
 50
180.0
 51
270.0
  0
LINE
  8
型材断面
  6
CONTINUOUS
 62
    47
 10
28.672953
 20
-70.929445
 11
33.926162
 21
-70.929445
  0
LINE
  8
型材断面
  6
CONTINUOUS
 62
    47
 10
28.672953
 20
-72.429445
 11
35.622955
 21
-72.429445
  0
LINE
  8
型材断面
  6
CONTINUOUS
 62
    47
 10
-1.080267
 20
-65.429447
 11
-1.080267
 21
-70.929445
  0
LINE
  8
型材断面
  6
CONTINUOUS
 62
    47
 10
4.172942
 20
-70.929445
 11
-1.080267
 21
-70.929445
  0
LINE
  8
型材断面
  6
CONTINUOUS
 62
    47
 10
4.172942
 20
-72.429445
 11
-2.77706
 21
-72.429445
  0
LINE
  8
型材断面
  6
CONTINUOUS
 62
    47
 10
33.926162
 20
-70.929445
 11
33.926162
 21
-65.429447
  0
LINE
  8
型材断面
  6
CONTINUOUS
 62
    47
 10
-10.084325
 20
-65.429447
 11
-2.77706
 21
-65.429447
  0
LINE
  8
型材断面
  6
CONTINUOUS
 62
    47
 10
-2.580267
 20
-63.929447
 11
-29.280267
 21
-63.929447
  0
LINE
  8
型材断面
  6
CONTINUOUS
 62
    47
 10
-30.280265
 20
-59.92945
 11
-30.580265
 21
-59.62945
  0
LINE
  8
型材断面
  6
CONTINUOUS
 62
    47
 10
-30.280265
 20
-59.92945
 11
-30.580265
 21
-60.22945
  0
LINE
  8
型材断面
  6
CONTINUOUS
 62
    47
 10
-1.080267
 20
-47.92945
 11
61.91974
 21
-47.92945
  0
LINE
  8
型材断面
  6
CONTINUOUS
 62
    47
 10
-1.080267
 20
-63.929447
 11
61.91974
 21
-63.929447
  0
LINE
  8
型材断面
  6
CONTINUOUS
 62
    47
 10
61.91974
 20
-47.92945
 11
61.91974
 21
-63.929447
  0
LINE
  8
型材断面
  6
CONTINUOUS
 62
    47
 10
4.16974
 20
-65.129447
 11
3.86974
 21
-65.429447
  0
LINE
  8
型材断面
  6
CONTINUOUS
 62
    47
 10
4.16974
 20
-65.129447
 11
4.46974
 21
-65.429447
  0
LINE
  8
型材断面
  6
CONTINUOUS
 62
    47
 10
50.66974
 20
-65.129447
 11
50.36974
 21
-65.429447
  0
LINE
  8
型材断面
  6
CONTINUOUS
 62
    47
 10
50.66974
 20
-65.129447
 11
50.96974
 21
-65.429447
  0
LINE
  8
型材断面
  6
CONTINUOUS
 62
    47
 10
4.16974
 20
-46.729457
 11
3.86974
 21
-46.429457
  0
LINE
  8
型材断面
  6
CONTINUOUS
 62
    47
 10
4.16974
 20
-46.729457
 11
4.46974
 21
-46.429457
  0
LINE
  8
型材断面
  6
CONTINUOUS
 62
    47
 10
50.66974
 20
-46.729457
 11
50.36974
 21
-46.429457
  0
LINE
  8
型材断面
  6
CONTINUOUS
 62
    47
 10
50.66974
 20
-46.729457
 11
50.96974
 21
-46.429457
  0
LINE
  8
型材断面
  6
CONTINUOUS
 62
    47
 10
-1.080267
 20
-46.42945
 11
3.869732
 21
-46.42945
  0
LINE
  8
型材断面
  6
CONTINUOUS
 62
    47
 10
4.469748
 20
-46.42945
 11
50.369732
 21
-46.42945
  0
LINE
  8
型材断面
  6
CONTINUOUS
 62
    47
 10
50.969748
 20
-46.42945
 11
61.91974
 21
-46.42945
  0
LINE
  8
型材断面
  6
CONTINUOUS
 62
    47
 10
35.622955
 20
-65.429447
 11
50.36974
 21
-65.429447
  0
LINE
  8
型材断面
  6
CONTINUOUS
 62
    47
 10
50.96974
 20
-65.429447
 11
63.41974
 21
-65.429447
  0
LINE
  8
型材断面
  6
CONTINUOUS
 62
    47
 10
-1.080267
 20
-65.429447
 11
3.86974
 21
-65.429447
  0
LINE
  8
型材断面
  6
CONTINUOUS
 62
    47
 10
4.46974
 20
-65.429447
 11
33.926162
 21
-65.429447
  0
LINE
  8
型材断面
  6
CONTINUOUS
 62
    47
 10
63.41974
 20
-65.429447
 11
63.41974
 21
-34.42945
  0
LINE
  8
型材断面
  6
CONTINUOUS
 62
    47
 10
61.91974
 20
-46.42945
 11
61.91974
 21
-34.42945
  0
LINE
  8
型材断面
  6
CONTINUOUS
 62
    47
 10
63.41974
 20
-34.42945
 11
61.91974
 21
-34.42945
  0
LINE
  8
型材断面
  6
CONTINUOUS
 62
    47
 10
-6.254705
 20
-24.203335
 11
-4.840475
 21
-25.617535
  0
LINE
  8
型材断面
  6
CONTINUOUS
 62
    47
 10
-4.133367
 20
-26.324635
 11
-2.580267
 21
-27.877697
  0
LINE
  8
型材断面
  6
CONTINUOUS
 62
    47
 10
-2.580267
 20
-60.929447
 11
-4.080267
 21
-60.929447
  0
LINE
  8
型材断面
  6
CONTINUOUS
 62
    47
 10
-4.080267
 20
-60.929447
 11
-4.080267
 21
-61.929445
  0
LINE
  8
型材断面
  6
CONTINUOUS
 62
    47
 10
-2.580267
 20
-61.929445
 11
-4.080267
 21
-61.929445
  0
LINE
  8
型材断面
  6
CONTINUOUS
 62
    47
 10
-2.580267
 20
-27.877697
 11
-2.580267
 21
-60.929447
  0
LINE
  8
型材断面
  6
CONTINUOUS
 62
    47
 10
-2.580267
 20
-61.929445
 11
-2.580267
 21
-63.929447
  0
LINE
  8
型材断面
  6
CONTINUOUS
 62
    47
 10
-4.840513
 20
-25.617573
 11
-5.901155
 21
-26.678185
  0
LINE
  8
型材断面
  6
CONTINUOUS
 62
    47
 10
-5.901155
 20
-26.678185
 11
-5.19404
 21
-27.385285
  0
LINE
  8
型材断面
  6
CONTINUOUS
 62
    47
 10
-4.13342
 20
-26.324687
 11
-5.19404
 21
-27.385285
  0
LINE
  8
型材断面
  6
DASHDOT
 62
    47
 10
-13.184322
 20
-69.729453
 11
-13.184322
 21
-65.429447
  0
ENDBLK
  0
BLOCK
  2
*GRP_0004
 70
    65
 10
0.0
 20
0.0
  0
ARC
  8
St
  6
CONTINUOUS
 62
   127
 10
11.419767
 20
-75.629459
 40
3.2
 50
360.0
 51
450.0
  0
LINE
  8
St
  6
CONTINUOUS
 10
11.41978
 20
-81.02248
 11
14.619782
 21
-84.22249
  0
LINE
  8
St
  6
CONTINUOUS
 10
11.41978
 20
-80.315365
 11
14.619782
 21
-83.515375
  0
LINE
  8
St
  6
CONTINUOUS
 10
19.447578
 20
-72.429445
 11
22.647573
 21
-75.629447
  0
LINE
  8
St
  6
CONTINUOUS
 10
20.154685
 20
-72.429445
 11
23.35468
 21
-75.629447
  0
LINE
  8
St
  6
CONTINUOUS
 10
35.622962
 20
-75.629447
 11
35.622962
 21
-72.429445
  0
LINE
  8
St
  6
CONTINUOUS
 10
33.872965
 20
-72.429445
 11
33.872965
 21
-75.629447
  0
LINE
  8
St
  6
CONTINUOUS
 10
29.372965
 20
-72.429445
 11
29.372965
 21
-75.629447
  0
LINE
  8
St
  6
CONTINUOUS
 10
29.372965
 20
-73.229447
 11
33.872965
 21
-73.229447
  0
LINE
  8
St
  6
CONTINUOUS
 10
29.372965
 20
-74.029443
 11
33.872965
 21
-74.029443
  0
LINE
  8
St
  6
CONTINUOUS
 10
29.372965
 20
-74.829445
 11
33.872965
 21
-74.829445
  0
LINE
  8
St
  6
CONTINUOUS
 10
31.622965
 20
-78.22945
 11
31.622965
 21
-69.678115
  0
LINE
  8
St
  6
CONTINUOUS
 10
3.47296
 20
-72.429445
 11
3.47296
 21
-75.629447
  0
LINE
  8
St
  6
CONTINUOUS
 10
-1.02704
 20
-72.429445
 11
-1.02704
 21
-75.629447
  0
LINE
  8
St
  6
CONTINUOUS
 10
-1.02704
 20
-73.229447
 11
3.47296
 21
-73.229447
  0
LINE
  8
St
  6
CONTINUOUS
 10
-1.02704
 20
-74.029443
 11
3.47296
 21
-74.029443
  0
LINE
  8
St
  6
CONTINUOUS
 10
-1.02704
 20
-74.829445
 11
3.47296
 21
-74.829445
  0
LINE
  8
St
  6
CONTINUOUS
 10
1.22296
 20
-78.22945
 11
1.22296
 21
-69.678115
  0
LINE
  8
St
  6
CONTINUOUS
 62
   127
 10
-2.777052
 20
-75.629447
 11
-2.777052
 21
-72.429392
  0
LINE
  8
St
  6
CONTINUOUS
 10
4.440258
 20
-72.429445
 11
7.640252
 21
-75.629447
  0
LINE
  8
St
  6
CONTINUOUS
 10
5.147365
 20
-72.429445
 11
8.34736
 21
-75.629447
  0
LINE
  8
St
  6
CONTINUOUS
 62
   127
 10
35.622962
 20
-75.629447
 11
-2.777052
 21
-75.629447
  0
LINE
  8
St
  6
CONTINUOUS
 62
   127
 10
35.622962
 20
-72.429445
 11
-2.777052
 21
-72.429445
  0
LINE
  8
St
  6
CONTINUOUS
 10
11.41978
 20
-105.429453
 11
14.619782
 21
-105.429453
  0
LINE
  8
St
  6
CONTINUOUS
 10
11.41978
 20
-125.429455
 11
14.619782
 21
-125.429455
  0
LINE
  8
St
  6
CONTINUOUS
 10
7.906735
 20
-110.429455
 11
17.987433
 21
-110.429455
  0
LINE
  8
St
  6
CONTINUOUS
 10
11.41978
 20
-115.429457
 11
14.619782
 21
-115.429457
  0
LINE
  8
St
  6
CONTINUOUS
 62
   127
 10
12.219782
 20
-105.429453
 11
12.219782
 21
-115.429457
  0
LINE
  8
St
  6
CONTINUOUS
 62
   127
 10
13.019778
 20
-105.429453
 11
13.019778
 21
-115.429457
  0
LINE
  8
St
  6
CONTINUOUS
 62
   127
 10
13.81978
 20
-105.429453
 11
13.81978
 21
-115.429457
  0
LINE
  8
St
  6
CONTINUOUS
 62
   127
 10
11.41978
 20
-75.629447
 11
11.41978
 21
-125.429455
  0
LINE
  8
St
  6
CONTINUOUS
 62
   127
 10
14.619782
 20
-75.629447
 11
14.619782
 21
-125.429455
  0
ENDBLK
  0
BLOCK
  2
*DIM_0005
 70
    65
 10
0.0
 20
0.0
  0
LINE
  8
寸法
  6
CONTINUOUS
 10
40.622955
 20
-72.429445
 11
102.719073
 21
-72.429445
  0
LINE
  8
寸法
  6
CONTINUOUS
 10
68.41974
 20
-65.429447
 11
102.719073
 21
-65.429447
  0
LINE
  8
寸法
  6
CONTINUOUS
 10
102.719073
 20
-72.429445
 11
102.719073
 21
-65.429447
  0
POINT
  8
寸法
 10
102.719073
 20
-72.429445
  0
POINT
  8
寸法
 10
102.719073
 20
-65.429447
  0
TEXT
  7
TextStyle03
  8
寸法
  6
CONTINUOUS
 10
102.325
 20
-69.7
  1
7
 40
3.0
 50
90.0
 72
     5
 11
102.325
 21
-68.2
  0
ENDBLK
  0
BLOCK
  2
*DIM_0006
 70
    65
 10
0.0
 20
0.0
  0
LINE
  8
寸法
  6
CONTINUOUS
 10
68.41974
 20
-34.42945
 11
102.719073
 21
-34.42945
  0
LINE
  8
寸法
  6
CONTINUOUS
 10
102.719073
 20
-65.429447
 11
102.719073
 21
-34.42945
  0
POINT
  8
寸法
 10
102.719073
 20
-34.42945
  0
TEXT
  7
TextStyle03
  8
寸法
  6
CONTINUOUS
 10
102.325
 20
-51.54375
  1
31
 40
3.0
 50
90.0
 72
     5
 11
102.325
 21
-48.35625
  0
ENDBLK
  0
BLOCK
  2
*DIM_0007
 70
    65
 10
0.0
 20
0.0
  0
LINE
  8
寸法
  6
CONTINUOUS
 10
40.622955
 20
-72.429445
 11
102.719073
 21
-72.429445
  0
LINE
  8
寸法
  6
CONTINUOUS
 10
-34.084717
 20
-101.37364
 11
102.719073
 21
-101.37364
  0
LINE
  8
寸法
  6
CONTINUOUS
 10
102.719073
 20
-72.429445
 11
102.719073
 21
-101.37364
  0
POINT
  8
寸法
 10
102.719073
 20
-72.429445
  0
POINT
  8
寸法
 10
102.719073
 20
-101.37364
  0
TEXT
  7
TextStyle03
  8
寸法
  6
CONTINUOUS
 10
102.325
 20
-90.20625
  1
28.9
 40
3.0
 50
90.0
 72
     5
 11
102.325
 21
-83.64375
  0
ENDBLK
  0
BLOCK
  2
*DIM_0008
 70
    65
 10
0.0
 20
0.0
  0
LINE
  8
寸法
  6
CONTINUOUS
 10
5.919737
 20
69.798025
 11
5.919737
 21
72.015107
  0
LINE
  8
寸法
  6
CONTINUOUS
 10
63.41974
 20
-29.42945
 11
63.41974
 21
72.015107
  0
LINE
  8
寸法
  6
CONTINUOUS
 10
5.919737
 20
72.015107
 11
63.41974
 21
72.015107
  0
POINT
  8
寸法
 10
5.919737
 20
72.015107
  0
POINT
  8
寸法
 10
63.41974
 20
72.015107
  0
TEXT
  7
TextStyle03
  8
寸法
  6
CONTINUOUS
 10
31.36875
 20
72.375
  1
57.5
 40
3.0
 72
     5
 11
37.93125
 21
72.375
  0
ENDBLK
  0
BLOCK
  2
*GRP_0009
 70
    65
 10
0.0
 20
0.0
  0
POLYLINE
  8
寸法
  6
CONTINUOUS
 66
     1
  0
VERTEX
  8
寸法
 10
-32.308993
 20
-96.467087
  0
VERTEX
  8
寸法
 10
-4.701797
 20
-117.313125
  0
VERTEX
  8
寸法
 10
26.745315
 20
-117.313125
  0
SEQEND
  0
ENDBLK
  0
BLOCK
  2
*GRP_0010
 70
    65
 10
0.0
 20
0.0
  0
LINE
  8
寸法
  6
CONTINUOUS
 10
-4.701797
 20
-117.313125
 11
-15.32176
 21
-85.608273
  0
ENDBLK
  0
BLOCK
  2
*GRP_0011
 70
    65
 10
0.0
 20
0.0
  0
POLYLINE
  8
寸法
  6
CONTINUOUS
 66
     1
  0
VERTEX
  8
寸法
 10
-6.535977
 20
-73.221765
  0
VERTEX
  8
寸法
 10
3.484355
 20
-92.997483
  0
VERTEX
  8
寸法
 10
22.17032
 20
-92.997483
  0
SEQEND
  0
ENDBLK
  0
BLOCK
  2
*GRP_0012
 70
    65
 10
0.0
 20
0.0
  0
LINE
  8
型材断面
  6
DOT
 10
-30.580257
 20
-63.929447
 11
-29.28026
 21
-63.929447
  0
LINE
  8
型材断面
  6
DOT
 10
-30.580257
 20
-55.929445
 11
-29.28026
 21
-55.929445
  0
LINE
  8
型材断面
  6
DOT
 10
-29.605257
 20
-55.929445
 11
-29.605257
 21
-63.929447
  0
LINE
  8
型材断面
  6
DOT
 10
-29.930263
 20
-55.929445
 11
-29.930263
 21
-63.929447
  0
LINE
  8
型材断面
  6
DOT
 10
-30.25526
 20
-55.929445
 11
-30.25526
 21
-63.929447
  0
ENDBLK
  0
BLOCK
  2
*GRP_0013
 70
    65
 10
0.0
 20
0.0
  0
LINE
  8
型材断面
  6
DOT
 10
-1.08026
 20
-46.42945
 11
-2.58026
 21
-46.42945
  0
LINE
  8
型材断面
  6
DOT
 10
-1.08026
 20
-38.429447
 11
-2.58026
 21
-38.429447
  0
LINE
  8
型材断面
  6
DOT
 10
-2.20526
 20
-38.429447
 11
-2.20526
 21
-46.42945
  0
LINE
  8
型材断面
  6
DOT
 10
-1.83026
 20
-38.429447
 11
-1.83026
 21
-46.42945
  0
LINE
  8
型材断面
  6
DOT
 10
-1.45526
 20
-38.429447
 11
-1.45526
 21
-46.42945
  0
ENDBLK
  0
BLOCK
  2
*GRP_0014
 70
    65
 10
0.0
 20
0.0
  0
POLYLINE
  8
ガラス
  6
CONTINUOUS
 66
     1
 70
     4
  0
VERTEX
  8
ガラス
 10
-34.1
 20
-64.9
 70
     8
  0
VERTEX
  8
ガラス
 10
-34.075
 20
-64.8
 70
     8
  0
VERTEX
  8
ガラス
 10
-34.025
 20
-64.725
 70
     8
  0
VERTEX
  8
ガラス
 10
-34.0
 20
-64.65
 70
     8
  0
VERTEX
  8
ガラス
 10
-33.975
 20
-64.55
 70
     8
  0
VERTEX
  8
ガラス
 10
-33.925
 20
-64.475
 70
     8
  0
VERTEX
  8
ガラス
 10
-33.9
 20
-64.375
 70
     8
  0
VERTEX
  8
ガラス
 10
-33.85
 20
-64.3
 70
     8
  0
VERTEX
  8
ガラス
 10
-33.8
 20
-64.225
 70
     8
  0
VERTEX
  8
ガラス
 10
-33.775
 20
-64.15
 70
     8
  0
VERTEX
  8
ガラス
 10
-33.725
 20
-64.05
 70
     8
  0
VERTEX
  8
ガラス
 10
-33.675
 20
-63.975
 70
     8
  0
VERTEX
  8
ガラス
 10
-33.65
 20
-63.9
 70
     8
  0
VERTEX
  8
ガラス
 10
-33.6
 20
-63.825
 70
     8
  0
VERTEX
  8
ガラス
 10
-33.55
 20
-63.75
 70
     8
  0
VERTEX
  8
ガラス
 10
-33.5
 20
-63.7
 70
     8
  0
VERTEX
  8
ガラス
 10
-33.45
 20
-63.625
 70
     8
  0
VERTEX
  8
ガラス
 10
-33.4
 20
-63.55
 70
     8
  0
VERTEX
  8
ガラス
 10
-33.325
 20
-63.5
 70
     8
  0
VERTEX
  8
ガラス
 10
-33.275
 20
-63.45
 70
     8
  0
VERTEX
  8
ガラス
 10
-33.225
 20
-63.375
 70
     8
  0
VERTEX
  8
ガラス
 10
-33.15
 20
-63.325
 70
     8
  0
VERTEX
  8
ガラス
 10
-33.075
 20
-63.275
 70
     8
  0
VERTEX
  8
ガラス
 10
-33.025
 20
-63.225
 70
     8
  0
VERTEX
  8
ガラス
 10
-32.95
 20
-63.2
 70
     8
  0
VERTEX
  8
ガラス
 10
-32.875
 20
-63.15
 70
     8
  0
VERTEX
  8
ガラス
 10
-32.8
 20
-63.125
 70
     8
  0
VERTEX
  8
ガラス
 10
-32.725
 20
-63.075
 70
     8
  0
VERTEX
  8
ガラス
 10
-32.625
 20
-63.05
 70
     8
  0
VERTEX
  8
ガラス
 10
-32.55
 20
-63.025
 70
     8
  0
VERTEX
  8
ガラス
 10
-32.475
 20
-63.0
 70
     8
  0
VERTEX
  8
ガラス
 10
-32.375
 20
-62.95
 70
     8
  0
VERTEX
  8
ガラス
 10
-32.3
 20
-62.925
 70
     8
  0
VERTEX
  8
ガラス
 10
-32.2
 20
-62.9
 70
     8
  0
VERTEX
  8
ガラス
 10
-32.125
 20
-62.9
 70
     8
  0
VERTEX
  8
ガラス
 10
-32.025
 20
-62.875
 70
     8
  0
VERTEX
  8
ガラス
 10
-31.95
 20
-62.85
 70
     8
  0
VERTEX
  8
ガラス
 10
-31.85
 20
-62.825
 70
     8
  0
VERTEX
  8
ガラス
 10
-31.775
 20
-62.8
 70
     8
  0
VERTEX
  8
ガラス
 10
-31.675
 20
-62.775
 70
     8
  0
VERTEX
  8
ガラス
 10
-31.575
 20
-62.775
 70
     8
  0
SEQEND
  0
POLYLINE
  8
ガラス
  6
CONTINUOUS
 66
     1
 70
     4
  0
VERTEX
  8
ガラス
 10
-31.575
 20
-62.775
 70
     8
  0
VERTEX
  8
ガラス
 10
-31.6
 20
-62.825
 70
     8
  0
VERTEX
  8
ガラス
 10
-31.625
 20
-62.875
 70
     8
  0
VERTEX
  8
ガラス
 10
-31.65
 20
-62.95
 70
     8
  0
VERTEX
  8
ガラス
 10
-31.675
 20
-63.0
 70
     8
  0
VERTEX
  8
ガラス
 10
-31.7
 20
-63.05
 70
     8
  0
VERTEX
  8
ガラス
 10
-31.725
 20
-63.1
 70
     8
  0
VERTEX
  8
ガラス
 10
-31.75
 20
-63.175
 70
     8
  0
VERTEX
  8
ガラス
 10
-31.775
 20
-63.225
 70
     8
  0
VERTEX
  8
ガラス
 10
-31.8
 20
-63.275
 70
     8
  0
VERTEX
  8
ガラス
 10
-31.825
 20
-63.325
 70
     8
  0
VERTEX
  8
ガラス
 10
-31.85
 20
-63.4
 70
     8
  0
VERTEX
  8
ガラス
 10
-31.85
 20
-63.45
 70
     8
  0
VERTEX
  8
ガラス
 10
-31.875
 20
-63.5
 70
     8
  0
VERTEX
  8
ガラス
 10
-31.9
 20
-63.575
 70
     8
  0
VERTEX
  8
ガラス
 10
-31.925
 20
-63.625
 70
     8
  0
VERTEX
  8
ガラス
 10
-31.95
 20
-63.675
 70
     8
  0
VERTEX
  8
ガラス
 10
-31.95
 20
-63.75
 70
     8
  0
VERTEX
  8
ガラス
 10
-31.975
 20
-63.8
 70
     8
  0
VERTEX
  8
ガラス
 10
-32.0
 20
-63.85
 70
     8
  0
VERTEX
  8
ガラス
 10
-32.0
 20
-63.925
 70
     8
  0
VERTEX
  8
ガラス
 10
-32.025
 20
-63.975
 70
     8
  0
VERTEX
  8
ガラス
 10
-32.05
 20
-64.025
 70
     8
  0
VERTEX
  8
ガラス
 10
-32.05
 20
-64.1
 70
     8
  0
VERTEX
  8
ガラス
 10
-32.075
 20
-64.15
 70
     8
  0
VERTEX
  8
ガラス
 10
-32.075
 20
-64.225
 70
     8
  0
VERTEX
  8
ガラス
 10
-32.1
 20
-64.275
 70
     8
  0
VERTEX
  8
ガラス
 10
-32.1
 20
-64.325
 70
     8
  0
VERTEX
  8
ガラス
 10
-32.125
 20
-64.4
 70
     8
  0
VERTEX
  8
ガラス
 10
-32.125
 20
-64.45
 70
     8
  0
VERTEX
  8
ガラス
 10
-32.125
 20
-64.525
 70
     8
  0
VERTEX
  8
ガラス
 10
-32.15
 20
-64.575
 70
     8
  0
VERTEX
  8
ガラス
 10
-32.15
 20
-64.625
 70
     8
  0
VERTEX
  8
ガラス
 10
-32.15
 20
-64.7
 70
     8
  0
VERTEX
  8
ガラス
 10
-32.175
 20
-64.75
 70
     8
  0
VERTEX
  8
ガラス
 10
-32.175
 20
-64.825
 70
     8
  0
VERTEX
  8
ガラス
 10
-32.175
 20
-64.875
 70
     8
  0
VERTEX
  8
ガラス
 10
-32.2
 20
-64.95
 70
     8
  0
VERTEX
  8
ガラス
 10
-32.2
 20
-65.0
 70
     8
  0
VERTEX
  8
ガラス
 10
-32.2
 20
-65.075
 70
     8
  0
VERTEX
  8
ガラス
 10
-32.2
 20
-65.125
 70
     8
  0
SEQEND
  0
ARC
  8
ガラス
  6
CONTINUOUS
 10
-33.148174
 20
-64.998573
 40
0.955135
 50
173.117443
 51
353.117443
  0
ENDBLK
  0
BLOCK
  2
*GRP_0015
 70
    65
 10
0.0
 20
0.0
  0
POLYLINE
  8
ガラス
  6
CONTINUOUS
 66
     1
 70
     4
  0
VERTEX
  8
ガラス
 10
-38.325
 20
-83.65
 70
     8
  0
VERTEX
  8
ガラス
 10
-38.225
 20
-83.625
 70
     8
  0
VERTEX
  8
ガラス
 10
-38.15
 20
-83.625
 70
     8
  0
VERTEX
  8
ガラス
 10
-38.05
 20
-83.6
 70
     8
  0
VERTEX
  8
ガラス
 10
-37.95
 20
-83.6
 70
     8
  0
VERTEX
  8
ガラス
 10
-37.85
 20
-83.6
 70
     8
  0
VERTEX
  8
ガラス
 10
-37.775
 20
-83.575
 70
     8
  0
VERTEX
  8
ガラス
 10
-37.675
 20
-83.575
 70
     8
  0
VERTEX
  8
ガラス
 10
-37.575
 20
-83.575
 70
     8
  0
VERTEX
  8
ガラス
 10
-37.5
 20
-83.575
 70
     8
  0
VERTEX
  8
ガラス
 10
-37.4
 20
-83.575
 70
     8
  0
VERTEX
  8
ガラス
 10
-37.325
 20
-83.575
 70
     8
  0
VERTEX
  8
ガラス
 10
-37.225
 20
-83.575
 70
     8
  0
VERTEX
  8
ガラス
 10
-37.15
 20
-83.575
 70
     8
  0
VERTEX
  8
ガラス
 10
-37.05
 20
-83.575
 70
     8
  0
VERTEX
  8
ガラス
 10
-36.975
 20
-83.6
 70
     8
  0
VERTEX
  8
ガラス
 10
-36.9
 20
-83.6
 70
     8
  0
VERTEX
  8
ガラス
 10
-36.8
 20
-83.625
 70
     8
  0
VERTEX
  8
ガラス
 10
-36.725
 20
-83.65
 70
     8
  0
VERTEX
  8
ガラス
 10
-36.65
 20
-83.675
 70
     8
  0
VERTEX
  8
ガラス
 10
-36.575
 20
-83.7
 70
     8
  0
VERTEX
  8
ガラス
 10
-36.5
 20
-83.725
 70
     8
  0
VERTEX
  8
ガラス
 10
-36.425
 20
-83.75
 70
     8
  0
VERTEX
  8
ガラス
 10
-36.35
 20
-83.8
 70
     8
  0
VERTEX
  8
ガラス
 10
-36.275
 20
-83.825
 70
     8
  0
VERTEX
  8
ガラス
 10
-36.2
 20
-83.875
 70
     8
  0
VERTEX
  8
ガラス
 10
-36.125
 20
-83.925
 70
     8
  0
VERTEX
  8
ガラス
 10
-36.05
 20
-83.975
 70
     8
  0
VERTEX
  8
ガラス
 10
-36.0
 20
-84.025
 70
     8
  0
VERTEX
  8
ガラス
 10
-35.925
 20
-84.075
 70
     8
  0
VERTEX
  8
ガラス
 10
-35.85
 20
-84.15
 70
     8
  0
VERTEX
  8
ガラス
 10
-35.8
 20
-84.2
 70
     8
  0
VERTEX
  8
ガラス
 10
-35.725
 20
-84.275
 70
     8
  0
VERTEX
  8
ガラス
 10
-35.675
 20
-84.325
 70
     8
  0
VERTEX
  8
ガラス
 10
-35.6
 20
-84.4
 70
     8
  0
VERTEX
  8
ガラス
 10
-35.55
 20
-84.475
 70
     8
  0
VERTEX
  8
ガラス
 10
-35.475
 20
-84.525
 70
     8
  0
VERTEX
  8
ガラス
 10
-35.425
 20
-84.6
 70
     8
  0
VERTEX
  8
ガラス
 10
-35.35
 20
-84.675
 70
     8
  0
VERTEX
  8
ガラス
 10
-35.3
 20
-84.75
 70
     8
  0
VERTEX
  8
ガラス
 10
-35.225
 20
-84.8
 70
     8
  0
SEQEND
  0
POLYLINE
  8
ガラス
  6
CONTINUOUS
 66
     1
 70
     4
  0
VERTEX
  8
ガラス
 10
-35.225
 20
-84.8
 70
     8
  0
VERTEX
  8
ガラス
 10
-35.3
 20
-84.825
 70
     8
  0
VERTEX
  8
ガラス
 10
-35.35
 20
-84.825
 70
     8
  0
VERTEX
  8
ガラス
 10
-35.425
 20
-84.825
 70
     8
  0
VERTEX
  8
ガラス
 10
-35.475
 20
-84.85
 70
     8
  0
VERTEX
  8
ガラス
 10
-35.55
 20
-84.85
 70
     8
  0
VERTEX
  8
ガラス
 10
-35.6
 20
-84.85
 70
     8
  0
VERTEX
  8
ガラス
 10
-35.65
 20
-84.85
 70
     8
  0
VERTEX
  8
ガラス
 10
-35.725
 20
-84.875
 70
     8
  0
VERTEX
  8
ガラス
 10
-35.775
 20
-84.875
 70
     8
  0
VERTEX
  8
ガラス
 10
-35.85
 20
-84.875
 70
     8
  0
VERTEX
  8
ガラス
 10
-35.9
 20
-84.9
 70
     8
  0
VERTEX
  8
ガラス
 10
-35.975
 20
-84.9
 70
     8
  0
VERTEX
  8
ガラス
 10
-36.025
 20
-84.925
 70
     8
  0
VERTEX
  8
ガラス
 10
-36.1
 20
-84.925
 70
     8
  0
VERTEX
  8
ガラス
 10
-36.15
 20
-84.925
 70
     8
  0
VERTEX
  8
ガラス
 10
-36.2
 20
-84.95
 70
     8
  0
VERTEX
  8
ガラス
 10
-36.275
 20
-84.95
 70
     8
  0
VERTEX
  8
ガラス
 10
-36.325
 20
-84.975
 70
     8
  0
VERTEX
  8
ガラス
 10
-36.375
 20
-84.975
 70
     8
  0
VERTEX
  8
ガラス
 10
-36.45
 20
-85.0
 70
     8
  0
VERTEX
  8
ガラス
 10
-36.5
 20
-85.025
 70
     8
  0
VERTEX
  8
ガラス
 10
-36.575
 20
-85.025
 70
     8
  0
VERTEX
  8
ガラス
 10
-36.625
 20
-85.05
 70
     8
  0
VERTEX
  8
ガラス
 10
-36.675
 20
-85.075
 70
     8
  0
VERTEX
  8
ガラス
 10
-36.75
 20
-85.075
 70
     8
  0
VERTEX
  8
ガラス
 10
-36.8
 20
-85.1
 70
     8
  0
VERTEX
  8
ガラス
 10
-36.85
 20
-85.125
 70
     8
  0
VERTEX
  8
ガラス
 10
-36.925
 20
-85.15
 70
     8
  0
VERTEX
  8
ガラス
 10
-36.975
 20
-85.15
 70
     8
  0
VERTEX
  8
ガラス
 10
-37.025
 20
-85.175
 70
     8
  0
VERTEX
  8
ガラス
 10
-37.075
 20
-85.2
 70
     8
  0
VERTEX
  8
ガラス
 10
-37.15
 20
-85.225
 70
     8
  0
VERTEX
  8
ガラス
 10
-37.2
 20
-85.25
 70
     8
  0
VERTEX
  8
ガラス
 10
-37.25
 20
-85.275
 70
     8
  0
VERTEX
  8
ガラス
 10
-37.325
 20
-85.3
 70
     8
  0
VERTEX
  8
ガラス
 10
-37.375
 20
-85.325
 70
     8
  0
VERTEX
  8
ガラス
 10
-37.425
 20
-85.35
 70
     8
  0
VERTEX
  8
ガラス
 10
-37.475
 20
-85.375
 70
     8
  0
VERTEX
  8
ガラス
 10
-37.55
 20
-85.375
 70
     8
  0
VERTEX
  8
ガラス
 10
-37.6
 20
-85.4
 70
     8
  0
SEQEND
  0
ARC
  8
ガラス
  6
CONTINUOUS
 10
-37.949223
 20
-84.514335
 40
0.955135
 50
112.264588
 51
292.264588
  0
ENDBLK
  0
BLOCK
  2
*GRP_0016
 70
    65
 10
0.0
 20
0.0
  0
POLYLINE
  8
ガラス
  6
CONTINUOUS
 66
     1
 70
     4
  0
VERTEX
  8
ガラス
 10
-50.75
 20
-83.65
 70
     8
  0
VERTEX
  8
ガラス
 10
-50.65
 20
-83.625
 70
     8
  0
VERTEX
  8
ガラス
 10
-50.55
 20
-83.625
 70
     8
  0
VERTEX
  8
ガラス
 10
-50.475
 20
-83.6
 70
     8
  0
VERTEX
  8
ガラス
 10
-50.375
 20
-83.6
 70
     8
  0
VERTEX
  8
ガラス
 10
-50.275
 20
-83.6
 70
     8
  0
VERTEX
  8
ガラス
 10
-50.2
 20
-83.575
 70
     8
  0
VERTEX
  8
ガラス
 10
-50.1
 20
-83.575
 70
     8
  0
VERTEX
  8
ガラス
 10
-50.0
 20
-83.575
 70
     8
  0
VERTEX
  8
ガラス
 10
-49.925
 20
-83.575
 70
     8
  0
VERTEX
  8
ガラス
 10
-49.825
 20
-83.575
 70
     8
  0
VERTEX
  8
ガラス
 10
-49.75
 20
-83.575
 70
     8
  0
VERTEX
  8
ガラス
 10
-49.65
 20
-83.575
 70
     8
  0
VERTEX
  8
ガラス
 10
-49.575
 20
-83.575
 70
     8
  0
VERTEX
  8
ガラス
 10
-49.475
 20
-83.575
 70
     8
  0
VERTEX
  8
ガラス
 10
-49.4
 20
-83.6
 70
     8
  0
VERTEX
  8
ガラス
 10
-49.3
 20
-83.6
 70
     8
  0
VERTEX
  8
ガラス
 10
-49.225
 20
-83.625
 70
     8
  0
VERTEX
  8
ガラス
 10
-49.15
 20
-83.65
 70
     8
  0
VERTEX
  8
ガラス
 10
-49.075
 20
-83.675
 70
     8
  0
VERTEX
  8
ガラス
 10
-48.975
 20
-83.7
 70
     8
  0
VERTEX
  8
ガラス
 10
-48.9
 20
-83.725
 70
     8
  0
VERTEX
  8
ガラス
 10
-48.825
 20
-83.75
 70
     8
  0
VERTEX
  8
ガラス
 10
-48.75
 20
-83.8
 70
     8
  0
VERTEX
  8
ガラス
 10
-48.7
 20
-83.825
 70
     8
  0
VERTEX
  8
ガラス
 10
-48.625
 20
-83.875
 70
     8
  0
VERTEX
  8
ガラス
 10
-48.55
 20
-83.925
 70
     8
  0
VERTEX
  8
ガラス
 10
-48.475
 20
-83.975
 70
     8
  0
VERTEX
  8
ガラス
 10
-48.4
 20
-84.025
 70
     8
  0
VERTEX
  8
ガラス
 10
-48.35
 20
-84.075
 70
     8
  0
VERTEX
  8
ガラス
 10
-48.275
 20
-84.15
 70
     8
  0
VERTEX
  8
ガラス
 10
-48.225
 20
-84.2
 70
     8
  0
VERTEX
  8
ガラス
 10
-48.15
 20
-84.275
 70
     8
  0
VERTEX
  8
ガラス
 10
-48.075
 20
-84.325
 70
     8
  0
VERTEX
  8
ガラス
 10
-48.025
 20
-84.4
 70
     8
  0
VERTEX
  8
ガラス
 10
-47.95
 20
-84.475
 70
     8
  0
VERTEX
  8
ガラス
 10
-47.9
 20
-84.525
 70
     8
  0
VERTEX
  8
ガラス
 10
-47.85
 20
-84.6
 70
     8
  0
VERTEX
  8
ガラス
 10
-47.775
 20
-84.675
 70
     8
  0
VERTEX
  8
ガラス
 10
-47.725
 20
-84.75
 70
     8
  0
VERTEX
  8
ガラス
 10
-47.65
 20
-84.8
 70
     8
  0
SEQEND
  0
POLYLINE
  8
ガラス
  6
CONTINUOUS
 66
     1
 70
     4
  0
VERTEX
  8
ガラス
 10
-47.65
 20
-84.8
 70
     8
  0
VERTEX
  8
ガラス
 10
-47.725
 20
-84.825
 70
     8
  0
VERTEX
  8
ガラス
 10
-47.775
 20
-84.825
 70
     8
  0
VERTEX
  8
ガラス
 10
-47.85
 20
-84.825
 70
     8
  0
VERTEX
  8
ガラス
 10
-47.9
 20
-84.85
 70
     8
  0
VERTEX
  8
ガラス
 10
-47.95
 20
-84.85
 70
     8
  0
VERTEX
  8
ガラス
 10
-48.025
 20
-84.85
 70
     8
  0
VERTEX
  8
ガラス
 10
-48.075
 20
-84.85
 70
     8
  0
VERTEX
  8
ガラス
 10
-48.15
 20
-84.875
 70
     8
  0
VERTEX
  8
ガラス
 10
-48.2
 20
-84.875
 70
     8
  0
VERTEX
  8
ガラス
 10
-48.275
 20
-84.875
 70
     8
  0
VERTEX
  8
ガラス
 10
-48.325
 20
-84.9
 70
     8
  0
VERTEX
  8
ガラス
 10
-48.375
 20
-84.9
 70
     8
  0
VERTEX
  8
ガラス
 10
-48.45
 20
-84.925
 70
     8
  0
VERTEX
  8
ガラス
 10
-48.5
 20
-84.925
 70
     8
  0
VERTEX
  8
ガラス
 10
-48.575
 20
-84.925
 70
     8
  0
VERTEX
  8
ガラス
 10
-48.625
 20
-84.95
 70
     8
  0
VERTEX
  8
ガラス
 10
-48.7
 20
-84.95
 70
     8
  0
VERTEX
  8
ガラス
 10
-48.75
 20
-84.975
 70
     8
  0
VERTEX
  8
ガラス
 10
-48.8
 20
-84.975
 70
     8
  0
VERTEX
  8
ガラス
 10
-48.875
 20
-85.0
 70
     8
  0
VERTEX
  8
ガラス
 10
-48.925
 20
-85.025
 70
     8
  0
VERTEX
  8
ガラス
 10
-48.975
 20
-85.025
 70
     8
  0
VERTEX
  8
ガラス
 10
-49.05
 20
-85.05
 70
     8
  0
VERTEX
  8
ガラス
 10
-49.1
 20
-85.075
 70
     8
  0
VERTEX
  8
ガラス
 10
-49.15
 20
-85.075
 70
     8
  0
VERTEX
  8
ガラス
 10
-49.225
 20
-85.1
 70
     8
  0
VERTEX
  8
ガラス
 10
-49.275
 20
-85.125
 70
     8
  0
VERTEX
  8
ガラス
 10
-49.325
 20
-85.15
 70
     8
  0
VERTEX
  8
ガラス
 10
-49.4
 20
-85.15
 70
     8
  0
VERTEX
  8
ガラス
 10
-49.45
 20
-85.175
 70
     8
  0
VERTEX
  8
ガラス
 10
-49.5
 20
-85.2
 70
     8
  0
VERTEX
  8
ガラス
 10
-49.575
 20
-85.225
 70
     8
  0
VERTEX
  8
ガラス
 10
-49.625
 20
-85.25
 70
     8
  0
VERTEX
  8
ガラス
 10
-49.675
 20
-85.275
 70
     8
  0
VERTEX
  8
ガラス
 10
-49.725
 20
-85.3
 70
     8
  0
VERTEX
  8
ガラス
 10
-49.8
 20
-85.325
 70
     8
  0
VERTEX
  8
ガラス
 10
-49.85
 20
-85.35
 70
     8
  0
VERTEX
  8
ガラス
 10
-49.9
 20
-85.375
 70
     8
  0
VERTEX
  8
ガラス
 10
-49.975
 20
-85.375
 70
     8
  0
VERTEX
  8
ガラス
 10
-50.025
 20
-85.4
 70
     8
  0
SEQEND
  0
ARC
  8
ガラス
  6
CONTINUOUS
 10
-50.369223
 20
-84.514335
 40
0.955135
 50
112.264588
 51
292.264588
  0
ENDBLK
  0
BLOCK
  2
*GRP_0017
 70
    65
 10
0.0
 20
0.0
  0
POLYLINE
  8
ガラス
  6
CONTINUOUS
 66
     1
 70
     4
  0
VERTEX
  8
ガラス
 10
-34.1
 20
-77.2
 70
     8
  0
VERTEX
  8
ガラス
 10
-34.075
 20
-77.125
 70
     8
  0
VERTEX
  8
ガラス
 10
-34.025
 20
-77.025
 70
     8
  0
VERTEX
  8
ガラス
 10
-34.0
 20
-76.95
 70
     8
  0
VERTEX
  8
ガラス
 10
-33.975
 20
-76.875
 70
     8
  0
VERTEX
  8
ガラス
 10
-33.925
 20
-76.775
 70
     8
  0
VERTEX
  8
ガラス
 10
-33.9
 20
-76.7
 70
     8
  0
VERTEX
  8
ガラス
 10
-33.85
 20
-76.625
 70
     8
  0
VERTEX
  8
ガラス
 10
-33.8
 20
-76.525
 70
     8
  0
VERTEX
  8
ガラス
 10
-33.775
 20
-76.45
 70
     8
  0
VERTEX
  8
ガラス
 10
-33.725
 20
-76.375
 70
     8
  0
VERTEX
  8
ガラス
 10
-33.675
 20
-76.3
 70
     8
  0
VERTEX
  8
ガラス
 10
-33.65
 20
-76.225
 70
     8
  0
VERTEX
  8
ガラス
 10
-33.6
 20
-76.15
 70
     8
  0
VERTEX
  8
ガラス
 10
-33.55
 20
-76.075
 70
     8
  0
VERTEX
  8
ガラス
 10
-33.5
 20
-76.0
 70
     8
  0
VERTEX
  8
ガラス
 10
-33.45
 20
-75.925
 70
     8
  0
VERTEX
  8
ガラス
 10
-33.4
 20
-75.875
 70
     8
  0
VERTEX
  8
ガラス
 10
-33.325
 20
-75.8
 70
     8
  0
VERTEX
  8
ガラス
 10
-33.275
 20
-75.75
 70
     8
  0
VERTEX
  8
ガラス
 10
-33.225
 20
-75.7
 70
     8
  0
VERTEX
  8
ガラス
 10
-33.15
 20
-75.65
 70
     8
  0
VERTEX
  8
ガラス
 10
-33.075
 20
-75.6
 70
     8
  0
VERTEX
  8
ガラス
 10
-33.025
 20
-75.55
 70
     8
  0
VERTEX
  8
ガラス
 10
-32.95
 20
-75.5
 70
     8
  0
VERTEX
  8
ガラス
 10
-32.875
 20
-75.475
 70
     8
  0
VERTEX
  8
ガラス
 10
-32.8
 20
-75.425
 70
     8
  0
VERTEX
  8
ガラス
 10
-32.725
 20
-75.4
 70
     8
  0
VERTEX
  8
ガラス
 10
-32.625
 20
-75.35
 70
     8
  0
VERTEX
  8
ガラス
 10
-32.55
 20
-75.325
 70
     8
  0
VERTEX
  8
ガラス
 10
-32.475
 20
-75.3
 70
     8
  0
VERTEX
  8
ガラス
 10
-32.375
 20
-75.275
 70
     8
  0
VERTEX
  8
ガラス
 10
-32.3
 20
-75.25
 70
     8
  0
VERTEX
  8
ガラス
 10
-32.2
 20
-75.225
 70
     8
  0
VERTEX
  8
ガラス
 10
-32.125
 20
-75.2
 70
     8
  0
VERTEX
  8
ガラス
 10
-32.025
 20
-75.175
 70
     8
  0
VERTEX
  8
ガラス
 10
-31.95
 20
-75.15
 70
     8
  0
VERTEX
  8
ガラス
 10
-31.85
 20
-75.15
 70
     8
  0
VERTEX
  8
ガラス
 10
-31.775
 20
-75.125
 70
     8
  0
VERTEX
  8
ガラス
 10
-31.675
 20
-75.1
 70
     8
  0
VERTEX
  8
ガラス
 10
-31.575
 20
-75.075
 70
     8
  0
SEQEND
  0
POLYLINE
  8
ガラス
  6
CONTINUOUS
 66
     1
 70
     4
  0
VERTEX
  8
ガラス
 10
-31.575
 20
-75.075
 70
     8
  0
VERTEX
  8
ガラス
 10
-31.6
 20
-75.125
 70
     8
  0
VERTEX
  8
ガラス
 10
-31.625
 20
-75.2
 70
     8
  0
VERTEX
  8
ガラス
 10
-31.65
 20
-75.25
 70
     8
  0
VERTEX
  8
ガラス
 10
-31.675
 20
-75.3
 70
     8
  0
VERTEX
  8
ガラス
 10
-31.7
 20
-75.375
 70
     8
  0
VERTEX
  8
ガラス
 10
-31.725
 20
-75.425
 70
     8
  0
VERTEX
  8
ガラス
 10
-31.75
 20
-75.475
 70
     8
  0
VERTEX
  8
ガラス
 10
-31.775
 20
-75.525
 70
     8
  0
VERTEX
  8
ガラス
 10
-31.8
 20
-75.6
 70
     8
  0
VERTEX
  8
ガラス
 10
-31.825
 20
-75.65
 70
     8
  0
VERTEX
  8
ガラス
 10
-31.85
 20
-75.7
 70
     8
  0
VERTEX
  8
ガラス
 10
-31.85
 20
-75.775
 70
     8
  0
VERTEX
  8
ガラス
 10
-31.875
 20
-75.825
 70
     8
  0
VERTEX
  8
ガラス
 10
-31.9
 20
-75.875
 70
     8
  0
VERTEX
  8
ガラス
 10
-31.925
 20
-75.925
 70
     8
  0
VERTEX
  8
ガラス
 10
-31.95
 20
-76.0
 70
     8
  0
VERTEX
  8
ガラス
 10
-31.95
 20
-76.05
 70
     8
  0
VERTEX
  8
ガラス
 10
-31.975
 20
-76.1
 70
     8
  0
VERTEX
  8
ガラス
 10
-32.0
 20
-76.175
 70
     8
  0
VERTEX
  8
ガラス
 10
-32.0
 20
-76.225
 70
     8
  0
VERTEX
  8
ガラス
 10
-32.025
 20
-76.3
 70
     8
  0
VERTEX
  8
ガラス
 10
-32.05
 20
-76.35
 70
     8
  0
VERTEX
  8
ガラス
 10
-32.05
 20
-76.4
 70
     8
  0
VERTEX
  8
ガラス
 10
-32.075
 20
-76.475
 70
     8
  0
VERTEX
  8
ガラス
 10
-32.075
 20
-76.525
 70
     8
  0
VERTEX
  8
ガラス
 10
-32.1
 20
-76.575
 70
     8
  0
VERTEX
  8
ガラス
 10
-32.1
 20
-76.65
 70
     8
  0
VERTEX
  8
ガラス
 10
-32.125
 20
-76.7
 70
     8
  0
VERTEX
  8
ガラス
 10
-32.125
 20
-76.775
 70
     8
  0
VERTEX
  8
ガラス
 10
-32.125
 20
-76.825
 70
     8
  0
VERTEX
  8
ガラス
 10
-32.15
 20
-76.9
 70
     8
  0
VERTEX
  8
ガラス
 10
-32.15
 20
-76.95
 70
     8
  0
VERTEX
  8
ガラス
 10
-32.15
 20
-77.0
 70
     8
  0
VERTEX
  8
ガラス
 10
-32.175
 20
-77.075
 70
     8
  0
VERTEX
  8
ガラス
 10
-32.175
 20
-77.125
 70
     8
  0
VERTEX
  8
ガラス
 10
-32.175
 20
-77.2
 70
     8
  0
VERTEX
  8
ガラス
 10
-32.2
 20
-77.25
 70
     8
  0
VERTEX
  8
ガラス
 10
-32.2
 20
-77.325
 70
     8
  0
VERTEX
  8
ガラス
 10
-32.2
 20
-77.375
 70
     8
  0
VERTEX
  8
ガラス
 10
-32.2
 20
-77.45
 70
     8
  0
SEQEND
  0
ARC
  8
ガラス
  6
CONTINUOUS
 10
-33.148174
 20
-77.310573
 40
0.955135
 50
173.117443
 51
353.117443
  0
ENDBLK
  0
BLOCK
  2
*GRP_0018
 70
    65
 10
0.0
 20
0.0
  0
POLYLINE
  8
ガラス
  6
CONTINUOUS
 66
     1
 70
     4
  0
VERTEX
  8
ガラス
 10
-23.7
 20
-43.5
 70
     8
  0
VERTEX
  8
ガラス
 10
-23.65
 20
-43.4
 70
     8
  0
VERTEX
  8
ガラス
 10
-23.625
 20
-43.325
 70
     8
  0
VERTEX
  8
ガラス
 10
-23.575
 20
-43.225
 70
     8
  0
VERTEX
  8
ガラス
 10
-23.55
 20
-43.15
 70
     8
  0
VERTEX
  8
ガラス
 10
-23.5
 20
-43.05
 70
     8
  0
VERTEX
  8
ガラス
 10
-23.475
 20
-42.975
 70
     8
  0
VERTEX
  8
ガラス
 10
-23.425
 20
-42.9
 70
     8
  0
VERTEX
  8
ガラス
 10
-23.4
 20
-42.8
 70
     8
  0
VERTEX
  8
ガラス
 10
-23.35
 20
-42.725
 70
     8
  0
VERTEX
  8
ガラス
 10
-23.3
 20
-42.65
 70
     8
  0
VERTEX
  8
ガラス
 10
-23.275
 20
-42.575
 70
     8
  0
VERTEX
  8
ガラス
 10
-23.225
 20
-42.5
 70
     8
  0
VERTEX
  8
ガラス
 10
-23.175
 20
-42.425
 70
     8
  0
VERTEX
  8
ガラス
 10
-23.125
 20
-42.35
 70
     8
  0
VERTEX
  8
ガラス
 10
-23.075
 20
-42.275
 70
     8
  0
VERTEX
  8
ガラス
 10
-23.025
 20
-42.225
 70
     8
  0
VERTEX
  8
ガラス
 10
-22.975
 20
-42.15
 70
     8
  0
VERTEX
  8
ガラス
 10
-22.925
 20
-42.1
 70
     8
  0
VERTEX
  8
ガラス
 10
-22.85
 20
-42.025
 70
     8
  0
VERTEX
  8
ガラス
 10
-22.8
 20
-41.975
 70
     8
  0
VERTEX
  8
ガラス
 10
-22.725
 20
-41.925
 70
     8
  0
VERTEX
  8
ガラス
 10
-22.675
 20
-41.875
 70
     8
  0
VERTEX
  8
ガラス
 10
-22.6
 20
-41.825
 70
     8
  0
VERTEX
  8
ガラス
 10
-22.525
 20
-41.775
 70
     8
  0
VERTEX
  8
ガラス
 10
-22.45
 20
-41.75
 70
     8
  0
VERTEX
  8
ガラス
 10
-22.375
 20
-41.7
 70
     8
  0
VERTEX
  8
ガラス
 10
-22.3
 20
-41.675
 70
     8
  0
VERTEX
  8
ガラス
 10
-22.225
 20
-41.65
 70
     8
  0
VERTEX
  8
ガラス
 10
-22.125
 20
-41.6
 70
     8
  0
VERTEX
  8
ガラス
 10
-22.05
 20
-41.575
 70
     8
  0
VERTEX
  8
ガラス
 10
-21.975
 20
-41.55
 70
     8
  0
VERTEX
  8
ガラス
 10
-21.875
 20
-41.525
 70
     8
  0
VERTEX
  8
ガラス
 10
-21.8
 20
-41.5
 70
     8
  0
VERTEX
  8
ガラス
 10
-21.7
 20
-41.475
 70
     8
  0
VERTEX
  8
ガラス
 10
-21.625
 20
-41.45
 70
     8
  0
VERTEX
  8
ガラス
 10
-21.525
 20
-41.45
 70
     8
  0
VERTEX
  8
ガラス
 10
-21.425
 20
-41.425
 70
     8
  0
VERTEX
  8
ガラス
 10
-21.35
 20
-41.4
 70
     8
  0
VERTEX
  8
ガラス
 10
-21.25
 20
-41.375
 70
     8
  0
VERTEX
  8
ガラス
 10
-21.175
 20
-41.35
 70
     8
  0
SEQEND
  0
POLYLINE
  8
ガラス
  6
CONTINUOUS
 66
     1
 70
     4
  0
VERTEX
  8
ガラス
 10
-21.175
 20
-41.35
 70
     8
  0
VERTEX
  8
ガラス
 10
-21.2
 20
-41.425
 70
     8
  0
VERTEX
  8
ガラス
 10
-21.2
 20
-41.475
 70
     8
  0
VERTEX
  8
ガラス
 10
-21.225
 20
-41.525
 70
     8
  0
VERTEX
  8
ガラス
 10
-21.25
 20
-41.575
 70
     8
  0
VERTEX
  8
ガラス
 10
-21.275
 20
-41.65
 70
     8
  0
VERTEX
  8
ガラス
 10
-21.3
 20
-41.7
 70
     8
  0
VERTEX
  8
ガラス
 10
-21.325
 20
-41.75
 70
     8
  0
VERTEX
  8
ガラス
 10
-21.35
 20
-41.825
 70
     8
  0
VERTEX
  8
ガラス
 10
-21.375
 20
-41.875
 70
     8
  0
VERTEX
  8
ガラス
 10
-21.4
 20
-41.925
 70
     8
  0
VERTEX
  8
ガラス
 10
-21.425
 20
-41.975
 70
     8
  0
VERTEX
  8
ガラス
 10
-21.45
 20
-42.05
 70
     8
  0
VERTEX
  8
ガラス
 10
-21.45
 20
-42.1
 70
     8
  0
VERTEX
  8
ガラス
 10
-21.475
 20
-42.15
 70
     8
  0
VERTEX
  8
ガラス
 10
-21.5
 20
-42.225
 70
     8
  0
VERTEX
  8
ガラス
 10
-21.525
 20
-42.275
 70
     8
  0
VERTEX
  8
ガラス
 10
-21.55
 20
-42.325
 70
     8
  0
VERTEX
  8
ガラス
 10
-21.55
 20
-42.4
 70
     8
  0
VERTEX
  8
ガラス
 10
-21.575
 20
-42.45
 70
     8
  0
VERTEX
  8
ガラス
 10
-21.6
 20
-42.5
 70
     8
  0
VERTEX
  8
ガラス
 10
-21.6
 20
-42.575
 70
     8
  0
VERTEX
  8
ガラス
 10
-21.625
 20
-42.625
 70
     8
  0
VERTEX
  8
ガラス
 10
-21.625
 20
-42.675
 70
     8
  0
VERTEX
  8
ガラス
 10
-21.65
 20
-42.75
 70
     8
  0
VERTEX
  8
ガラス
 10
-21.675
 20
-42.8
 70
     8
  0
VERTEX
  8
ガラス
 10
-21.675
 20
-42.875
 70
     8
  0
VERTEX
  8
ガラス
 10
-21.675
 20
-42.925
 70
     8
  0
VERTEX
  8
ガラス
 10
-21.7
 20
-42.975
 70
     8
  0
VERTEX
  8
ガラス
 10
-21.7
 20
-43.05
 70
     8
  0
VERTEX
  8
ガラス
 10
-21.725
 20
-43.1
 70
     8
  0
VERTEX
  8
ガラス
 10
-21.725
 20
-43.175
 70
     8
  0
VERTEX
  8
ガラス
 10
-21.725
 20
-43.225
 70
     8
  0
VERTEX
  8
ガラス
 10
-21.75
 20
-43.3
 70
     8
  0
VERTEX
  8
ガラス
 10
-21.75
 20
-43.35
 70
     8
  0
VERTEX
  8
ガラス
 10
-21.75
 20
-43.4
 70
     8
  0
VERTEX
  8
ガラス
 10
-21.775
 20
-43.475
 70
     8
  0
VERTEX
  8
ガラス
 10
-21.775
 20
-43.525
 70
     8
  0
VERTEX
  8
ガラス
 10
-21.775
 20
-43.6
 70
     8
  0
VERTEX
  8
ガラス
 10
-21.775
 20
-43.65
 70
     8
  0
VERTEX
  8
ガラス
 10
-21.8
 20
-43.725
 70
     8
  0
SEQEND
  0
ARC
  8
ガラス
  6
CONTINUOUS
 10
-22.729174
 20
-43.590573
 40
0.955135
 50
173.117443
 51
353.117443
  0
ENDBLK
  0
BLOCK
  2
*GRP_0019
 70
    65
 10
0.0
 20
0.0
  0
POLYLINE
  8
ガラス
  6
CONTINUOUS
 66
     1
 70
     4
  0
VERTEX
  8
ガラス
 10
-23.7
 20
-55.15
 70
     8
  0
VERTEX
  8
ガラス
 10
-23.65
 20
-55.075
 70
     8
  0
VERTEX
  8
ガラス
 10
-23.625
 20
-54.975
 70
     8
  0
VERTEX
  8
ガラス
 10
-23.575
 20
-54.9
 70
     8
  0
VERTEX
  8
ガラス
 10
-23.55
 20
-54.8
 70
     8
  0
VERTEX
  8
ガラス
 10
-23.5
 20
-54.725
 70
     8
  0
VERTEX
  8
ガラス
 10
-23.475
 20
-54.65
 70
     8
  0
VERTEX
  8
ガラス
 10
-23.425
 20
-54.55
 70
     8
  0
VERTEX
  8
ガラス
 10
-23.4
 20
-54.475
 70
     8
  0
VERTEX
  8
ガラス
 10
-23.35
 20
-54.4
 70
     8
  0
VERTEX
  8
ガラス
 10
-23.3
 20
-54.325
 70
     8
  0
VERTEX
  8
ガラス
 10
-23.275
 20
-54.25
 70
     8
  0
VERTEX
  8
ガラス
 10
-23.225
 20
-54.175
 70
     8
  0
VERTEX
  8
ガラス
 10
-23.175
 20
-54.1
 70
     8
  0
VERTEX
  8
ガラス
 10
-23.125
 20
-54.025
 70
     8
  0
VERTEX
  8
ガラス
 10
-23.075
 20
-53.95
 70
     8
  0
VERTEX
  8
ガラス
 10
-23.025
 20
-53.875
 70
     8
  0
VERTEX
  8
ガラス
 10
-22.975
 20
-53.825
 70
     8
  0
VERTEX
  8
ガラス
 10
-22.925
 20
-53.75
 70
     8
  0
VERTEX
  8
ガラス
 10
-22.85
 20
-53.7
 70
     8
  0
VERTEX
  8
ガラス
 10
-22.8
 20
-53.65
 70
     8
  0
VERTEX
  8
ガラス
 10
-22.725
 20
-53.6
 70
     8
  0
VERTEX
  8
ガラス
 10
-22.675
 20
-53.55
 70
     8
  0
VERTEX
  8
ガラス
 10
-22.6
 20
-53.5
 70
     8
  0
VERTEX
  8
ガラス
 10
-22.525
 20
-53.45
 70
     8
  0
VERTEX
  8
ガラス
 10
-22.45
 20
-53.4
 70
     8
  0
VERTEX
  8
ガラス
 10
-22.375
 20
-53.375
 70
     8
  0
VERTEX
  8
ガラス
 10
-22.3
 20
-53.325
 70
     8
  0
VERTEX
  8
ガラス
 10
-22.225
 20
-53.3
 70
     8
  0
VERTEX
  8
ガラス
 10
-22.125
 20
-53.275
 70
     8
  0
VERTEX
  8
ガラス
 10
-22.05
 20
-53.25
 70
     8
  0
VERTEX
  8
ガラス
 10
-21.975
 20
-53.225
 70
     8
  0
VERTEX
  8
ガラス
 10
-21.875
 20
-53.2
 70
     8
  0
VERTEX
  8
ガラス
 10
-21.8
 20
-53.175
 70
     8
  0
VERTEX
  8
ガラス
 10
-21.7
 20
-53.15
 70
     8
  0
VERTEX
  8
ガラス
 10
-21.625
 20
-53.125
 70
     8
  0
VERTEX
  8
ガラス
 10
-21.525
 20
-53.1
 70
     8
  0
VERTEX
  8
ガラス
 10
-21.425
 20
-53.075
 70
     8
  0
VERTEX
  8
ガラス
 10
-21.35
 20
-53.05
 70
     8
  0
VERTEX
  8
ガラス
 10
-21.25
 20
-53.05
 70
     8
  0
VERTEX
  8
ガラス
 10
-21.175
 20
-53.025
 70
     8
  0
SEQEND
  0
POLYLINE
  8
ガラス
  6
CONTINUOUS
 66
     1
 70
     4
  0
VERTEX
  8
ガラス
 10
-21.175
 20
-53.025
 70
     8
  0
VERTEX
  8
ガラス
 10
-21.2
 20
-53.075
 70
     8
  0
VERTEX
  8
ガラス
 10
-21.2
 20
-53.125
 70
     8
  0
VERTEX
  8
ガラス
 10
-21.225
 20
-53.2
 70
     8
  0
VERTEX
  8
ガラス
 10
-21.25
 20
-53.25
 70
     8
  0
VERTEX
  8
ガラス
 10
-21.275
 20
-53.3
 70
     8
  0
VERTEX
  8
ガラス
 10
-21.3
 20
-53.375
 70
     8
  0
VERTEX
  8
ガラス
 10
-21.325
 20
-53.425
 70
     8
  0
VERTEX
  8
ガラス
 10
-21.35
 20
-53.475
 70
     8
  0
VERTEX
  8
ガラス
 10
-21.375
 20
-53.525
 70
     8
  0
VERTEX
  8
ガラス
 10
-21.4
 20
-53.6
 70
     8
  0
VERTEX
  8
ガラス
 10
-21.425
 20
-53.65
 70
     8
  0
VERTEX
  8
ガラス
 10
-21.45
 20
-53.7
 70
     8
  0
VERTEX
  8
ガラス
 10
-21.45
 20
-53.775
 70
     8
  0
VERTEX
  8
ガラス
 10
-21.475
 20
-53.825
 70
     8
  0
VERTEX
  8
ガラス
 10
-21.5
 20
-53.875
 70
     8
  0
VERTEX
  8
ガラス
 10
-21.525
 20
-53.95
 70
     8
  0
VERTEX
  8
ガラス
 10
-21.55
 20
-54.0
 70
     8
  0
VERTEX
  8
ガラス
 10
-21.55
 20
-54.05
 70
     8
  0
VERTEX
  8
ガラス
 10
-21.575
 20
-54.125
 70
     8
  0
VERTEX
  8
ガラス
 10
-21.6
 20
-54.175
 70
     8
  0
VERTEX
  8
ガラス
 10
-21.6
 20
-54.225
 70
     8
  0
VERTEX
  8
ガラス
 10
-21.625
 20
-54.3
 70
     8
  0
VERTEX
  8
ガラス
 10
-21.625
 20
-54.35
 70
     8
  0
VERTEX
  8
ガラス
 10
-21.65
 20
-54.4
 70
     8
  0
VERTEX
  8
ガラス
 10
-21.675
 20
-54.475
 70
     8
  0
VERTEX
  8
ガラス
 10
-21.675
 20
-54.525
 70
     8
  0
VERTEX
  8
ガラス
 10
-21.675
 20
-54.6
 70
     8
  0
VERTEX
  8
ガラス
 10
-21.7
 20
-54.65
 70
     8
  0
VERTEX
  8
ガラス
 10
-21.7
 20
-54.7
 70
     8
  0
VERTEX
  8
ガラス
 10
-21.725
 20
-54.775
 70
     8
  0
VERTEX
  8
ガラス
 10
-21.725
 20
-54.825
 70
     8
  0
VERTEX
  8
ガラス
 10
-21.725
 20
-54.9
 70
     8
  0
VERTEX
  8
ガラス
 10
-21.75
 20
-54.95
 70
     8
  0
VERTEX
  8
ガラス
 10
-21.75
 20
-55.025
 70
     8
  0
VERTEX
  8
ガラス
 10
-21.75
 20
-55.075
 70
     8
  0
VERTEX
  8
ガラス
 10
-21.775
 20
-55.125
 70
     8
  0
VERTEX
  8
ガラス
 10
-21.775
 20
-55.2
 70
     8
  0
VERTEX
  8
ガラス
 10
-21.775
 20
-55.25
 70
     8
  0
VERTEX
  8
ガラス
 10
-21.775
 20
-55.325
 70
     8
  0
VERTEX
  8
ガラス
 10
-21.8
 20
-55.375
 70
     8
  0
SEQEND
  0
ARC
  8
ガラス
  6
CONTINUOUS
 10
-22.729174
 20
-55.254573
 40
0.955135
 50
173.117443
 51
353.117443
  0
ENDBLK
  0
BLOCK
  2
*GRP_0020
 70
    65
 10
0.0
 20
0.0
  0
POLYLINE
  8
ガラス
  6
CONTINUOUS
 66
     1
 70
     4
  0
VERTEX
  8
ガラス
 10
-27.675
 20
-61.575
 70
     8
  0
VERTEX
  8
ガラス
 10
-27.575
 20
-61.575
 70
     8
  0
VERTEX
  8
ガラス
 10
-27.475
 20
-61.55
 70
     8
  0
VERTEX
  8
ガラス
 10
-27.4
 20
-61.55
 70
     8
  0
VERTEX
  8
ガラス
 10
-27.3
 20
-61.55
 70
     8
  0
VERTEX
  8
ガラス
 10
-27.2
 20
-61.525
 70
     8
  0
VERTEX
  8
ガラス
 10
-27.125
 20
-61.525
 70
     8
  0
VERTEX
  8
ガラス
 10
-27.025
 20
-61.525
 70
     8
  0
VERTEX
  8
ガラス
 10
-26.925
 20
-61.525
 70
     8
  0
VERTEX
  8
ガラス
 10
-26.85
 20
-61.5
 70
     8
  0
VERTEX
  8
ガラス
 10
-26.75
 20
-61.5
 70
     8
  0
VERTEX
  8
ガラス
 10
-26.675
 20
-61.5
 70
     8
  0
VERTEX
  8
ガラス
 10
-26.575
 20
-61.5
 70
     8
  0
VERTEX
  8
ガラス
 10
-26.5
 20
-61.525
 70
     8
  0
VERTEX
  8
ガラス
 10
-26.4
 20
-61.525
 70
     8
  0
VERTEX
  8
ガラス
 10
-26.325
 20
-61.525
 70
     8
  0
VERTEX
  8
ガラス
 10
-26.25
 20
-61.55
 70
     8
  0
VERTEX
  8
ガラス
 10
-26.15
 20
-61.55
 70
     8
  0
VERTEX
  8
ガラス
 10
-26.075
 20
-61.575
 70
     8
  0
VERTEX
  8
ガラス
 10
-26.0
 20
-61.6
 70
     8
  0
VERTEX
  8
ガラス
 10
-25.925
 20
-61.625
 70
     8
  0
VERTEX
  8
ガラス
 10
-25.85
 20
-61.65
 70
     8
  0
VERTEX
  8
ガラス
 10
-25.775
 20
-61.7
 70
     8
  0
VERTEX
  8
ガラス
 10
-25.7
 20
-61.725
 70
     8
  0
VERTEX
  8
ガラス
 10
-25.625
 20
-61.775
 70
     8
  0
VERTEX
  8
ガラス
 10
-25.55
 20
-61.825
 70
     8
  0
VERTEX
  8
ガラス
 10
-25.475
 20
-61.875
 70
     8
  0
VERTEX
  8
ガラス
 10
-25.4
 20
-61.925
 70
     8
  0
VERTEX
  8
ガラス
 10
-25.35
 20
-61.975
 70
     8
  0
VERTEX
  8
ガラス
 10
-25.275
 20
-62.025
 70
     8
  0
VERTEX
  8
ガラス
 10
-25.2
 20
-62.075
 70
     8
  0
VERTEX
  8
ガラス
 10
-25.15
 20
-62.15
 70
     8
  0
VERTEX
  8
ガラス
 10
-25.075
 20
-62.2
 70
     8
  0
VERTEX
  8
ガラス
 10
-25.025
 20
-62.275
 70
     8
  0
VERTEX
  8
ガラス
 10
-24.95
 20
-62.35
 70
     8
  0
VERTEX
  8
ガラス
 10
-24.9
 20
-62.4
 70
     8
  0
VERTEX
  8
ガラス
 10
-24.825
 20
-62.475
 70
     8
  0
VERTEX
  8
ガラス
 10
-24.775
 20
-62.55
 70
     8
  0
VERTEX
  8
ガラス
 10
-24.7
 20
-62.6
 70
     8
  0
VERTEX
  8
ガラス
 10
-24.65
 20
-62.675
 70
     8
  0
VERTEX
  8
ガラス
 10
-24.575
 20
-62.75
 70
     8
  0
SEQEND
  0
POLYLINE
  8
ガラス
  6
CONTINUOUS
 66
     1
 70
     4
  0
VERTEX
  8
ガラス
 10
-24.575
 20
-62.75
 70
     8
  0
VERTEX
  8
ガラス
 10
-24.65
 20
-62.75
 70
     8
  0
VERTEX
  8
ガラス
 10
-24.7
 20
-62.775
 70
     8
  0
VERTEX
  8
ガラス
 10
-24.775
 20
-62.775
 70
     8
  0
VERTEX
  8
ガラス
 10
-24.825
 20
-62.775
 70
     8
  0
VERTEX
  8
ガラス
 10
-24.9
 20
-62.775
 70
     8
  0
VERTEX
  8
ガラス
 10
-24.95
 20
-62.8
 70
     8
  0
VERTEX
  8
ガラス
 10
-25.0
 20
-62.8
 70
     8
  0
VERTEX
  8
ガラス
 10
-25.075
 20
-62.8
 70
     8
  0
VERTEX
  8
ガラス
 10
-25.125
 20
-62.825
 70
     8
  0
VERTEX
  8
ガラス
 10
-25.2
 20
-62.825
 70
     8
  0
VERTEX
  8
ガラス
 10
-25.25
 20
-62.825
 70
     8
  0
VERTEX
  8
ガラス
 10
-25.325
 20
-62.85
 70
     8
  0
VERTEX
  8
ガラス
 10
-25.375
 20
-62.85
 70
     8
  0
VERTEX
  8
ガラス
 10
-25.425
 20
-62.875
 70
     8
  0
VERTEX
  8
ガラス
 10
-25.5
 20
-62.875
 70
     8
  0
VERTEX
  8
ガラス
 10
-25.55
 20
-62.875
 70
     8
  0
VERTEX
  8
ガラス
 10
-25.625
 20
-62.9
 70
     8
  0
VERTEX
  8
ガラス
 10
-25.675
 20
-62.9
 70
     8
  0
VERTEX
  8
ガラス
 10
-25.725
 20
-62.925
 70
     8
  0
VERTEX
  8
ガラス
 10
-25.8
 20
-62.925
 70
     8
  0
VERTEX
  8
ガラス
 10
-25.85
 20
-62.95
 70
     8
  0
VERTEX
  8
ガラス
 10
-25.925
 20
-62.975
 70
     8
  0
VERTEX
  8
ガラス
 10
-25.975
 20
-62.975
 70
     8
  0
VERTEX
  8
ガラス
 10
-26.025
 20
-63.0
 70
     8
  0
VERTEX
  8
ガラス
 10
-26.1
 20
-63.025
 70
     8
  0
VERTEX
  8
ガラス
 10
-26.15
 20
-63.05
 70
     8
  0
VERTEX
  8
ガラス
 10
-26.2
 20
-63.05
 70
     8
  0
VERTEX
  8
ガラス
 10
-26.275
 20
-63.075
 70
     8
  0
VERTEX
  8
ガラス
 10
-26.325
 20
-63.1
 70
     8
  0
VERTEX
  8
ガラス
 10
-26.375
 20
-63.125
 70
     8
  0
VERTEX
  8
ガラス
 10
-26.425
 20
-63.15
 70
     8
  0
VERTEX
  8
ガラス
 10
-26.5
 20
-63.175
 70
     8
  0
VERTEX
  8
ガラス
 10
-26.55
 20
-63.175
 70
     8
  0
VERTEX
  8
ガラス
 10
-26.6
 20
-63.2
 70
     8
  0
VERTEX
  8
ガラス
 10
-26.675
 20
-63.225
 70
     8
  0
VERTEX
  8
ガラス
 10
-26.725
 20
-63.25
 70
     8
  0
VERTEX
  8
ガラス
 10
-26.775
 20
-63.275
 70
     8
  0
VERTEX
  8
ガラス
 10
-26.825
 20
-63.3
 70
     8
  0
VERTEX
  8
ガラス
 10
-26.9
 20
-63.325
 70
     8
  0
VERTEX
  8
ガラス
 10
-26.95
 20
-63.35
 70
     8
  0
SEQEND
  0
ARC
  8
ガラス
  6
CONTINUOUS
 10
-27.298359
 20
-62.453807
 40
0.955135
 50
112.264588
 51
292.264588
  0
ENDBLK
  0
BLOCK
  2
*GRP_0021
 70
    65
 10
0.0
 20
0.0
  0
POLYLINE
  8
ガラス
  6
CONTINUOUS
 66
     1
 70
     4
  0
VERTEX
  8
ガラス
 10
-5.85
 20
-47.675
 70
     8
  0
VERTEX
  8
ガラス
 10
-5.8
 20
-47.6
 70
     8
  0
VERTEX
  8
ガラス
 10
-5.775
 20
-47.525
 70
     8
  0
VERTEX
  8
ガラス
 10
-5.725
 20
-47.425
 70
     8
  0
VERTEX
  8
ガラス
 10
-5.7
 20
-47.35
 70
     8
  0
VERTEX
  8
ガラス
 10
-5.65
 20
-47.25
 70
     8
  0
VERTEX
  8
ガラス
 10
-5.625
 20
-47.175
 70
     8
  0
VERTEX
  8
ガラス
 10
-5.575
 20
-47.1
 70
     8
  0
VERTEX
  8
ガラス
 10
-5.55
 20
-47.0
 70
     8
  0
VERTEX
  8
ガラス
 10
-5.5
 20
-46.925
 70
     8
  0
VERTEX
  8
ガラス
 10
-5.45
 20
-46.85
 70
     8
  0
VERTEX
  8
ガラス
 10
-5.425
 20
-46.775
 70
     8
  0
VERTEX
  8
ガラス
 10
-5.375
 20
-46.7
 70
     8
  0
VERTEX
  8
ガラス
 10
-5.325
 20
-46.625
 70
     8
  0
VERTEX
  8
ガラス
 10
-5.275
 20
-46.55
 70
     8
  0
VERTEX
  8
ガラス
 10
-5.225
 20
-46.475
 70
     8
  0
VERTEX
  8
ガラス
 10
-5.175
 20
-46.425
 70
     8
  0
VERTEX
  8
ガラス
 10
-5.125
 20
-46.35
 70
     8
  0
VERTEX
  8
ガラス
 10
-5.075
 20
-46.3
 70
     8
  0
VERTEX
  8
ガラス
 10
-5.0
 20
-46.225
 70
     8
  0
VERTEX
  8
ガラス
 10
-4.95
 20
-46.175
 70
     8
  0
VERTEX
  8
ガラス
 10
-4.875
 20
-46.125
 70
     8
  0
VERTEX
  8
ガラス
 10
-4.825
 20
-46.075
 70
     8
  0
VERTEX
  8
ガラス
 10
-4.75
 20
-46.025
 70
     8
  0
VERTEX
  8
ガラス
 10
-4.675
 20
-45.975
 70
     8
  0
VERTEX
  8
ガラス
 10
-4.6
 20
-45.95
 70
     8
  0
VERTEX
  8
ガラス
 10
-4.525
 20
-45.9
 70
     8
  0
VERTEX
  8
ガラス
 10
-4.45
 20
-45.875
 70
     8
  0
VERTEX
  8
ガラス
 10
-4.375
 20
-45.85
 70
     8
  0
VERTEX
  8
ガラス
 10
-4.275
 20
-45.8
 70
     8
  0
VERTEX
  8
ガラス
 10
-4.2
 20
-45.775
 70
     8
  0
VERTEX
  8
ガラス
 10
-4.125
 20
-45.75
 70
     8
  0
VERTEX
  8
ガラス
 10
-4.025
 20
-45.725
 70
     8
  0
VERTEX
  8
ガラス
 10
-3.95
 20
-45.7
 70
     8
  0
VERTEX
  8
ガラス
 10
-3.85
 20
-45.675
 70
     8
  0
VERTEX
  8
ガラス
 10
-3.775
 20
-45.65
 70
     8
  0
VERTEX
  8
ガラス
 10
-3.675
 20
-45.625
 70
     8
  0
VERTEX
  8
ガラス
 10
-3.6
 20
-45.625
 70
     8
  0
VERTEX
  8
ガラス
 10
-3.5
 20
-45.6
 70
     8
  0
VERTEX
  8
ガラス
 10
-3.4
 20
-45.575
 70
     8
  0
VERTEX
  8
ガラス
 10
-3.325
 20
-45.55
 70
     8
  0
SEQEND
  0
POLYLINE
  8
ガラス
  6
CONTINUOUS
 66
     1
 70
     4
  0
VERTEX
  8
ガラス
 10
-3.325
 20
-45.55
 70
     8
  0
VERTEX
  8
ガラス
 10
-3.35
 20
-45.625
 70
     8
  0
VERTEX
  8
ガラス
 10
-3.375
 20
-45.675
 70
     8
  0
VERTEX
  8
ガラス
 10
-3.4
 20
-45.725
 70
     8
  0
VERTEX
  8
ガラス
 10
-3.4
 20
-45.775
 70
     8
  0
VERTEX
  8
ガラス
 10
-3.425
 20
-45.85
 70
     8
  0
VERTEX
  8
ガラス
 10
-3.45
 20
-45.9
 70
     8
  0
VERTEX
  8
ガラス
 10
-3.475
 20
-45.95
 70
     8
  0
VERTEX
  8
ガラス
 10
-3.5
 20
-46.0
 70
     8
  0
VERTEX
  8
ガラス
 10
-3.525
 20
-46.075
 70
     8
  0
VERTEX
  8
ガラス
 10
-3.55
 20
-46.125
 70
     8
  0
VERTEX
  8
ガラス
 10
-3.575
 20
-46.175
 70
     8
  0
VERTEX
  8
ガラス
 10
-3.6
 20
-46.25
 70
     8
  0
VERTEX
  8
ガラス
 10
-3.625
 20
-46.3
 70
     8
  0
VERTEX
  8
ガラス
 10
-3.625
 20
-46.35
 70
     8
  0
VERTEX
  8
ガラス
 10
-3.65
 20
-46.425
 70
     8
  0
VERTEX
  8
ガラス
 10
-3.675
 20
-46.475
 70
     8
  0
VERTEX
  8
ガラス
 10
-3.7
 20
-46.525
 70
     8
  0
VERTEX
  8
ガラス
 10
-3.7
 20
-46.6
 70
     8
  0
VERTEX
  8
ガラス
 10
-3.725
 20
-46.65
 70
     8
  0
VERTEX
  8
ガラス
 10
-3.75
 20
-46.7
 70
     8
  0
VERTEX
  8
ガラス
 10
-3.75
 20
-46.775
 70
     8
  0
VERTEX
  8
ガラス
 10
-3.775
 20
-46.825
 70
     8
  0
VERTEX
  8
ガラス
 10
-3.8
 20
-46.875
 70
     8
  0
VERTEX
  8
ガラス
 10
-3.8
 20
-46.95
 70
     8
  0
VERTEX
  8
ガラス
 10
-3.825
 20
-47.0
 70
     8
  0
VERTEX
  8
ガラス
 10
-3.825
 20
-47.075
 70
     8
  0
VERTEX
  8
ガラス
 10
-3.85
 20
-47.125
 70
     8
  0
VERTEX
  8
ガラス
 10
-3.85
 20
-47.175
 70
     8
  0
VERTEX
  8
ガラス
 10
-3.85
 20
-47.25
 70
     8
  0
VERTEX
  8
ガラス
 10
-3.875
 20
-47.3
 70
     8
  0
VERTEX
  8
ガラス
 10
-3.875
 20
-47.375
 70
     8
  0
VERTEX
  8
ガラス
 10
-3.875
 20
-47.425
 70
     8
  0
VERTEX
  8
ガラス
 10
-3.9
 20
-47.5
 70
     8
  0
VERTEX
  8
ガラス
 10
-3.9
 20
-47.55
 70
     8
  0
VERTEX
  8
ガラス
 10
-3.9
 20
-47.6
 70
     8
  0
VERTEX
  8
ガラス
 10
-3.925
 20
-47.675
 70
     8
  0
VERTEX
  8
ガラス
 10
-3.925
 20
-47.725
 70
     8
  0
VERTEX
  8
ガラス
 10
-3.925
 20
-47.8
 70
     8
  0
VERTEX
  8
ガラス
 10
-3.95
 20
-47.85
 70
     8
  0
VERTEX
  8
ガラス
 10
-3.95
 20
-47.925
 70
     8
  0
SEQEND
  0
ARC
  8
ガラス
  6
CONTINUOUS
 10
-4.88096
 20
-47.788413
 40
0.955135
 50
173.117443
 51
353.117443
  0
ENDBLK
  0
BLOCK
  2
*GRP_0022
 70
    65
 10
0.0
 20
0.0
  0
POLYLINE
  8
ガラス
  6
CONTINUOUS
 66
     1
 70
     4
  0
VERTEX
  8
ガラス
 10
0.6
 20
-44.375
 70
     8
  0
VERTEX
  8
ガラス
 10
0.675
 20
-44.35
 70
     8
  0
VERTEX
  8
ガラス
 10
0.775
 20
-44.35
 70
     8
  0
VERTEX
  8
ガラス
 10
0.875
 20
-44.35
 70
     8
  0
VERTEX
  8
ガラス
 10
0.975
 20
-44.325
 70
     8
  0
VERTEX
  8
ガラス
 10
1.05
 20
-44.325
 70
     8
  0
VERTEX
  8
ガラス
 10
1.15
 20
-44.325
 70
     8
  0
VERTEX
  8
ガラス
 10
1.25
 20
-44.3
 70
     8
  0
VERTEX
  8
ガラス
 10
1.325
 20
-44.3
 70
     8
  0
VERTEX
  8
ガラス
 10
1.425
 20
-44.3
 70
     8
  0
VERTEX
  8
ガラス
 10
1.5
 20
-44.3
 70
     8
  0
VERTEX
  8
ガラス
 10
1.6
 20
-44.3
 70
     8
  0
VERTEX
  8
ガラス
 10
1.7
 20
-44.3
 70
     8
  0
VERTEX
  8
ガラス
 10
1.775
 20
-44.3
 70
     8
  0
VERTEX
  8
ガラス
 10
1.85
 20
-44.3
 70
     8
  0
VERTEX
  8
ガラス
 10
1.95
 20
-44.325
 70
     8
  0
VERTEX
  8
ガラス
 10
2.025
 20
-44.325
 70
     8
  0
VERTEX
  8
ガラス
 10
2.1
 20
-44.35
 70
     8
  0
VERTEX
  8
ガラス
 10
2.2
 20
-44.375
 70
     8
  0
VERTEX
  8
ガラス
 10
2.275
 20
-44.4
 70
     8
  0
VERTEX
  8
ガラス
 10
2.35
 20
-44.425
 70
     8
  0
VERTEX
  8
ガラス
 10
2.425
 20
-44.45
 70
     8
  0
VERTEX
  8
ガラス
 10
2.5
 20
-44.475
 70
     8
  0
VERTEX
  8
ガラス
 10
2.575
 20
-44.525
 70
     8
  0
VERTEX
  8
ガラス
 10
2.65
 20
-44.55
 70
     8
  0
VERTEX
  8
ガラス
 10
2.725
 20
-44.6
 70
     8
  0
VERTEX
  8
ガラス
 10
2.8
 20
-44.65
 70
     8
  0
VERTEX
  8
ガラス
 10
2.85
 20
-44.7
 70
     8
  0
VERTEX
  8
ガラス
 10
2.925
 20
-44.75
 70
     8
  0
VERTEX
  8
ガラス
 10
3.0
 20
-44.825
 70
     8
  0
VERTEX
  8
ガラス
 10
3.05
 20
-44.875
 70
     8
  0
VERTEX
  8
ガラス
 10
3.125
 20
-44.925
 70
     8
  0
VERTEX
  8
ガラス
 10
3.2
 20
-45.0
 70
     8
  0
VERTEX
  8
ガラス
 10
3.25
 20
-45.05
 70
     8
  0
VERTEX
  8
ガラス
 10
3.325
 20
-45.125
 70
     8
  0
VERTEX
  8
ガラス
 10
3.375
 20
-45.2
 70
     8
  0
VERTEX
  8
ガラス
 10
3.45
 20
-45.275
 70
     8
  0
VERTEX
  8
ガラス
 10
3.5
 20
-45.325
 70
     8
  0
VERTEX
  8
ガラス
 10
3.55
 20
-45.4
 70
     8
  0
VERTEX
  8
ガラス
 10
3.625
 20
-45.475
 70
     8
  0
VERTEX
  8
ガラス
 10
3.675
 20
-45.55
 70
     8
  0
SEQEND
  0
POLYLINE
  8
ガラス
  6
CONTINUOUS
 66
     1
 70
     4
  0
VERTEX
  8
ガラス
 10
3.675
 20
-45.55
 70
     8
  0
VERTEX
  8
ガラス
 10
3.625
 20
-45.55
 70
     8
  0
VERTEX
  8
ガラス
 10
3.55
 20
-45.55
 70
     8
  0
VERTEX
  8
ガラス
 10
3.5
 20
-45.55
 70
     8
  0
VERTEX
  8
ガラス
 10
3.45
 20
-45.575
 70
     8
  0
VERTEX
  8
ガラス
 10
3.375
 20
-45.575
 70
     8
  0
VERTEX
  8
ガラス
 10
3.325
 20
-45.575
 70
     8
  0
VERTEX
  8
ガラス
 10
3.25
 20
-45.6
 70
     8
  0
VERTEX
  8
ガラス
 10
3.2
 20
-45.6
 70
     8
  0
VERTEX
  8
ガラス
 10
3.125
 20
-45.6
 70
     8
  0
VERTEX
  8
ガラス
 10
3.075
 20
-45.625
 70
     8
  0
VERTEX
  8
ガラス
 10
3.0
 20
-45.625
 70
     8
  0
VERTEX
  8
ガラス
 10
2.95
 20
-45.625
 70
     8
  0
VERTEX
  8
ガラス
 10
2.9
 20
-45.65
 70
     8
  0
VERTEX
  8
ガラス
 10
2.825
 20
-45.65
 70
     8
  0
VERTEX
  8
ガラス
 10
2.775
 20
-45.675
 70
     8
  0
VERTEX
  8
ガラス
 10
2.7
 20
-45.675
 70
     8
  0
VERTEX
  8
ガラス
 10
2.65
 20
-45.675
 70
     8
  0
VERTEX
  8
ガラス
 10
2.6
 20
-45.7
 70
     8
  0
VERTEX
  8
ガラス
 10
2.525
 20
-45.725
 70
     8
  0
VERTEX
  8
ガラス
 10
2.475
 20
-45.725
 70
     8
  0
VERTEX
  8
ガラス
 10
2.425
 20
-45.75
 70
     8
  0
VERTEX
  8
ガラス
 10
2.35
 20
-45.75
 70
     8
  0
VERTEX
  8
ガラス
 10
2.3
 20
-45.775
 70
     8
  0
VERTEX
  8
ガラス
 10
2.225
 20
-45.8
 70
     8
  0
VERTEX
  8
ガラス
 10
2.175
 20
-45.8
 70
     8
  0
VERTEX
  8
ガラス
 10
2.125
 20
-45.825
 70
     8
  0
VERTEX
  8
ガラス
 10
2.05
 20
-45.85
 70
     8
  0
VERTEX
  8
ガラス
 10
2.0
 20
-45.875
 70
     8
  0
VERTEX
  8
ガラス
 10
1.95
 20
-45.9
 70
     8
  0
VERTEX
  8
ガラス
 10
1.9
 20
-45.9
 70
     8
  0
VERTEX
  8
ガラス
 10
1.825
 20
-45.925
 70
     8
  0
VERTEX
  8
ガラス
 10
1.775
 20
-45.95
 70
     8
  0
VERTEX
  8
ガラス
 10
1.725
 20
-45.975
 70
     8
  0
VERTEX
  8
ガラス
 10
1.65
 20
-46.0
 70
     8
  0
VERTEX
  8
ガラス
 10
1.6
 20
-46.025
 70
     8
  0
VERTEX
  8
ガラス
 10
1.55
 20
-46.05
 70
     8
  0
VERTEX
  8
ガラス
 10
1.5
 20
-46.075
 70
     8
  0
VERTEX
  8
ガラス
 10
1.425
 20
-46.1
 70
     8
  0
VERTEX
  8
ガラス
 10
1.375
 20
-46.125
 70
     8
  0
VERTEX
  8
ガラス
 10
1.325
 20
-46.15
 70
     8
  0
SEQEND
  0
ARC
  8
ガラス
  6
CONTINUOUS
 10
0.968855
 20
-45.243647
 40
0.955135
 50
112.264588
 51
292.264588
  0
ENDBLK
  0
BLOCK
  2
*GRP_0023
 70
    65
 10
0.0
 20
0.0
  0
POLYLINE
  8
ガラス
  6
CONTINUOUS
 66
     1
 70
     4
  0
VERTEX
  8
ガラス
 10
-5.85
 20
-58.575
 70
     8
  0
VERTEX
  8
ガラス
 10
-5.8
 20
-58.5
 70
     8
  0
VERTEX
  8
ガラス
 10
-5.775
 20
-58.4
 70
     8
  0
VERTEX
  8
ガラス
 10
-5.725
 20
-58.325
 70
     8
  0
VERTEX
  8
ガラス
 10
-5.7
 20
-58.225
 70
     8
  0
VERTEX
  8
ガラス
 10
-5.65
 20
-58.15
 70
     8
  0
VERTEX
  8
ガラス
 10
-5.625
 20
-58.05
 70
     8
  0
VERTEX
  8
ガラス
 10
-5.575
 20
-57.975
 70
     8
  0
VERTEX
  8
ガラス
 10
-5.55
 20
-57.9
 70
     8
  0
VERTEX
  8
ガラス
 10
-5.5
 20
-57.825
 70
     8
  0
VERTEX
  8
ガラス
 10
-5.45
 20
-57.725
 70
     8
  0
VERTEX
  8
ガラス
 10
-5.425
 20
-57.65
 70
     8
  0
VERTEX
  8
ガラス
 10
-5.375
 20
-57.575
 70
     8
  0
VERTEX
  8
ガラス
 10
-5.325
 20
-57.5
 70
     8
  0
VERTEX
  8
ガラス
 10
-5.275
 20
-57.45
 70
     8
  0
VERTEX
  8
ガラス
 10
-5.225
 20
-57.375
 70
     8
  0
VERTEX
  8
ガラス
 10
-5.175
 20
-57.3
 70
     8
  0
VERTEX
  8
ガラス
 10
-5.125
 20
-57.25
 70
     8
  0
VERTEX
  8
ガラス
 10
-5.075
 20
-57.175
 70
     8
  0
VERTEX
  8
ガラス
 10
-5.0
 20
-57.125
 70
     8
  0
VERTEX
  8
ガラス
 10
-4.95
 20
-57.05
 70
     8
  0
VERTEX
  8
ガラス
 10
-4.875
 20
-57.0
 70
     8
  0
VERTEX
  8
ガラス
 10
-4.825
 20
-56.95
 70
     8
  0
VERTEX
  8
ガラス
 10
-4.75
 20
-56.925
 70
     8
  0
VERTEX
  8
ガラス
 10
-4.675
 20
-56.875
 70
     8
  0
VERTEX
  8
ガラス
 10
-4.6
 20
-56.825
 70
     8
  0
VERTEX
  8
ガラス
 10
-4.525
 20
-56.8
 70
     8
  0
VERTEX
  8
ガラス
 10
-4.45
 20
-56.75
 70
     8
  0
VERTEX
  8
ガラス
 10
-4.375
 20
-56.725
 70
     8
  0
VERTEX
  8
ガラス
 10
-4.275
 20
-56.7
 70
     8
  0
VERTEX
  8
ガラス
 10
-4.2
 20
-56.675
 70
     8
  0
VERTEX
  8
ガラス
 10
-4.125
 20
-56.65
 70
     8
  0
VERTEX
  8
ガラス
 10
-4.025
 20
-56.625
 70
     8
  0
VERTEX
  8
ガラス
 10
-3.95
 20
-56.6
 70
     8
  0
VERTEX
  8
ガラス
 10
-3.85
 20
-56.575
 70
     8
  0
VERTEX
  8
ガラス
 10
-3.775
 20
-56.55
 70
     8
  0
VERTEX
  8
ガラス
 10
-3.675
 20
-56.525
 70
     8
  0
VERTEX
  8
ガラス
 10
-3.6
 20
-56.5
 70
     8
  0
VERTEX
  8
ガラス
 10
-3.5
 20
-56.475
 70
     8
  0
VERTEX
  8
ガラス
 10
-3.4
 20
-56.475
 70
     8
  0
VERTEX
  8
ガラス
 10
-3.325
 20
-56.45
 70
     8
  0
SEQEND
  0
POLYLINE
  8
ガラス
  6
CONTINUOUS
 66
     1
 70
     4
  0
VERTEX
  8
ガラス
 10
-3.325
 20
-56.45
 70
     8
  0
VERTEX
  8
ガラス
 10
-3.35
 20
-56.5
 70
     8
  0
VERTEX
  8
ガラス
 10
-3.375
 20
-56.55
 70
     8
  0
VERTEX
  8
ガラス
 10
-3.4
 20
-56.625
 70
     8
  0
VERTEX
  8
ガラス
 10
-3.4
 20
-56.675
 70
     8
  0
VERTEX
  8
ガラス
 10
-3.425
 20
-56.725
 70
     8
  0
VERTEX
  8
ガラス
 10
-3.45
 20
-56.775
 70
     8
  0
VERTEX
  8
ガラス
 10
-3.475
 20
-56.85
 70
     8
  0
VERTEX
  8
ガラス
 10
-3.5
 20
-56.9
 70
     8
  0
VERTEX
  8
ガラス
 10
-3.525
 20
-56.95
 70
     8
  0
VERTEX
  8
ガラス
 10
-3.55
 20
-57.025
 70
     8
  0
VERTEX
  8
ガラス
 10
-3.575
 20
-57.075
 70
     8
  0
VERTEX
  8
ガラス
 10
-3.6
 20
-57.125
 70
     8
  0
VERTEX
  8
ガラス
 10
-3.625
 20
-57.175
 70
     8
  0
VERTEX
  8
ガラス
 10
-3.625
 20
-57.25
 70
     8
  0
VERTEX
  8
ガラス
 10
-3.65
 20
-57.3
 70
     8
  0
VERTEX
  8
ガラス
 10
-3.675
 20
-57.35
 70
     8
  0
VERTEX
  8
ガラス
 10
-3.7
 20
-57.425
 70
     8
  0
VERTEX
  8
ガラス
 10
-3.7
 20
-57.475
 70
     8
  0
VERTEX
  8
ガラス
 10
-3.725
 20
-57.525
 70
     8
  0
VERTEX
  8
ガラス
 10
-3.75
 20
-57.6
 70
     8
  0
VERTEX
  8
ガラス
 10
-3.75
 20
-57.65
 70
     8
  0
VERTEX
  8
ガラス
 10
-3.775
 20
-57.725
 70
     8
  0
VERTEX
  8
ガラス
 10
-3.8
 20
-57.775
 70
     8
  0
VERTEX
  8
ガラス
 10
-3.8
 20
-57.825
 70
     8
  0
VERTEX
  8
ガラス
 10
-3.825
 20
-57.9
 70
     8
  0
VERTEX
  8
ガラス
 10
-3.825
 20
-57.95
 70
     8
  0
VERTEX
  8
ガラス
 10
-3.85
 20
-58.0
 70
     8
  0
VERTEX
  8
ガラス
 10
-3.85
 20
-58.075
 70
     8
  0
VERTEX
  8
ガラス
 10
-3.85
 20
-58.125
 70
     8
  0
VERTEX
  8
ガラス
 10
-3.875
 20
-58.2
 70
     8
  0
VERTEX
  8
ガラス
 10
-3.875
 20
-58.25
 70
     8
  0
VERTEX
  8
ガラス
 10
-3.875
 20
-58.325
 70
     8
  0
VERTEX
  8
ガラス
 10
-3.9
 20
-58.375
 70
     8
  0
VERTEX
  8
ガラス
 10
-3.9
 20
-58.425
 70
     8
  0
VERTEX
  8
ガラス
 10
-3.9
 20
-58.5
 70
     8
  0
VERTEX
  8
ガラス
 10
-3.925
 20
-58.55
 70
     8
  0
VERTEX
  8
ガラス
 10
-3.925
 20
-58.625
 70
     8
  0
VERTEX
  8
ガラス
 10
-3.925
 20
-58.675
 70
     8
  0
VERTEX
  8
ガラス
 10
-3.95
 20
-58.75
 70
     8
  0
VERTEX
  8
ガラス
 10
-3.95
 20
-58.8
 70
     8
  0
SEQEND
  0
ARC
  8
ガラス
  6
CONTINUOUS
 10
-4.88096
 20
-58.675975
 40
0.955135
 50
173.117443
 51
353.117443
  0
ENDBLK
  0
BLOCK
  2
*GRP_0024
 70
    65
 10
0.0
 20
0.0
  0
POLYLINE
  8
ガラス
  6
CONTINUOUS
 66
     1
 70
     4
  0
VERTEX
  8
ガラス
 10
-12.775
 20
-61.575
 70
     8
  0
VERTEX
  8
ガラス
 10
-12.675
 20
-61.575
 70
     8
  0
VERTEX
  8
ガラス
 10
-12.575
 20
-61.55
 70
     8
  0
VERTEX
  8
ガラス
 10
-12.5
 20
-61.55
 70
     8
  0
VERTEX
  8
ガラス
 10
-12.4
 20
-61.55
 70
     8
  0
VERTEX
  8
ガラス
 10
-12.3
 20
-61.525
 70
     8
  0
VERTEX
  8
ガラス
 10
-12.225
 20
-61.525
 70
     8
  0
VERTEX
  8
ガラス
 10
-12.125
 20
-61.525
 70
     8
  0
VERTEX
  8
ガラス
 10
-12.025
 20
-61.525
 70
     8
  0
VERTEX
  8
ガラス
 10
-11.95
 20
-61.5
 70
     8
  0
VERTEX
  8
ガラス
 10
-11.85
 20
-61.5
 70
     8
  0
VERTEX
  8
ガラス
 10
-11.775
 20
-61.5
 70
     8
  0
VERTEX
  8
ガラス
 10
-11.675
 20
-61.5
 70
     8
  0
VERTEX
  8
ガラス
 10
-11.6
 20
-61.525
 70
     8
  0
VERTEX
  8
ガラス
 10
-11.5
 20
-61.525
 70
     8
  0
VERTEX
  8
ガラス
 10
-11.425
 20
-61.525
 70
     8
  0
VERTEX
  8
ガラス
 10
-11.325
 20
-61.55
 70
     8
  0
VERTEX
  8
ガラス
 10
-11.25
 20
-61.55
 70
     8
  0
VERTEX
  8
ガラス
 10
-11.175
 20
-61.575
 70
     8
  0
VERTEX
  8
ガラス
 10
-11.1
 20
-61.6
 70
     8
  0
VERTEX
  8
ガラス
 10
-11.0
 20
-61.625
 70
     8
  0
VERTEX
  8
ガラス
 10
-10.925
 20
-61.65
 70
     8
  0
VERTEX
  8
ガラス
 10
-10.85
 20
-61.7
 70
     8
  0
VERTEX
  8
ガラス
 10
-10.775
 20
-61.725
 70
     8
  0
VERTEX
  8
ガラス
 10
-10.725
 20
-61.775
 70
     8
  0
VERTEX
  8
ガラス
 10
-10.65
 20
-61.825
 70
     8
  0
VERTEX
  8
ガラス
 10
-10.575
 20
-61.875
 70
     8
  0
VERTEX
  8
ガラス
 10
-10.5
 20
-61.925
 70
     8
  0
VERTEX
  8
ガラス
 10
-10.425
 20
-61.975
 70
     8
  0
VERTEX
  8
ガラス
 10
-10.375
 20
-62.025
 70
     8
  0
VERTEX
  8
ガラス
 10
-10.3
 20
-62.075
 70
     8
  0
VERTEX
  8
ガラス
 10
-10.25
 20
-62.15
 70
     8
  0
VERTEX
  8
ガラス
 10
-10.175
 20
-62.2
 70
     8
  0
VERTEX
  8
ガラス
 10
-10.1
 20
-62.275
 70
     8
  0
VERTEX
  8
ガラス
 10
-10.05
 20
-62.35
 70
     8
  0
VERTEX
  8
ガラス
 10
-9.975
 20
-62.4
 70
     8
  0
VERTEX
  8
ガラス
 10
-9.925
 20
-62.475
 70
     8
  0
VERTEX
  8
ガラス
 10
-9.875
 20
-62.55
 70
     8
  0
VERTEX
  8
ガラス
 10
-9.8
 20
-62.6
 70
     8
  0
VERTEX
  8
ガラス
 10
-9.75
 20
-62.675
 70
     8
  0
VERTEX
  8
ガラス
 10
-9.675
 20
-62.75
 70
     8
  0
SEQEND
  0
POLYLINE
  8
ガラス
  6
CONTINUOUS
 66
     1
 70
     4
  0
VERTEX
  8
ガラス
 10
-9.675
 20
-62.75
 70
     8
  0
VERTEX
  8
ガラス
 10
-9.75
 20
-62.75
 70
     8
  0
VERTEX
  8
ガラス
 10
-9.8
 20
-62.775
 70
     8
  0
VERTEX
  8
ガラス
 10
-9.875
 20
-62.775
 70
     8
  0
VERTEX
  8
ガラス
 10
-9.925
 20
-62.775
 70
     8
  0
VERTEX
  8
ガラス
 10
-9.975
 20
-62.775
 70
     8
  0
VERTEX
  8
ガラス
 10
-10.05
 20
-62.8
 70
     8
  0
VERTEX
  8
ガラス
 10
-10.1
 20
-62.8
 70
     8
  0
VERTEX
  8
ガラス
 10
-10.175
 20
-62.8
 70
     8
  0
VERTEX
  8
ガラス
 10
-10.225
 20
-62.825
 70
     8
  0
VERTEX
  8
ガラス
 10
-10.3
 20
-62.825
 70
     8
  0
VERTEX
  8
ガラス
 10
-10.35
 20
-62.825
 70
     8
  0
VERTEX
  8
ガラス
 10
-10.4
 20
-62.85
 70
     8
  0
VERTEX
  8
ガラス
 10
-10.475
 20
-62.85
 70
     8
  0
VERTEX
  8
ガラス
 10
-10.525
 20
-62.875
 70
     8
  0
VERTEX
  8
ガラス
 10
-10.6
 20
-62.875
 70
     8
  0
VERTEX
  8
ガラス
 10
-10.65
 20
-62.875
 70
     8
  0
VERTEX
  8
ガラス
 10
-10.725
 20
-62.9
 70
     8
  0
VERTEX
  8
ガラス
 10
-10.775
 20
-62.9
 70
     8
  0
VERTEX
  8
ガラス
 10
-10.825
 20
-62.925
 70
     8
  0
VERTEX
  8
ガラス
 10
-10.9
 20
-62.925
 70
     8
  0
VERTEX
  8
ガラス
 10
-10.95
 20
-62.95
 70
     8
  0
VERTEX
  8
ガラス
 10
-11.0
 20
-62.975
 70
     8
  0
VERTEX
  8
ガラス
 10
-11.075
 20
-62.975
 70
     8
  0
VERTEX
  8
ガラス
 10
-11.125
 20
-63.0
 70
     8
  0
VERTEX
  8
ガラス
 10
-11.175
 20
-63.025
 70
     8
  0
VERTEX
  8
ガラス
 10
-11.25
 20
-63.05
 70
     8
  0
VERTEX
  8
ガラス
 10
-11.3
 20
-63.05
 70
     8
  0
VERTEX
  8
ガラス
 10
-11.35
 20
-63.075
 70
     8
  0
VERTEX
  8
ガラス
 10
-11.425
 20
-63.1
 70
     8
  0
VERTEX
  8
ガラス
 10
-11.475
 20
-63.125
 70
     8
  0
VERTEX
  8
ガラス
 10
-11.525
 20
-63.15
 70
     8
  0
VERTEX
  8
ガラス
 10
-11.6
 20
-63.175
 70
     8
  0
VERTEX
  8
ガラス
 10
-11.65
 20
-63.175
 70
     8
  0
VERTEX
  8
ガラス
 10
-11.7
 20
-63.2
 70
     8
  0
VERTEX
  8
ガラス
 10
-11.75
 20
-63.225
 70
     8
  0
VERTEX
  8
ガラス
 10
-11.825
 20
-63.25
 70
     8
  0
VERTEX
  8
ガラス
 10
-11.875
 20
-63.275
 70
     8
  0
VERTEX
  8
ガラス
 10
-11.925
 20
-63.3
 70
     8
  0
VERTEX
  8
ガラス
 10
-12.0
 20
-63.325
 70
     8
  0
VERTEX
  8
ガラス
 10
-12.05
 20
-63.35
 70
     8
  0
SEQEND
  0
ARC
  8
ガラス
  6
CONTINUOUS
 10
-12.394359
 20
-62.453807
 40
0.955135
 50
112.264588
 51
292.264588
  0
ENDBLK
  0
BLOCK
  2
*GRP_0025
 70
    65
 10
0.0
 20
0.0
  0
POLYLINE
  8
寸法
  6
CONTINUOUS
 66
     1
  0
VERTEX
  8
寸法
 10
22.826633
 20
-74.07146
  0
VERTEX
  8
寸法
 10
29.422595
 20
-83.77019
  0
VERTEX
  8
寸法
 10
44.515155
 20
-83.77019
  0
SEQEND
  0
ENDBLK
  0
BLOCK
  2
*GRP_0026
 70
    65
 10
0.0
 20
0.0
  0
LINE
  8
型材断面
  6
DOT
 10
-22.518477
 20
-38.62816
 11
-21.599248
 21
-39.54742
  0
LINE
  8
型材断面
  6
DOT
 10
-16.86152
 20
-32.971405
 11
-15.942313
 21
-33.89065
  0
LINE
  8
型材断面
  6
DOT
 10
-22.28867
 20
-38.857975
 11
-16.631728
 21
-33.201205
  0
LINE
  8
型材断面
  6
DOT
 10
-22.05887
 20
-39.087782
 11
-16.401927
 21
-33.431012
  0
LINE
  8
型材断面
  6
DOT
 10
-21.829055
 20
-39.317605
 11
-16.17212
 21
-33.660835
  0
ENDBLK
  0
BLOCK
  2
*GRP_0027
 70
    65
 10
0.0
 20
0.0
  0
ARC
  8
型材断面
  6
CONTINUOUS
 62
    47
 10
-47.833067
 20
-9.355197
 40
0.3
 50
135.0
 51
225.0
  0
LINE
  8
型材断面
  6
CONTINUOUS
 62
    47
 10
-48.0452
 20
-9.143088
 11
-47.408795
 21
-8.506682
  0
LINE
  8
型材断面
  6
CONTINUOUS
 62
    47
 10
-46.489565
 20
-9.00166
 11
-46.984543
 21
-8.506682
  0
ARC
  8
型材断面
  6
CONTINUOUS
 62
    47
 10
-47.196671
 20
-8.7188
 40
0.3
 50
45.0
 51
135.0
  0
LINE
  8
型材断面
  6
CONTINUOUS
 62
    47
 10
-46.701695
 20
-10.910845
 11
-48.0452
 21
-9.567347
  0
LINE
  8
型材断面
  6
CONTINUOUS
 62
    47
 10
-46.277435
 20
-10.910852
 11
-45.570327
 21
-10.203737
  0
ARC
  8
型材断面
  6
CONTINUOUS
 62
    47
 10
-46.489564
 20
-10.698699
 40
0.3
 50
225.0
 51
315.0
  0
LINE
  8
型材断面
  6
CONTINUOUS
 62
    47
 10
-43.449005
 20
-10.203737
 11
-44.509663
 21
-9.14308
  0
LINE
  8
型材断面
  6
CONTINUOUS
 62
    47
 10
-43.802555
 20
-10.557302
 11
-43.449005
 21
-10.203737
  0
LINE
  8
型材断面
  6
CONTINUOUS
 62
    47
 10
-43.802555
 20
-10.557302
 11
-45.570327
 21
-10.203737
  0
LINE
  8
型材断面
  6
CONTINUOUS
 62
    47
 10
-30.579665
 20
-17.133385
 11
-41.539812
 21
-6.17323
  0
LINE
  8
型材断面
  6
CONTINUOUS
 62
    47
 10
-44.509663
 20
-9.14308
 11
-41.539812
 21
-6.17323
  0
LINE
  8
型材断面
  6
CONTINUOUS
 62
    47
 10
-32.8424
 20
-19.396127
 11
-32.8424
 21
-19.820395
  0
LINE
  8
型材断面
  6
CONTINUOUS
 62
    47
 10
-32.8424
 20
-19.820395
 11
-33.266668
 21
-19.820395
  0
LINE
  8
型材断面
  6
CONTINUOUS
 62
    47
 10
-32.8424
 20
-19.396127
 11
-30.579665
 21
-17.133385
  0
LINE
  8
型材断面
  6
CONTINUOUS
 62
    47
 10
-29.943268
 20
-19.325418
 11
-29.766485
 21
-19.85575
  0
LINE
  8
型材断面
  6
CONTINUOUS
 62
    47
 10
-32.807038
 20
-22.89631
 11
-33.337378
 21
-22.719528
  0
LINE
  8
型材断面
  6
CONTINUOUS
 62
    47
 10
-32.807038
 20
-22.89631
 11
-29.766485
 21
-19.85575
  0
LINE
  8
型材断面
  6
CONTINUOUS
 62
    47
 10
-35.31728
 20
-21.871
 11
-33.266668
 21
-19.820395
  0
ARC
  8
型材断面
  6
CONTINUOUS
 62
    47
 10
-35.105145
 20
-22.083119
 40
0.3
 50
135.0
 51
225.0
  0
LINE
  8
型材断面
  6
CONTINUOUS
 62
    47
 10
-34.327318
 20
-23.285215
 11
-35.31728
 21
-22.295275
  0
LINE
  8
型材断面
  6
CONTINUOUS
 62
    47
 10
-33.903065
 20
-23.285215
 11
-33.337378
 21
-22.719528
  0
ARC
  8
型材断面
  6
CONTINUOUS
 62
    47
 10
-34.115196
 20
-23.073068
 40
0.3
 50
225.0
 51
315.0
  0
LINE
  8
型材断面
  6
CONTINUOUS
 62
    47
 10
-29.943268
 20
-19.325418
 11
-28.104785
 21
-17.486942
  0
LINE
  8
型材断面
  6
CONTINUOUS
 62
    47
 10
-28.811885
 20
-16.072728
 11
-28.316922
 21
-15.57775
  0
ARC
  8
型材断面
  6
CONTINUOUS
 62
    47
 10
-28.104788
 20
-15.789868
 40
0.3
 50
45.0
 51
135.0
  0
LINE
  8
型材断面
  6
CONTINUOUS
 62
    47
 10
-26.902707
 20
-16.567705
 11
-27.892655
 21
-15.57775
  0
ARC
  8
型材断面
  6
CONTINUOUS
 62
    47
 10
-27.114839
 20
-16.779818
 40
0.3
 50
315.0
 51
405.0
  0
LINE
  8
型材断面
  6
CONTINUOUS
 62
    47
 10
-27.963365
 20
-17.628363
 11
-28.104785
 21
-17.486942
  0
LINE
  8
型材断面
  6
CONTINUOUS
 62
    47
 10
-27.539098
 20
-17.628363
 11
-26.902707
 21
-16.991965
  0
ARC
  8
型材断面
  6
CONTINUOUS
 62
    47
 10
-27.751235
 20
-17.416214
 40
0.3
 50
225.0
 51
315.0
  0
LINE
  8
型材断面
  6
CONTINUOUS
 62
    47
 10
-44.86322
 20
-7.375315
 11
-44.86322
 21
-7.799582
  0
LINE
  8
型材断面
  6
CONTINUOUS
 62
    47
 10
-44.86322
 20
-7.799582
 11
-45.28748
 21
-7.799575
  0
LINE
  8
型材断面
  6
CONTINUOUS
 62
    47
 10
-46.489565
 20
-9.00166
 11
-45.28748
 21
-7.799575
  0
LINE
  8
型材断面
  6
CONTINUOUS
 62
    47
 10
-44.86322
 20
-7.375315
 11
-42.600478
 21
-5.112572
  0
ARC
  8
型材断面
  6
CONTINUOUS
 62
    47
 10
-47.475779
 20
0.18701
 40
0.3
 50
134.0
 51
225.0
  0
LINE
  8
型材断面
  6
CONTINUOUS
 62
    47
 10
-46.701695
 20
-1.011355
 11
-47.687907
 21
-0.025143
  0
ARC
  8
型材断面
  6
CONTINUOUS
 62
    47
 10
-46.489564
 20
-0.799204
 40
0.3
 50
225.0
 51
330.369338
  0
LINE
  8
型材断面
  6
CONTINUOUS
 62
    47
 10
-46.228798
 20
-0.947545
 11
-45.336118
 21
0.62189
  0
ARC
  8
型材断面
  6
CONTINUOUS
 62
    47
 10
-45.075351
 20
0.473588
 40
0.3
 50
0.0
 51
150.369338
  0
LINE
  8
型材断面
  6
CONTINUOUS
 62
    47
 10
-44.77535
 20
-2.9377
 11
-44.77535
 21
0.473562
  0
LINE
  8
型材断面
  6
CONTINUOUS
 62
    47
 10
-42.600478
 20
-5.112572
 11
-44.77535
 21
-2.9377
  0
LINE
  8
型材断面
  6
CONTINUOUS
 62
    47
 10
-28.811885
 20
-16.072728
 11
-42.775348
 21
-2.109273
  0
LINE
  8
型材断面
  6
CONTINUOUS
 62
    47
 10
-42.775348
 20
-2.109273
 11
-42.775355
 21
2.362858
  0
ARC
  8
型材断面
  6
CONTINUOUS
 62
    47
 10
-38.224245
 20
5.784719
 40
0.3
 50
184.529049
 51
314.0
  0
LINE
  8
型材断面
  6
CONTINUOUS
 62
    47
 10
-38.6363
 20
9.140232
 11
-47.684173
 21
0.402793
  0
ARC
  8
型材断面
  6
CONTINUOUS
 62
    47
 10
-37.941639
 20
8.420908
 40
1.0
 50
120.465208
 51
134.0
  0
LINE
  8
型材断面
  6
CONTINUOUS
 62
    47
 10
-33.56405
 20
9.867943
 11
-38.015848
 21
5.56889
  0
ARC
  8
型材断面
  6
CONTINUOUS
 62
    47
 10
-34.258709
 20
10.587307
 40
1.0
 50
314.0
 51
480.465208
  0
LINE
  8
型材断面
  6
CONTINUOUS
 62
    47
 10
-34.765715
 20
11.44922
 11
-38.44865
 21
9.282822
  0
LINE
  8
型材断面
  6
CONTINUOUS
 62
    47
 10
-38.575407
 20
6.4187
 11
-42.775355
 21
2.362858
  0
LINE
  8
型材断面
  6
CONTINUOUS
 62
    47
 10
-38.523305
 20
5.76101
 11
-38.575407
 21
6.4187
  0
ENDBLK
  0
BLOCK
  2
*GRP_0028
 70
    65
 10
0.0
 20
0.0
  0
LINE
  8
型材断面
  6
CONTINUOUS
 62
    47
 10
-50.732157
 20
-7.587407
 11
-50.732157
 21
-6.8803
  0
LINE
  8
型材断面
  6
CONTINUOUS
 62
    47
 10
-50.732157
 20
-7.587407
 11
-50.02505
 21
-7.587407
  0
LINE
  8
型材断面
  6
CONTINUOUS
 62
    47
 10
-51.085707
 20
-6.526743
 11
-51.792815
 21
-6.526743
  0
LINE
  8
型材断面
  6
CONTINUOUS
 62
    47
 10
-51.792815
 20
-5.819635
 11
-51.792815
 21
-6.526743
  0
LINE
  8
型材断面
  6
CONTINUOUS
 62
    47
 10
-50.732157
 20
-6.8803
 11
-51.085707
 21
-6.526743
  0
LINE
  8
型材断面
  6
CONTINUOUS
 62
    47
 10
-52.499922
 20
-7.23385
 11
-52.499922
 21
-7.940957
  0
LINE
  8
型材断面
  6
CONTINUOUS
 62
    47
 10
-53.20703
 20
-7.23385
 11
-52.499922
 21
-7.23385
  0
LINE
  8
型材断面
  6
CONTINUOUS
 62
    47
 10
-53.20703
 20
-7.23385
 11
-53.737363
 21
-7.764182
  0
LINE
  8
型材断面
  6
CONTINUOUS
 62
    47
 10
-53.737363
 20
-7.764182
 11
-54.090913
 21
-7.410625
  0
ARC
  8
型材断面
  6
CONTINUOUS
 62
    47
 10
-53.383814
 20
-6.703512
 40
1.0
 50
135.0
 51
225.0
  0
LINE
  8
型材断面
  6
CONTINUOUS
 62
    47
 10
-49.317943
 20
-8.294507
 11
-50.02505
 21
-7.587407
  0
LINE
  8
型材断面
  6
CONTINUOUS
 62
    47
 10
-47.550177
 20
-6.526743
 11
-49.317943
 21
-8.294507
  0
LINE
  8
型材断面
  6
CONTINUOUS
 62
    47
 10
-45.260577
 20
-6.651167
 11
-45.499565
 21
-6.597452
  0
ARC
  8
型材断面
  6
CONTINUOUS
 62
    47
 10
-45.21673
 20
-6.456025
 40
0.2
 50
257.333531
 51
372.666469
  0
LINE
  8
型材断面
  6
CONTINUOUS
 62
    47
 10
-45.075305
 20
-6.173193
 11
-45.02159
 21
-6.41218
  0
LINE
  8
型材断面
  6
CONTINUOUS
 62
    47
 10
-45.499565
 20
-6.597452
 11
-48.610835
 21
-9.708723
  0
LINE
  8
型材断面
  6
CONTINUOUS
 62
    47
 10
-45.782413
 20
-13.951368
 11
-46.98449
 21
-15.153445
  0
LINE
  8
型材断面
  6
CONTINUOUS
 62
    47
 10
-45.428855
 20
-14.304918
 11
-45.782413
 21
-13.951368
  0
LINE
  8
型材断面
  6
CONTINUOUS
 62
    47
 10
-47.19662
 20
-13.24426
 11
-52.499922
 21
-7.940957
  0
LINE
  8
型材断面
  6
CONTINUOUS
 62
    47
 10
-50.944287
 20
-16.991928
 11
-50.520028
 21
-16.99192
  0
LINE
  8
型材断面
  6
CONTINUOUS
 62
    47
 10
-50.520028
 20
-16.99192
 11
-50.520028
 21
-16.56766
  0
LINE
  8
型材断面
  6
CONTINUOUS
 62
    47
 10
-47.19662
 20
-13.24426
 11
-50.520028
 21
-16.56766
  0
LINE
  8
型材断面
  6
CONTINUOUS
 62
    47
 10
-50.944287
 20
-16.991928
 11
-54.196977
 21
-20.244618
  0
ARC
  8
型材断面
  6
CONTINUOUS
 62
    47
 10
-53.984854
 20
-20.456739
 40
0.3
 50
135.0
 51
225.0
  0
LINE
  8
型材断面
  6
CONTINUOUS
 62
    47
 10
-53.20703
 20
-21.658825
 11
-54.196985
 21
-20.668877
  0
ARC
  8
型材断面
  6
CONTINUOUS
 62
    47
 10
-52.994905
 20
-21.446689
 40
0.3
 50
225.0
 51
315.0
  0
LINE
  8
型材断面
  6
CONTINUOUS
 62
    47
 10
-46.63094
 20
-15.507002
 11
-52.782762
 21
-21.658832
  0
LINE
  8
型材断面
  6
CONTINUOUS
 62
    47
 10
-46.63094
 20
-15.507002
 11
-46.98449
 21
-15.153445
  0
LINE
  8
型材断面
  6
CONTINUOUS
 62
    47
 10
-44.933878
 20
-13.80994
 11
-45.428855
 21
-14.304918
  0
LINE
  8
型材断面
  6
CONTINUOUS
 62
    47
 10
-44.933885
 20
-13.38568
 11
-48.610835
 21
-9.708723
  0
ARC
  8
型材断面
  6
CONTINUOUS
 62
    47
 10
-45.14602
 20
-13.597803
 40
0.3
 50
315.0
 51
405.0
  0
LINE
  8
型材断面
  6
CONTINUOUS
 62
    47
 10
-45.075305
 20
-6.173193
 11
-50.16647
 21
-1.08202
  0
ARC
  8
型材断面
  6
CONTINUOUS
 62
    47
 10
-50.37861
 20
-1.294145
 40
0.3
 50
45.0
 51
135.0
  0
LINE
  8
型材断面
  6
CONTINUOUS
 62
    47
 10
-53.06561
 20
-4.971108
 11
-54.090913
 21
-5.996418
  0
LINE
  8
型材断面
  6
CONTINUOUS
 62
    47
 10
-51.792815
 20
-5.819635
 11
-52.641342
 21
-4.971108
  0
ARC
  8
型材断面
  6
CONTINUOUS
 62
    47
 10
-52.853484
 20
-5.183233
 40
0.3
 50
45.0
 51
135.0
  0
LINE
  8
型材断面
  6
CONTINUOUS
 62
    47
 10
-51.085707
 20
-2.284105
 11
-51.085707
 21
-2.991212
  0
LINE
  8
型材断面
  6
CONTINUOUS
 62
    47
 10
-50.732157
 20
-3.344762
 11
-51.085707
 21
-2.991212
  0
LINE
  8
型材断面
  6
CONTINUOUS
 62
    47
 10
-50.02505
 20
-3.344762
 11
-50.732157
 21
-3.344762
  0
LINE
  8
型材断面
  6
CONTINUOUS
 62
    47
 10
-50.02505
 20
-4.05187
 11
-50.02505
 21
-3.344762
  0
LINE
  8
型材断面
  6
CONTINUOUS
 62
    47
 10
-49.6715
 20
-4.40542
 11
-50.02505
 21
-4.05187
  0
LINE
  8
型材断面
  6
CONTINUOUS
 62
    47
 10
-48.964393
 20
-4.40542
 11
-49.6715
 21
-4.40542
  0
LINE
  8
型材断面
  6
CONTINUOUS
 62
    47
 10
-48.964393
 20
-5.112528
 11
-48.964393
 21
-4.40542
  0
LINE
  8
型材断面
  6
CONTINUOUS
 62
    47
 10
-47.550177
 20
-6.526743
 11
-48.964393
 21
-5.112528
  0
LINE
  8
型材断面
  6
CONTINUOUS
 62
    47
 10
-50.590737
 20
-1.082013
 11
-51.651395
 21
-2.142685
  0
ARC
  8
型材断面
  6
CONTINUOUS
 62
    47
 10
-51.509981
 20
-2.284095
 40
0.2
 50
135.0
 51
298.125506
  0
LINE
  8
型材断面
  6
CONTINUOUS
 62
    47
 10
-51.415693
 20
-2.46049
 11
-51.085707
 21
-2.284105
  0
ENDBLK
  0
BLOCK
  2
*GRP_0029
 70
    65
 10
0.0
 20
0.0
  0
LINE
  8
型材断面
  6
CONTINUOUS
 10
-11.41835
 20
-9.422958
 11
-11.982252
 21
-8.859055
  0
LINE
  8
型材断面
  6
CONTINUOUS
 10
-17.782318
 20
-15.78691
 11
-18.346235
 21
-15.223015
  0
LINE
  8
型材断面
  6
CONTINUOUS
 10
-17.782318
 20
-15.78691
 11
-11.2031
 21
-16.706598
  0
LINE
  8
型材断面
  6
CONTINUOUS
 10
-11.2031
 20
-16.706598
 11
-10.498678
 21
-16.00216
  0
LINE
  8
型材断面
  6
CONTINUOUS
 10
-11.41835
 20
-9.422958
 11
-10.498678
 21
-16.00216
  0
LINE
  8
型材断面
  6
CONTINUOUS
 10
-20.75039
 20
-26.96098
 11
-12.621328
 21
-18.831933
  0
ARC
  8
型材断面
  6
CONTINUOUS
 10
-12.974891
 20
-18.478375
 40
0.5
 50
315.000002
 51
442.042477
  0
LINE
  8
型材断面
  6
CONTINUOUS
 10
-20.75039
 20
-26.96098
 11
-25.629417
 21
-22.08196
  0
LINE
  8
型材断面
  6
CONTINUOUS
 10
-25.629417
 20
-22.08196
 11
-26.265823
 21
-22.71835
  0
LINE
  8
型材断面
  6
CONTINUOUS
 10
-26.265823
 20
-22.71835
 11
-26.124402
 21
-24.27397
  0
LINE
  8
型材断面
  6
CONTINUOUS
 10
-28.387152
 20
-26.536697
 11
-29.94275
 21
-26.395277
  0
LINE
  8
型材断面
  6
CONTINUOUS
 10
-30.57917
 20
-27.031682
 11
-29.94275
 21
-26.395277
  0
LINE
  8
型材断面
  6
CONTINUOUS
 10
-18.41693
 20
-13.172395
 11
-17.56841
 21
-13.172387
  0
LINE
  8
型材断面
  6
CONTINUOUS
 10
-17.56841
 20
-13.172387
 11
-16.93202
 21
-13.8088
  0
LINE
  8
型材断面
  6
CONTINUOUS
 10
-18.346235
 20
-15.223015
 11
-16.93202
 21
-13.8088
  0
LINE
  8
型材断面
  6
CONTINUOUS
 10
-18.41693
 20
-13.172395
 11
-20.467535
 21
-15.223015
  0
LINE
  8
型材断面
  6
CONTINUOUS
 10
-20.467535
 20
-15.223015
 11
-18.487633
 21
-17.202917
  0
LINE
  8
型材断面
  6
CONTINUOUS
 10
-12.90566
 20
-17.983187
 11
-18.487633
 21
-17.202917
  0
LINE
  8
型材断面
  6
CONTINUOUS
 10
-11.982252
 20
-8.859055
 11
-13.396475
 21
-10.273247
  0
LINE
  8
型材断面
  6
CONTINUOUS
 10
-13.396475
 20
-10.273247
 11
-14.032865
 21
-9.636873
  0
LINE
  8
型材断面
  6
CONTINUOUS
 10
-14.032865
 20
-9.636873
 11
-14.03288
 21
-8.78833
  0
LINE
  8
型材断面
  6
CONTINUOUS
 10
-14.03288
 20
-8.78833
 11
-11.98226
 21
-6.737717
  0
LINE
  8
型材断面
  6
CONTINUOUS
 10
-11.98226
 20
-6.737717
 11
-10.002358
 21
-8.71762
  0
LINE
  8
型材断面
  6
CONTINUOUS
 10
-26.124402
 20
-24.27397
 11
-22.09391
 21
-28.304478
  0
LINE
  8
型材断面
  6
CONTINUOUS
 10
-22.09391
 20
-28.304478
 11
-24.356645
 21
-30.567205
  0
LINE
  8
型材断面
  6
CONTINUOUS
 10
-28.387152
 20
-26.536697
 11
-24.356645
 21
-30.567205
  0
ARC
  8
型材断面
  6
CONTINUOUS
 10
-20.750659
 20
-36.153143
 40
0.5
 50
225.000002
 51
315.000002
  0
LINE
  8
型材断面
  6
CONTINUOUS
 10
-20.397102
 20
-36.506695
 11
-18.98288
 21
-35.092472
  0
ARC
  8
型材断面
  6
CONTINUOUS
 10
-19.336444
 20
-34.738927
 40
0.5
 50
315.000002
 51
405.000002
  0
LINE
  8
型材断面
  6
CONTINUOUS
 10
-18.98288
 20
-34.385372
 11
-19.336438
 21
-34.031808
  0
LINE
  8
型材断面
  6
CONTINUOUS
 10
-20.043545
 20
-34.031808
 11
-20.750645
 21
-34.73893
  0
ARC
  8
型材断面
  6
CONTINUOUS
 10
-19.689994
 20
-34.385376
 40
0.5
 50
45.000002
 51
135.000002
  0
LINE
  8
型材断面
  6
CONTINUOUS
 10
-30.57917
 20
-27.031682
 11
-21.107218
 21
-36.503635
  0
LINE
  8
型材断面
  6
CONTINUOUS
 10
-20.750637
 20
-34.738908
 11
-22.376983
 21
-33.11257
  0
LINE
  8
型材断面
  6
CONTINUOUS
 10
-21.669852
 20
-31.698348
 11
-22.16468
 21
-31.20352
  0
LINE
  8
型材断面
  6
CONTINUOUS
 10
-22.376983
 20
-33.11257
 11
-21.66986
 21
-32.405455
  0
ARC
  8
型材断面
  6
CONTINUOUS
 10
-22.023412
 20
-32.051911
 40
0.5
 50
314.99919
 51
405.0
  0
ARC
  8
型材断面
  6
CONTINUOUS
 10
-5.689139
 20
-21.091966
 40
0.5
 50
225.0
 51
315.0
  0
LINE
  8
型材断面
  6
CONTINUOUS
 10
-5.335573
 20
-21.445503
 11
-4.62842
 21
-20.73835
  0
LINE
  8
型材断面
  6
CONTINUOUS
 10
-4.62842
 20
-20.73835
 11
-4.628435
 21
-19.32415
  0
LINE
  8
型材断面
  6
CONTINUOUS
 10
-6.042688
 20
-20.031243
 11
-7.668973
 21
-18.40498
  0
LINE
  8
型材断面
  6
CONTINUOUS
 10
-7.668973
 20
-18.40498
 11
-8.022567
 21
-18.758568
  0
LINE
  8
型材断面
  6
CONTINUOUS
 10
-9.224705
 20
-18.263537
 11
-8.729667
 21
-18.758568
  0
ARC
  8
型材断面
  6
CONTINUOUS
 10
-8.376123
 20
-18.405015
 40
0.5
 50
225.00076
 51
314.999392
  0
LINE
  8
型材断面
  6
CONTINUOUS
 10
-10.002358
 20
-8.71762
 11
-9.152052
 21
-14.800645
  0
LINE
  8
型材断面
  6
CONTINUOUS
 10
-4.628435
 20
-19.32415
 11
-9.152052
 21
-14.800645
  0
LINE
  8
型材断面
  6
CONTINUOUS
 10
-9.224705
 20
-18.263537
 11
-12.548098
 21
-21.58693
  0
LINE
  8
型材断面
  6
CONTINUOUS
 10
-12.548098
 20
-21.58693
 11
-12.548075
 21
-23.283955
  0
LINE
  8
型材断面
  6
CONTINUOUS
 10
-22.16468
 20
-31.20352
 11
-16.22504
 21
-25.263872
  0
LINE
  8
型材断面
  6
CONTINUOUS
 10
-16.22504
 20
-25.263872
 11
-14.528097
 21
-25.263918
  0
LINE
  8
型材断面
  6
CONTINUOUS
 10
-12.548075
 20
-23.283955
 11
-14.528097
 21
-25.263918
  0
LINE
  8
型材断面
  6
CONTINUOUS
 10
-6.39626
 20
-20.384815
 11
-6.042688
 21
-20.031243
  0
LINE
  8
型材断面
  6
CONTINUOUS
 10
-6.39626
 20
-21.09193
 11
-6.042688
 21
-21.445503
  0
ARC
  8
型材断面
  6
CONTINUOUS
 10
-6.042712
 20
-20.738373
 40
0.5
 50
135.0
 51
225.0
  0
ENDBLK
  0
BLOCK
  2
*GRP_0030
 70
    65
 10
0.0
 20
0.0
  0
ARC
  8
ゴム等
  6
CONTINUOUS
 10
-38.224244
 20
5.784721
 40
0.3
 50
184.529049
 51
314.0
  0
LINE
  8
ゴム等
  6
CONTINUOUS
 10
-33.56405
 20
9.867943
 11
-38.015848
 21
5.56889
  0
ARC
  8
ゴム等
  6
CONTINUOUS
 10
-34.258708
 20
10.587309
 40
1.0
 50
314.0
 51
480.465208
  0
LINE
  8
ゴム等
  6
CONTINUOUS
 10
-38.523305
 20
5.76101
 11
-38.575407
 21
6.4187
  0
LINE
  8
ゴム等
  6
CONTINUOUS
 10
-34.765715
 20
11.44922
 11
-38.55215
 21
9.221945
  0
LINE
  8
ゴム等
  6
CONTINUOUS
 10
-38.575407
 20
6.4187
 11
-40.949953
 21
4.125627
  0
LINE
  8
ゴム等
  6
CONTINUOUS
 10
-37.180977
 20
1.721593
 11
-36.47342
 21
2.42915
  0
LINE
  8
ゴム等
  6
CONTINUOUS
 10
-31.874323
 20
7.028225
 11
-31.16678
 21
7.73579
  0
LINE
  8
ゴム等
  6
CONTINUOUS
 10
-45.4295
 20
-7.94113
 11
-46.136607
 21
-7.234037
  0
LINE
  8
ゴム等
  6
CONTINUOUS
 10
-46.136607
 20
-7.234037
 11
-44.863805
 21
-5.961235
  0
LINE
  8
ゴム等
  6
CONTINUOUS
 10
-44.863805
 20
-5.961235
 11
-50.520658
 21
-0.304375
  0
LINE
  8
ゴム等
  6
CONTINUOUS
 10
-50.520658
 20
-0.304375
 11
-39.089743
 21
11.126518
  0
ARC
  8
ゴム等
  6
CONTINUOUS
 10
-33.432886
 20
5.469674
 40
8.0
 50
84.71457
 51
134.999983
  0
LINE
  8
ゴム等
  6
CONTINUOUS
 10
-46.348722
 20
-1.36504
 11
-45.78305
 21
-0.51652
  0
LINE
  8
ゴム等
  6
CONTINUOUS
 10
-44.934508
 20
-2.779255
 11
-44.929535
 21
-0.863725
  0
ARC
  8
ゴム等
  6
CONTINUOUS
 10
-45.429492
 20
-0.870073
 40
0.5
 50
0.726018
 51
134.999983
  0
LINE
  8
ゴム等
  6
CONTINUOUS
 10
-42.601055
 20
-5.112708
 11
-44.934508
 21
-2.779255
  0
LINE
  8
ゴム等
  6
CONTINUOUS
 10
-46.348722
 20
-1.36504
 11
-47.904357
 21
0.190595
  0
LINE
  8
ゴム等
  6
CONTINUOUS
 10
-38.216997
 20
1.392672
 11
-37.547052
 21
2.062617
  0
LINE
  8
ゴム等
  6
CONTINUOUS
 10
-37.2056
 20
3.111185
 11
-32.606502
 21
7.71026
  0
LINE
  8
ゴム等
  6
CONTINUOUS
 10
-30.524593
 20
9.085078
 11
-31.53287
 21
8.076793
  0
LINE
  8
ゴム等
  6
CONTINUOUS
 10
-45.4295
 20
-7.94113
 11
-42.601055
 21
-5.112708
  0
LINE
  8
ゴム等
  6
CONTINUOUS
 10
-37.2056
 20
3.111185
 11
-36.47342
 21
2.42915
  0
LINE
  8
ゴム等
  6
CONTINUOUS
 10
-37.547052
 20
2.062617
 11
-37.180977
 21
1.721593
  0
LINE
  8
ゴム等
  6
CONTINUOUS
 10
-32.606502
 20
7.71026
 11
-31.874323
 21
7.028225
  0
LINE
  8
ゴム等
  6
CONTINUOUS
 10
-31.53287
 20
8.076793
 11
-31.16678
 21
7.73579
  0
POLYLINE
  8
ゴム等
  6
CONTINUOUS
 66
     1
 70
     4
  0
VERTEX
  8
ゴム等
 10
-30.45
 20
9.175
 70
     8
  0
VERTEX
  8
ゴム等
 10
-30.425
 20
9.175
 70
     8
  0
VERTEX
  8
ゴム等
 10
-30.4
 20
9.2
 70
     8
  0
VERTEX
  8
ゴム等
 10
-30.375
 20
9.225
 70
     8
  0
VERTEX
  8
ゴム等
 10
-30.35
 20
9.25
 70
     8
  0
VERTEX
  8
ゴム等
 10
-30.325
 20
9.275
 70
     8
  0
VERTEX
  8
ゴム等
 10
-30.3
 20
9.275
 70
     8
  0
VERTEX
  8
ゴム等
 10
-30.3
 20
9.3
 70
     8
  0
VERTEX
  8
ゴム等
 10
-30.275
 20
9.325
 70
     8
  0
VERTEX
  8
ゴム等
 10
-30.25
 20
9.35
 70
     8
  0
VERTEX
  8
ゴム等
 10
-30.225
 20
9.375
 70
     8
  0
VERTEX
  8
ゴム等
 10
-30.2
 20
9.375
 70
     8
  0
VERTEX
  8
ゴム等
 10
-30.175
 20
9.4
 70
     8
  0
VERTEX
  8
ゴム等
 10
-30.15
 20
9.425
 70
     8
  0
VERTEX
  8
ゴム等
 10
-30.125
 20
9.45
 70
     8
  0
VERTEX
  8
ゴム等
 10
-30.125
 20
9.475
 70
     8
  0
VERTEX
  8
ゴム等
 10
-30.1
 20
9.475
 70
     8
  0
VERTEX
  8
ゴム等
 10
-30.075
 20
9.5
 70
     8
  0
VERTEX
  8
ゴム等
 10
-30.05
 20
9.525
 70
     8
  0
VERTEX
  8
ゴム等
 10
-30.025
 20
9.55
 70
     8
  0
VERTEX
  8
ゴム等
 10
-30.0
 20
9.575
 70
     8
  0
VERTEX
  8
ゴム等
 10
-29.975
 20
9.575
 70
     8
  0
VERTEX
  8
ゴム等
 10
-29.95
 20
9.6
 70
     8
  0
VERTEX
  8
ゴム等
 10
-29.95
 20
9.625
 70
     8
  0
VERTEX
  8
ゴム等
 10
-29.925
 20
9.65
 70
     8
  0
VERTEX
  8
ゴム等
 10
-29.9
 20
9.675
 70
     8
  0
VERTEX
  8
ゴム等
 10
-29.875
 20
9.675
 70
     8
  0
VERTEX
  8
ゴム等
 10
-29.85
 20
9.7
 70
     8
  0
VERTEX
  8
ゴム等
 10
-29.825
 20
9.725
 70
     8
  0
VERTEX
  8
ゴム等
 10
-29.8
 20
9.75
 70
     8
  0
VERTEX
  8
ゴム等
 10
-29.775
 20
9.775
 70
     8
  0
VERTEX
  8
ゴム等
 10
-29.775
 20
9.775
 70
     8
  0
VERTEX
  8
ゴム等
 10
-29.75
 20
9.8
 70
     8
  0
VERTEX
  8
ゴム等
 10
-29.725
 20
9.825
 70
     8
  0
VERTEX
  8
ゴム等
 10
-29.7
 20
9.85
 70
     8
  0
VERTEX
  8
ゴム等
 10
-29.675
 20
9.875
 70
     8
  0
VERTEX
  8
ゴム等
 10
-29.65
 20
9.875
 70
     8
  0
VERTEX
  8
ゴム等
 10
-29.625
 20
9.9
 70
     8
  0
VERTEX
  8
ゴム等
 10
-29.6
 20
9.925
 70
     8
  0
VERTEX
  8
ゴム等
 10
-29.6
 20
9.95
 70
     8
  0
VERTEX
  8
ゴム等
 10
-29.575
 20
9.975
 70
     8
  0
VERTEX
  8
ゴム等
 10
-29.55
 20
9.975
 70
     8
  0
VERTEX
  8
ゴム等
 10
-29.525
 20
10.0
 70
     8
  0
VERTEX
  8
ゴム等
 10
-29.5
 20
10.025
 70
     8
  0
VERTEX
  8
ゴム等
 10
-29.475
 20
10.05
 70
     8
  0
VERTEX
  8
ゴム等
 10
-29.45
 20
10.075
 70
     8
  0
VERTEX
  8
ゴム等
 10
-29.425
 20
10.075
 70
     8
  0
VERTEX
  8
ゴム等
 10
-29.425
 20
10.1
 70
     8
  0
VERTEX
  8
ゴム等
 10
-29.4
 20
10.125
 70
     8
  0
VERTEX
  8
ゴム等
 10
-29.375
 20
10.15
 70
     8
  0
VERTEX
  8
ゴム等
 10
-29.35
 20
10.175
 70
     8
  0
VERTEX
  8
ゴム等
 10
-29.325
 20
10.175
 70
     8
  0
VERTEX
  8
ゴム等
 10
-29.3
 20
10.2
 70
     8
  0
VERTEX
  8
ゴム等
 10
-29.275
 20
10.225
 70
     8
  0
VERTEX
  8
ゴム等
 10
-29.25
 20
10.25
 70
     8
  0
VERTEX
  8
ゴム等
 10
-29.25
 20
10.275
 70
     8
  0
VERTEX
  8
ゴム等
 10
-29.225
 20
10.275
 70
     8
  0
VERTEX
  8
ゴム等
 10
-29.2
 20
10.3
 70
     8
  0
VERTEX
  8
ゴム等
 10
-29.175
 20
10.325
 70
     8
  0
VERTEX
  8
ゴム等
 10
-29.15
 20
10.35
 70
     8
  0
VERTEX
  8
ゴム等
 10
-29.125
 20
10.35
 70
     8
  0
VERTEX
  8
ゴム等
 10
-29.1
 20
10.375
 70
     8
  0
VERTEX
  8
ゴム等
 10
-29.075
 20
10.4
 70
     8
  0
VERTEX
  8
ゴム等
 10
-29.05
 20
10.425
 70
     8
  0
VERTEX
  8
ゴム等
 10
-29.05
 20
10.45
 70
     8
  0
VERTEX
  8
ゴム等
 10
-29.025
 20
10.45
 70
     8
  0
VERTEX
  8
ゴム等
 10
-29.0
 20
10.475
 70
     8
  0
VERTEX
  8
ゴム等
 10
-28.975
 20
10.5
 70
     8
  0
VERTEX
  8
ゴム等
 10
-28.95
 20
10.525
 70
     8
  0
VERTEX
  8
ゴム等
 10
-28.925
 20
10.55
 70
     8
  0
VERTEX
  8
ゴム等
 10
-28.9
 20
10.55
 70
     8
  0
VERTEX
  8
ゴム等
 10
-28.875
 20
10.575
 70
     8
  0
VERTEX
  8
ゴム等
 10
-28.875
 20
10.6
 70
     8
  0
VERTEX
  8
ゴム等
 10
-28.85
 20
10.625
 70
     8
  0
VERTEX
  8
ゴム等
 10
-28.825
 20
10.65
 70
     8
  0
VERTEX
  8
ゴム等
 10
-28.8
 20
10.65
 70
     8
  0
VERTEX
  8
ゴム等
 10
-28.775
 20
10.675
 70
     8
  0
VERTEX
  8
ゴム等
 10
-28.75
 20
10.7
 70
     8
  0
VERTEX
  8
ゴム等
 10
-28.725
 20
10.725
 70
     8
  0
VERTEX
  8
ゴム等
 10
-28.7
 20
10.725
 70
     8
  0
VERTEX
  8
ゴム等
 10
-28.675
 20
10.75
 70
     8
  0
VERTEX
  8
ゴム等
 10
-28.675
 20
10.775
 70
     8
  0
VERTEX
  8
ゴム等
 10
-28.65
 20
10.8
 70
     8
  0
VERTEX
  8
ゴム等
 10
-28.625
 20
10.825
 70
     8
  0
VERTEX
  8
ゴム等
 10
-28.6
 20
10.825
 70
     8
  0
VERTEX
  8
ゴム等
 10
-28.575
 20
10.85
 70
     8
  0
VERTEX
  8
ゴム等
 10
-28.55
 20
10.875
 70
     8
  0
VERTEX
  8
ゴム等
 10
-28.525
 20
10.9
 70
     8
  0
VERTEX
  8
ゴム等
 10
-28.5
 20
10.9
 70
     8
  0
VERTEX
  8
ゴム等
 10
-28.475
 20
10.925
 70
     8
  0
VERTEX
  8
ゴム等
 10
-28.475
 20
10.95
 70
     8
  0
VERTEX
  8
ゴム等
 10
-28.45
 20
10.975
 70
     8
  0
VERTEX
  8
ゴム等
 10
-28.425
 20
11.0
 70
     8
  0
VERTEX
  8
ゴム等
 10
-28.4
 20
11.0
 70
     8
  0
VERTEX
  8
ゴム等
 10
-28.375
 20
11.025
 70
     8
  0
VERTEX
  8
ゴム等
 10
-28.35
 20
11.05
 70
     8
  0
VERTEX
  8
ゴム等
 10
-28.325
 20
11.075
 70
     8
  0
VERTEX
  8
ゴム等
 10
-28.3
 20
11.075
 70
     8
  0
VERTEX
  8
ゴム等
 10
-28.275
 20
11.1
 70
     8
  0
VERTEX
  8
ゴム等
 10
-28.275
 20
11.125
 70
     8
  0
VERTEX
  8
ゴム等
 10
-28.25
 20
11.15
 70
     8
  0
VERTEX
  8
ゴム等
 10
-28.225
 20
11.175
 70
     8
  0
VERTEX
  8
ゴム等
 10
-28.2
 20
11.175
 70
     8
  0
VERTEX
  8
ゴム等
 10
-28.175
 20
11.2
 70
     8
  0
VERTEX
  8
ゴム等
 10
-28.15
 20
11.225
 70
     8
  0
VERTEX
  8
ゴム等
 10
-28.125
 20
11.25
 70
     8
  0
VERTEX
  8
ゴム等
 10
-28.1
 20
11.25
 70
     8
  0
VERTEX
  8
ゴム等
 10
-28.075
 20
11.275
 70
     8
  0
VERTEX
  8
ゴム等
 10
-28.05
 20
11.3
 70
     8
  0
VERTEX
  8
ゴム等
 10
-28.05
 20
11.325
 70
     8
  0
VERTEX
  8
ゴム等
 10
-28.025
 20
11.325
 70
     8
  0
VERTEX
  8
ゴム等
 10
-28.0
 20
11.35
 70
     8
  0
VERTEX
  8
ゴム等
 10
-27.975
 20
11.375
 70
     8
  0
VERTEX
  8
ゴム等
 10
-27.95
 20
11.4
 70
     8
  0
VERTEX
  8
ゴム等
 10
-27.925
 20
11.4
 70
     8
  0
VERTEX
  8
ゴム等
 10
-27.9
 20
11.425
 70
     8
  0
VERTEX
  8
ゴム等
 10
-27.875
 20
11.45
 70
     8
  0
VERTEX
  8
ゴム等
 10
-27.85
 20
11.475
 70
     8
  0
VERTEX
  8
ゴム等
 10
-27.825
 20
11.5
 70
     8
  0
VERTEX
  8
ゴム等
 10
-27.825
 20
11.5
 70
     8
  0
VERTEX
  8
ゴム等
 10
-27.8
 20
11.525
 70
     8
  0
VERTEX
  8
ゴム等
 10
-27.775
 20
11.55
 70
     8
  0
VERTEX
  8
ゴム等
 10
-27.75
 20
11.575
 70
     8
  0
VERTEX
  8
ゴム等
 10
-27.725
 20
11.575
 70
     8
  0
VERTEX
  8
ゴム等
 10
-27.7
 20
11.6
 70
     8
  0
VERTEX
  8
ゴム等
 10
-27.675
 20
11.625
 70
     8
  0
VERTEX
  8
ゴム等
 10
-27.65
 20
11.65
 70
     8
  0
VERTEX
  8
ゴム等
 10
-27.625
 20
11.65
 70
     8
  0
VERTEX
  8
ゴム等
 10
-27.6
 20
11.675
 70
     8
  0
VERTEX
  8
ゴム等
 10
-27.575
 20
11.7
 70
     8
  0
VERTEX
  8
ゴム等
 10
-27.575
 20
11.725
 70
     8
  0
VERTEX
  8
ゴム等
 10
-27.55
 20
11.725
 70
     8
  0
VERTEX
  8
ゴム等
 10
-27.525
 20
11.75
 70
     8
  0
VERTEX
  8
ゴム等
 10
-27.5
 20
11.775
 70
     8
  0
VERTEX
  8
ゴム等
 10
-27.475
 20
11.8
 70
     8
  0
VERTEX
  8
ゴム等
 10
-27.45
 20
11.8
 70
     8
  0
VERTEX
  8
ゴム等
 10
-27.425
 20
11.825
 70
     8
  0
VERTEX
  8
ゴム等
 10
-27.4
 20
11.85
 70
     8
  0
VERTEX
  8
ゴム等
 10
-27.375
 20
11.875
 70
     8
  0
VERTEX
  8
ゴム等
 10
-27.35
 20
11.875
 70
     8
  0
VERTEX
  8
ゴム等
 10
-27.325
 20
11.9
 70
     8
  0
VERTEX
  8
ゴム等
 10
-27.3
 20
11.925
 70
     8
  0
VERTEX
  8
ゴム等
 10
-27.3
 20
11.95
 70
     8
  0
VERTEX
  8
ゴム等
 10
-27.275
 20
11.95
 70
     8
  0
VERTEX
  8
ゴム等
 10
-27.25
 20
11.975
 70
     8
  0
VERTEX
  8
ゴム等
 10
-27.225
 20
12.0
 70
     8
  0
VERTEX
  8
ゴム等
 10
-27.2
 20
12.0
 70
     8
  0
VERTEX
  8
ゴム等
 10
-27.175
 20
12.025
 70
     8
  0
VERTEX
  8
ゴム等
 10
-27.15
 20
12.05
 70
     8
  0
VERTEX
  8
ゴム等
 10
-27.125
 20
12.075
 70
     8
  0
VERTEX
  8
ゴム等
 10
-27.1
 20
12.075
 70
     8
  0
VERTEX
  8
ゴム等
 10
-27.075
 20
12.1
 70
     8
  0
VERTEX
  8
ゴム等
 10
-27.05
 20
12.125
 70
     8
  0
VERTEX
  8
ゴム等
 10
-27.025
 20
12.15
 70
     8
  0
VERTEX
  8
ゴム等
 10
-27.0
 20
12.15
 70
     8
  0
VERTEX
  8
ゴム等
 10
-27.0
 20
12.175
 70
     8
  0
VERTEX
  8
ゴム等
 10
-26.975
 20
12.2
 70
     8
  0
VERTEX
  8
ゴム等
 10
-26.95
 20
12.225
 70
     8
  0
VERTEX
  8
ゴム等
 10
-26.925
 20
12.225
 70
     8
  0
VERTEX
  8
ゴム等
 10
-26.9
 20
12.25
 70
     8
  0
VERTEX
  8
ゴム等
 10
-26.875
 20
12.275
 70
     8
  0
VERTEX
  8
ゴム等
 10
-26.85
 20
12.275
 70
     8
  0
VERTEX
  8
ゴム等
 10
-26.825
 20
12.3
 70
     8
  0
VERTEX
  8
ゴム等
 10
-26.8
 20
12.325
 70
     8
  0
VERTEX
  8
ゴム等
 10
-26.775
 20
12.35
 70
     8
  0
VERTEX
  8
ゴム等
 10
-26.75
 20
12.35
 70
     8
  0
VERTEX
  8
ゴム等
 10
-26.725
 20
12.375
 70
     8
  0
VERTEX
  8
ゴム等
 10
-26.7
 20
12.4
 70
     8
  0
VERTEX
  8
ゴム等
 10
-26.675
 20
12.425
 70
     8
  0
VERTEX
  8
ゴム等
 10
-26.65
 20
12.425
 70
     8
  0
VERTEX
  8
ゴム等
 10
-26.65
 20
12.45
 70
     8
  0
VERTEX
  8
ゴム等
 10
-26.625
 20
12.475
 70
     8
  0
VERTEX
  8
ゴム等
 10
-26.6
 20
12.475
 70
     8
  0
VERTEX
  8
ゴム等
 10
-26.575
 20
12.5
 70
     8
  0
VERTEX
  8
ゴム等
 10
-26.55
 20
12.525
 70
     8
  0
VERTEX
  8
ゴム等
 10
-26.525
 20
12.55
 70
     8
  0
VERTEX
  8
ゴム等
 10
-26.5
 20
12.55
 70
     8
  0
VERTEX
  8
ゴム等
 10
-26.475
 20
12.575
 70
     8
  0
VERTEX
  8
ゴム等
 10
-26.45
 20
12.6
 70
     8
  0
VERTEX
  8
ゴム等
 10
-26.425
 20
12.6
 70
     8
  0
VERTEX
  8
ゴム等
 10
-26.4
 20
12.625
 70
     8
  0
VERTEX
  8
ゴム等
 10
-26.375
 20
12.65
 70
     8
  0
VERTEX
  8
ゴム等
 10
-26.35
 20
12.65
 70
     8
  0
VERTEX
  8
ゴム等
 10
-26.325
 20
12.675
 70
     8
  0
VERTEX
  8
ゴム等
 10
-26.3
 20
12.7
 70
     8
  0
VERTEX
  8
ゴム等
 10
-26.275
 20
12.725
 70
     8
  0
VERTEX
  8
ゴム等
 10
-26.25
 20
12.725
 70
     8
  0
VERTEX
  8
ゴム等
 10
-26.225
 20
12.75
 70
     8
  0
VERTEX
  8
ゴム等
 10
-26.2
 20
12.775
 70
     8
  0
VERTEX
  8
ゴム等
 10
-26.2
 20
12.775
 70
     8
  0
VERTEX
  8
ゴム等
 10
-26.175
 20
12.8
 70
     8
  0
VERTEX
  8
ゴム等
 10
-26.15
 20
12.825
 70
     8
  0
VERTEX
  8
ゴム等
 10
-26.125
 20
12.825
 70
     8
  0
VERTEX
  8
ゴム等
 10
-26.1
 20
12.85
 70
     8
  0
VERTEX
  8
ゴム等
 10
-26.075
 20
12.875
 70
     8
  0
VERTEX
  8
ゴム等
 10
-26.05
 20
12.9
 70
     8
  0
VERTEX
  8
ゴム等
 10
-26.025
 20
12.9
 70
     8
  0
VERTEX
  8
ゴム等
 10
-26.0
 20
12.925
 70
     8
  0
VERTEX
  8
ゴム等
 10
-25.975
 20
12.95
 70
     8
  0
VERTEX
  8
ゴム等
 10
-25.95
 20
12.95
 70
     8
  0
VERTEX
  8
ゴム等
 10
-25.925
 20
12.975
 70
     8
  0
SEQEND
  0
POLYLINE
  8
ゴム等
  6
CONTINUOUS
 66
     1
 70
     4
  0
VERTEX
  8
ゴム等
 10
-32.7
 20
13.425
 70
     8
  0
VERTEX
  8
ゴム等
 10
-32.675
 20
13.425
 70
     8
  0
VERTEX
  8
ゴム等
 10
-32.65
 20
13.425
 70
     8
  0
VERTEX
  8
ゴム等
 10
-32.6
 20
13.4
 70
     8
  0
VERTEX
  8
ゴム等
 10
-32.575
 20
13.4
 70
     8
  0
VERTEX
  8
ゴム等
 10
-32.55
 20
13.4
 70
     8
  0
VERTEX
  8
ゴム等
 10
-32.5
 20
13.4
 70
     8
  0
VERTEX
  8
ゴム等
 10
-32.475
 20
13.4
 70
     8
  0
VERTEX
  8
ゴム等
 10
-32.45
 20
13.4
 70
     8
  0
VERTEX
  8
ゴム等
 10
-32.425
 20
13.4
 70
     8
  0
VERTEX
  8
ゴム等
 10
-32.375
 20
13.375
 70
     8
  0
VERTEX
  8
ゴム等
 10
-32.35
 20
13.375
 70
     8
  0
VERTEX
  8
ゴム等
 10
-32.325
 20
13.375
 70
     8
  0
VERTEX
  8
ゴム等
 10
-32.275
 20
13.375
 70
     8
  0
VERTEX
  8
ゴム等
 10
-32.25
 20
13.375
 70
     8
  0
VERTEX
  8
ゴム等
 10
-32.225
 20
13.375
 70
     8
  0
VERTEX
  8
ゴム等
 10
-32.175
 20
13.375
 70
     8
  0
VERTEX
  8
ゴム等
 10
-32.15
 20
13.35
 70
     8
  0
VERTEX
  8
ゴム等
 10
-32.125
 20
13.35
 70
     8
  0
VERTEX
  8
ゴム等
 10
-32.075
 20
13.35
 70
     8
  0
VERTEX
  8
ゴム等
 10
-32.05
 20
13.35
 70
     8
  0
VERTEX
  8
ゴム等
 10
-32.025
 20
13.35
 70
     8
  0
VERTEX
  8
ゴム等
 10
-32.0
 20
13.35
 70
     8
  0
VERTEX
  8
ゴム等
 10
-31.95
 20
13.35
 70
     8
  0
VERTEX
  8
ゴム等
 10
-31.925
 20
13.325
 70
     8
  0
VERTEX
  8
ゴム等
 10
-31.9
 20
13.325
 70
     8
  0
VERTEX
  8
ゴム等
 10
-31.85
 20
13.325
 70
     8
  0
VERTEX
  8
ゴム等
 10
-31.825
 20
13.325
 70
     8
  0
VERTEX
  8
ゴム等
 10
-31.8
 20
13.325
 70
     8
  0
VERTEX
  8
ゴム等
 10
-31.75
 20
13.325
 70
     8
  0
VERTEX
  8
ゴム等
 10
-31.725
 20
13.325
 70
     8
  0
VERTEX
  8
ゴム等
 10
-31.7
 20
13.3
 70
     8
  0
VERTEX
  8
ゴム等
 10
-31.65
 20
13.3
 70
     8
  0
VERTEX
  8
ゴム等
 10
-31.625
 20
13.3
 70
     8
  0
VERTEX
  8
ゴム等
 10
-31.6
 20
13.3
 70
     8
  0
VERTEX
  8
ゴム等
 10
-31.55
 20
13.3
 70
     8
  0
VERTEX
  8
ゴム等
 10
-31.525
 20
13.3
 70
     8
  0
VERTEX
  8
ゴム等
 10
-31.5
 20
13.3
 70
     8
  0
VERTEX
  8
ゴム等
 10
-31.475
 20
13.275
 70
     8
  0
VERTEX
  8
ゴム等
 10
-31.425
 20
13.275
 70
     8
  0
VERTEX
  8
ゴム等
 10
-31.4
 20
13.275
 70
     8
  0
VERTEX
  8
ゴム等
 10
-31.375
 20
13.275
 70
     8
  0
VERTEX
  8
ゴム等
 10
-31.325
 20
13.275
 70
     8
  0
VERTEX
  8
ゴム等
 10
-31.3
 20
13.275
 70
     8
  0
VERTEX
  8
ゴム等
 10
-31.275
 20
13.275
 70
     8
  0
VERTEX
  8
ゴム等
 10
-31.225
 20
13.275
 70
     8
  0
VERTEX
  8
ゴム等
 10
-31.2
 20
13.275
 70
     8
  0
VERTEX
  8
ゴム等
 10
-31.175
 20
13.25
 70
     8
  0
VERTEX
  8
ゴム等
 10
-31.125
 20
13.25
 70
     8
  0
VERTEX
  8
ゴム等
 10
-31.1
 20
13.25
 70
     8
  0
VERTEX
  8
ゴム等
 10
-31.075
 20
13.25
 70
     8
  0
VERTEX
  8
ゴム等
 10
-31.05
 20
13.25
 70
     8
  0
VERTEX
  8
ゴム等
 10
-31.0
 20
13.25
 70
     8
  0
VERTEX
  8
ゴム等
 10
-30.975
 20
13.25
 70
     8
  0
VERTEX
  8
ゴム等
 10
-30.95
 20
13.25
 70
     8
  0
VERTEX
  8
ゴム等
 10
-30.9
 20
13.25
 70
     8
  0
VERTEX
  8
ゴム等
 10
-30.875
 20
13.225
 70
     8
  0
VERTEX
  8
ゴム等
 10
-30.85
 20
13.225
 70
     8
  0
VERTEX
  8
ゴム等
 10
-30.8
 20
13.225
 70
     8
  0
VERTEX
  8
ゴム等
 10
-30.775
 20
13.225
 70
     8
  0
VERTEX
  8
ゴム等
 10
-30.75
 20
13.225
 70
     8
  0
VERTEX
  8
ゴム等
 10
-30.7
 20
13.225
 70
     8
  0
VERTEX
  8
ゴム等
 10
-30.675
 20
13.225
 70
     8
  0
VERTEX
  8
ゴム等
 10
-30.65
 20
13.225
 70
     8
  0
VERTEX
  8
ゴム等
 10
-30.625
 20
13.225
 70
     8
  0
VERTEX
  8
ゴム等
 10
-30.575
 20
13.225
 70
     8
  0
VERTEX
  8
ゴム等
 10
-30.55
 20
13.225
 70
     8
  0
VERTEX
  8
ゴム等
 10
-30.525
 20
13.225
 70
     8
  0
VERTEX
  8
ゴム等
 10
-30.475
 20
13.2
 70
     8
  0
VERTEX
  8
ゴム等
 10
-30.45
 20
13.2
 70
     8
  0
VERTEX
  8
ゴム等
 10
-30.425
 20
13.2
 70
     8
  0
VERTEX
  8
ゴム等
 10
-30.375
 20
13.2
 70
     8
  0
VERTEX
  8
ゴム等
 10
-30.35
 20
13.2
 70
     8
  0
VERTEX
  8
ゴム等
 10
-30.325
 20
13.2
 70
     8
  0
VERTEX
  8
ゴム等
 10
-30.275
 20
13.2
 70
     8
  0
VERTEX
  8
ゴム等
 10
-30.25
 20
13.2
 70
     8
  0
VERTEX
  8
ゴム等
 10
-30.225
 20
13.2
 70
     8
  0
VERTEX
  8
ゴム等
 10
-30.2
 20
13.2
 70
     8
  0
VERTEX
  8
ゴム等
 10
-30.15
 20
13.2
 70
     8
  0
VERTEX
  8
ゴム等
 10
-30.125
 20
13.2
 70
     8
  0
VERTEX
  8
ゴム等
 10
-30.1
 20
13.2
 70
     8
  0
VERTEX
  8
ゴム等
 10
-30.05
 20
13.2
 70
     8
  0
VERTEX
  8
ゴム等
 10
-30.025
 20
13.2
 70
     8
  0
VERTEX
  8
ゴム等
 10
-30.0
 20
13.2
 70
     8
  0
VERTEX
  8
ゴム等
 10
-29.95
 20
13.2
 70
     8
  0
VERTEX
  8
ゴム等
 10
-29.925
 20
13.2
 70
     8
  0
VERTEX
  8
ゴム等
 10
-29.9
 20
13.2
 70
     8
  0
VERTEX
  8
ゴム等
 10
-29.875
 20
13.2
 70
     8
  0
VERTEX
  8
ゴム等
 10
-29.825
 20
13.2
 70
     8
  0
VERTEX
  8
ゴム等
 10
-29.8
 20
13.2
 70
     8
  0
VERTEX
  8
ゴム等
 10
-29.775
 20
13.2
 70
     8
  0
VERTEX
  8
ゴム等
 10
-29.725
 20
13.2
 70
     8
  0
VERTEX
  8
ゴム等
 10
-29.7
 20
13.2
 70
     8
  0
VERTEX
  8
ゴム等
 10
-29.675
 20
13.2
 70
     8
  0
VERTEX
  8
ゴム等
 10
-29.625
 20
13.2
 70
     8
  0
VERTEX
  8
ゴム等
 10
-29.6
 20
13.2
 70
     8
  0
VERTEX
  8
ゴム等
 10
-29.575
 20
13.2
 70
     8
  0
VERTEX
  8
ゴム等
 10
-29.55
 20
13.2
 70
     8
  0
VERTEX
  8
ゴム等
 10
-29.5
 20
13.2
 70
     8
  0
VERTEX
  8
ゴム等
 10
-29.475
 20
13.2
 70
     8
  0
VERTEX
  8
ゴム等
 10
-29.45
 20
13.2
 70
     8
  0
VERTEX
  8
ゴム等
 10
-29.4
 20
13.2
 70
     8
  0
VERTEX
  8
ゴム等
 10
-29.375
 20
13.2
 70
     8
  0
VERTEX
  8
ゴム等
 10
-29.35
 20
13.2
 70
     8
  0
VERTEX
  8
ゴム等
 10
-29.3
 20
13.2
 70
     8
  0
VERTEX
  8
ゴム等
 10
-29.275
 20
13.2
 70
     8
  0
VERTEX
  8
ゴム等
 10
-29.25
 20
13.2
 70
     8
  0
VERTEX
  8
ゴム等
 10
-29.225
 20
13.2
 70
     8
  0
VERTEX
  8
ゴム等
 10
-29.175
 20
13.2
 70
     8
  0
VERTEX
  8
ゴム等
 10
-29.15
 20
13.2
 70
     8
  0
VERTEX
  8
ゴム等
 10
-29.125
 20
13.2
 70
     8
  0
VERTEX
  8
ゴム等
 10
-29.075
 20
13.2
 70
     8
  0
VERTEX
  8
ゴム等
 10
-29.05
 20
13.2
 70
     8
  0
VERTEX
  8
ゴム等
 10
-29.025
 20
13.2
 70
     8
  0
VERTEX
  8
ゴム等
 10
-28.975
 20
13.2
 70
     8
  0
VERTEX
  8
ゴム等
 10
-28.95
 20
13.2
 70
     8
  0
VERTEX
  8
ゴム等
 10
-28.925
 20
13.2
 70
     8
  0
VERTEX
  8
ゴム等
 10
-28.9
 20
13.2
 70
     8
  0
VERTEX
  8
ゴム等
 10
-28.85
 20
13.225
 70
     8
  0
VERTEX
  8
ゴム等
 10
-28.825
 20
13.225
 70
     8
  0
VERTEX
  8
ゴム等
 10
-28.8
 20
13.225
 70
     8
  0
VERTEX
  8
ゴム等
 10
-28.75
 20
13.225
 70
     8
  0
VERTEX
  8
ゴム等
 10
-28.725
 20
13.225
 70
     8
  0
VERTEX
  8
ゴム等
 10
-28.7
 20
13.225
 70
     8
  0
VERTEX
  8
ゴム等
 10
-28.675
 20
13.225
 70
     8
  0
VERTEX
  8
ゴム等
 10
-28.625
 20
13.225
 70
     8
  0
VERTEX
  8
ゴム等
 10
-28.6
 20
13.225
 70
     8
  0
VERTEX
  8
ゴム等
 10
-28.575
 20
13.25
 70
     8
  0
VERTEX
  8
ゴム等
 10
-28.525
 20
13.25
 70
     8
  0
VERTEX
  8
ゴム等
 10
-28.5
 20
13.25
 70
     8
  0
VERTEX
  8
ゴム等
 10
-28.475
 20
13.25
 70
     8
  0
VERTEX
  8
ゴム等
 10
-28.425
 20
13.25
 70
     8
  0
VERTEX
  8
ゴム等
 10
-28.4
 20
13.25
 70
     8
  0
VERTEX
  8
ゴム等
 10
-28.375
 20
13.25
 70
     8
  0
VERTEX
  8
ゴム等
 10
-28.35
 20
13.275
 70
     8
  0
VERTEX
  8
ゴム等
 10
-28.3
 20
13.275
 70
     8
  0
VERTEX
  8
ゴム等
 10
-28.275
 20
13.275
 70
     8
  0
VERTEX
  8
ゴム等
 10
-28.25
 20
13.275
 70
     8
  0
VERTEX
  8
ゴム等
 10
-28.2
 20
13.275
 70
     8
  0
VERTEX
  8
ゴム等
 10
-28.175
 20
13.275
 70
     8
  0
VERTEX
  8
ゴム等
 10
-28.15
 20
13.3
 70
     8
  0
VERTEX
  8
ゴム等
 10
-28.125
 20
13.3
 70
     8
  0
VERTEX
  8
ゴム等
 10
-28.075
 20
13.3
 70
     8
  0
VERTEX
  8
ゴム等
 10
-28.05
 20
13.3
 70
     8
  0
VERTEX
  8
ゴム等
 10
-28.025
 20
13.3
 70
     8
  0
VERTEX
  8
ゴム等
 10
-27.975
 20
13.3
 70
     8
  0
VERTEX
  8
ゴム等
 10
-27.95
 20
13.325
 70
     8
  0
VERTEX
  8
ゴム等
 10
-27.925
 20
13.325
 70
     8
  0
VERTEX
  8
ゴム等
 10
-27.9
 20
13.325
 70
     8
  0
VERTEX
  8
ゴム等
 10
-27.85
 20
13.325
 70
     8
  0
VERTEX
  8
ゴム等
 10
-27.825
 20
13.325
 70
     8
  0
VERTEX
  8
ゴム等
 10
-27.8
 20
13.35
 70
     8
  0
VERTEX
  8
ゴム等
 10
-27.75
 20
13.35
 70
     8
  0
VERTEX
  8
ゴム等
 10
-27.725
 20
13.35
 70
     8
  0
VERTEX
  8
ゴム等
 10
-27.7
 20
13.35
 70
     8
  0
VERTEX
  8
ゴム等
 10
-27.675
 20
13.375
 70
     8
  0
VERTEX
  8
ゴム等
 10
-27.625
 20
13.375
 70
     8
  0
VERTEX
  8
ゴム等
 10
-27.6
 20
13.375
 70
     8
  0
VERTEX
  8
ゴム等
 10
-27.575
 20
13.375
 70
     8
  0
VERTEX
  8
ゴム等
 10
-27.525
 20
13.375
 70
     8
  0
VERTEX
  8
ゴム等
 10
-27.5
 20
13.4
 70
     8
  0
VERTEX
  8
ゴム等
 10
-27.475
 20
13.4
 70
     8
  0
VERTEX
  8
ゴム等
 10
-27.45
 20
13.4
 70
     8
  0
VERTEX
  8
ゴム等
 10
-27.4
 20
13.4
 70
     8
  0
VERTEX
  8
ゴム等
 10
-27.375
 20
13.425
 70
     8
  0
VERTEX
  8
ゴム等
 10
-27.35
 20
13.425
 70
     8
  0
VERTEX
  8
ゴム等
 10
-27.3
 20
13.425
 70
     8
  0
VERTEX
  8
ゴム等
 10
-27.275
 20
13.425
 70
     8
  0
VERTEX
  8
ゴム等
 10
-27.25
 20
13.45
 70
     8
  0
VERTEX
  8
ゴム等
 10
-27.225
 20
13.45
 70
     8
  0
VERTEX
  8
ゴム等
 10
-27.175
 20
13.45
 70
     8
  0
VERTEX
  8
ゴム等
 10
-27.15
 20
13.45
 70
     8
  0
VERTEX
  8
ゴム等
 10
-27.125
 20
13.475
 70
     8
  0
VERTEX
  8
ゴム等
 10
-27.075
 20
13.475
 70
     8
  0
VERTEX
  8
ゴム等
 10
-27.05
 20
13.475
 70
     8
  0
VERTEX
  8
ゴム等
 10
-27.025
 20
13.475
 70
     8
  0
VERTEX
  8
ゴム等
 10
-27.0
 20
13.5
 70
     8
  0
VERTEX
  8
ゴム等
 10
-26.95
 20
13.5
 70
     8
  0
VERTEX
  8
ゴム等
 10
-26.925
 20
13.5
 70
     8
  0
VERTEX
  8
ゴム等
 10
-26.9
 20
13.525
 70
     8
  0
VERTEX
  8
ゴム等
 10
-26.85
 20
13.525
 70
     8
  0
VERTEX
  8
ゴム等
 10
-26.825
 20
13.525
 70
     8
  0
VERTEX
  8
ゴム等
 10
-26.8
 20
13.525
 70
     8
  0
VERTEX
  8
ゴム等
 10
-26.775
 20
13.55
 70
     8
  0
VERTEX
  8
ゴム等
 10
-26.725
 20
13.55
 70
     8
  0
VERTEX
  8
ゴム等
 10
-26.7
 20
13.55
 70
     8
  0
VERTEX
  8
ゴム等
 10
-26.675
 20
13.55
 70
     8
  0
VERTEX
  8
ゴム等
 10
-26.625
 20
13.575
 70
     8
  0
VERTEX
  8
ゴム等
 10
-26.6
 20
13.575
 70
     8
  0
VERTEX
  8
ゴム等
 10
-26.575
 20
13.575
 70
     8
  0
VERTEX
  8
ゴム等
 10
-26.55
 20
13.6
 70
     8
  0
VERTEX
  8
ゴム等
 10
-26.5
 20
13.6
 70
     8
  0
VERTEX
  8
ゴム等
 10
-26.475
 20
13.6
 70
     8
  0
VERTEX
  8
ゴム等
 10
-26.45
 20
13.6
 70
     8
  0
VERTEX
  8
ゴム等
 10
-26.4
 20
13.625
 70
     8
  0
VERTEX
  8
ゴム等
 10
-26.375
 20
13.625
 70
     8
  0
VERTEX
  8
ゴム等
 10
-26.35
 20
13.625
 70
     8
  0
VERTEX
  8
ゴム等
 10
-26.325
 20
13.65
 70
     8
  0
VERTEX
  8
ゴム等
 10
-26.275
 20
13.65
 70
     8
  0
VERTEX
  8
ゴム等
 10
-26.25
 20
13.65
 70
     8
  0
VERTEX
  8
ゴム等
 10
-26.225
 20
13.65
 70
     8
  0
SEQEND
  0
ARC
  8
ゴム等
  6
CONTINUOUS
 10
-26.196183
 20
13.272058
 40
0.4
 50
224.999983
 51
224.999983
  0
ARC
  8
ゴム等
  6
CONTINUOUS
 10
-26.196183
 20
13.272058
 40
0.4
 50
314.999983
 51
451.38316
  0
LINE
  8
ゴム等
  6
CONTINUOUS
 10
-47.904357
 20
0.190595
 11
-38.55215
 21
9.221945
  0
LINE
  8
ゴム等
  6
CONTINUOUS
 10
-38.216997
 20
1.392672
 11
-40.949953
 21
4.125627
  0
LINE
  8
ゴム等
  6
CONTINUOUS
 10
-26.72543
 20
13.558933
 11
-26.72543
 21
12.38414
  0
LINE
  8
ゴム等
  6
CONTINUOUS
 10
-27.725435
 20
13.364195
 11
-27.725435
 21
11.581685
  0
LINE
  8
ゴム等
  6
CONTINUOUS
 10
-28.725432
 20
13.23575
 11
-28.725432
 21
10.721735
  0
LINE
  8
ゴム等
  6
CONTINUOUS
 10
-29.725438
 20
13.200312
 11
-29.725438
 21
9.822673
  0
LINE
  8
ゴム等
  6
CONTINUOUS
 10
-30.725435
 20
13.239417
 11
-30.725435
 21
8.884235
  0
LINE
  8
ゴム等
  6
CONTINUOUS
 10
-30.524593
 20
9.085078
 11
-30.428045
 21
9.179465
  0
LINE
  8
ゴム等
  6
CONTINUOUS
 10
-31.72544
 20
13.327318
 11
-31.72544
 21
7.177115
  0
LINE
  8
ゴム等
  6
CONTINUOUS
 10
-32.725438
 20
13.438325
 11
-32.725438
 21
7.591332
  0
LINE
  8
ゴム等
  6
CONTINUOUS
 10
-36.725428
 20
2.663907
 11
-36.725428
 21
2.177135
  0
LINE
  8
ゴム等
  6
CONTINUOUS
 10
-33.725435
 20
13.46432
 11
-33.725435
 21
11.433252
  0
LINE
  8
ゴム等
  6
CONTINUOUS
 10
-33.725435
 20
9.712092
 11
-33.725435
 21
6.591328
  0
LINE
  8
ゴム等
  6
CONTINUOUS
 10
-34.725432
 20
13.36457
 11
-34.725432
 21
11.47292
  0
LINE
  8
ゴム等
  6
CONTINUOUS
 10
-34.725432
 20
8.746415
 11
-34.725432
 21
5.591338
  0
LINE
  8
ゴム等
  6
CONTINUOUS
 10
-35.72543
 20
13.134147
 11
-35.72543
 21
10.884695
  0
LINE
  8
ゴム等
  6
CONTINUOUS
 10
-35.72543
 20
7.780723
 11
-35.72543
 21
4.591347
  0
LINE
  8
ゴム等
  6
CONTINUOUS
 10
-36.725428
 20
12.7607
 11
-36.725428
 21
10.29647
  0
LINE
  8
ゴム等
  6
CONTINUOUS
 10
-36.725428
 20
6.815037
 11
-36.725428
 21
3.59135
  0
LINE
  8
ゴム等
  6
CONTINUOUS
 10
-37.725432
 20
12.220528
 11
-37.725432
 21
9.708237
  0
LINE
  8
ゴム等
  6
CONTINUOUS
 10
-37.725432
 20
5.849345
 11
-37.725432
 21
1.884238
  0
LINE
  8
ゴム等
  6
CONTINUOUS
 10
-38.72543
 20
11.468743
 11
-38.72543
 21
9.054605
  0
LINE
  8
ゴム等
  6
CONTINUOUS
 10
-38.72543
 20
6.273822
 11
-38.72543
 21
1.901113
  0
LINE
  8
ゴム等
  6
CONTINUOUS
 10
-39.725435
 20
10.490825
 11
-39.725435
 21
8.088905
  0
LINE
  8
ゴム等
  6
CONTINUOUS
 10
-39.725435
 20
5.30813
 11
-39.725435
 21
2.90111
  0
LINE
  8
ゴム等
  6
CONTINUOUS
 10
-40.725432
 20
9.490827
 11
-40.725432
 21
7.12322
  0
LINE
  8
ゴム等
  6
CONTINUOUS
 10
-40.725432
 20
4.342445
 11
-40.725432
 21
3.901115
  0
LINE
  8
ゴム等
  6
CONTINUOUS
 10
-41.725438
 20
8.490822
 11
-41.725438
 21
6.15752
  0
LINE
  8
ゴム等
  6
CONTINUOUS
 10
-42.725435
 20
7.490833
 11
-42.725435
 21
5.191835
  0
LINE
  8
ゴム等
  6
CONTINUOUS
 10
-43.72544
 20
4.226143
 11
-43.72544
 21
6.490835
  0
LINE
  8
ゴム等
  6
CONTINUOUS
 10
-44.72543
 20
3.260457
 11
-44.72543
 21
5.490845
  0
LINE
  8
ゴム等
  6
CONTINUOUS
 10
-45.725428
 20
2.294765
 11
-45.725428
 21
4.49084
  0
LINE
  8
ゴム等
  6
CONTINUOUS
 10
-46.725432
 20
1.32908
 11
-46.725432
 21
3.490842
  0
LINE
  8
ゴム等
  6
CONTINUOUS
 10
-47.72543
 20
0.36338
 11
-47.72543
 21
2.490853
  0
LINE
  8
ゴム等
  6
CONTINUOUS
 10
-43.72544
 20
-3.988322
 11
-43.72544
 21
-6.237078
  0
LINE
  8
ゴム等
  6
CONTINUOUS
 10
-44.72543
 20
-2.988332
 11
-44.72543
 21
-7.23706
  0
LINE
  8
ゴム等
  6
CONTINUOUS
 10
-45.725428
 20
-0.43009
 11
-45.725428
 21
-5.099605
  0
LINE
  8
ゴム等
  6
CONTINUOUS
 10
-45.725428
 20
-6.822858
 11
-45.725428
 21
-7.645202
  0
LINE
  8
ゴム等
  6
CONTINUOUS
 10
-46.725432
 20
-0.98833
 11
-46.725432
 21
-4.099608
  0
LINE
  8
ゴム等
  6
CONTINUOUS
 10
-47.72543
 20
0.011675
 11
-47.72543
 21
-3.099603
  0
LINE
  8
ゴム等
  6
CONTINUOUS
 10
-48.725435
 20
1.490848
 11
-48.725435
 21
-2.099605
  0
LINE
  8
ゴム等
  6
CONTINUOUS
 10
-49.725432
 20
0.49085
 11
-49.725432
 21
-1.0996
  0
ENDBLK
  0
BLOCK
  2
*GRP_0031
 70
    65
 10
0.0
 20
0.0
  0
LINE
  8
ゴム等
  6
CONTINUOUS
 10
-26.018818
 20
-24.522655
 11
-26.40773
 21
-22.860963
  0
LINE
  8
ゴム等
  6
CONTINUOUS
 10
-29.80184
 20
-26.255073
 11
-28.14014
 21
-26.643977
  0
LINE
  8
ゴム等
  6
CONTINUOUS
 10
-26.018818
 20
-24.522655
 11
-22.872192
 21
-27.66928
  0
LINE
  8
ゴム等
  6
CONTINUOUS
 10
-22.872192
 20
-27.66928
 11
-24.993515
 21
-29.790603
  0
LINE
  8
ゴム等
  6
CONTINUOUS
 10
-28.14014
 20
-26.643977
 11
-24.993515
 21
-29.790603
  0
LINE
  8
ゴム等
  6
CONTINUOUS
 10
-21.457978
 20
-26.255065
 11
-20.39732
 21
-25.194408
  0
LINE
  8
ゴム等
  6
CONTINUOUS
 10
-21.457978
 20
-26.255065
 11
-25.629905
 21
-22.083137
  0
LINE
  8
ゴム等
  6
CONTINUOUS
 10
-25.629905
 20
-22.083137
 11
-26.40773
 21
-22.860963
  0
LINE
  8
ゴム等
  6
CONTINUOUS
 10
-29.80184
 20
-26.255073
 11
-30.579658
 21
-27.03289
  0
LINE
  8
ゴム等
  6
CONTINUOUS
 10
-30.579658
 20
-27.03289
 11
-34.115195
 21
-23.497353
  0
LINE
  8
ゴム等
  6
CONTINUOUS
 10
-33.40808
 20
-22.790245
 11
-32.877755
 21
-22.967028
  0
LINE
  8
ゴム等
  6
CONTINUOUS
 10
-29.695775
 20
-19.785048
 11
-29.87255
 21
-19.254715
  0
LINE
  8
ゴム等
  6
CONTINUOUS
 10
-29.695775
 20
-19.785048
 11
-32.877755
 21
-22.967028
  0
LINE
  8
ゴム等
  6
CONTINUOUS
 10
-34.115195
 20
-23.497353
 11
-33.40808
 21
-22.790245
  0
LINE
  8
ゴム等
  6
CONTINUOUS
 10
-29.87255
 20
-19.254715
 11
-28.07393
 21
-17.517797
  0
LINE
  8
ゴム等
  6
CONTINUOUS
 10
-20.39732
 20
-25.194408
 11
-28.07393
 21
-17.517797
  0
LINE
  8
ゴム等
  6
CONTINUOUS
 10
-33.11519
 20
-22.88788
 11
-33.11519
 21
-24.497358
  0
LINE
  8
ゴム等
  6
CONTINUOUS
 10
-32.115193
 20
-22.204465
 11
-32.115193
 21
-25.497355
  0
LINE
  8
ゴム等
  6
CONTINUOUS
 10
-31.115187
 20
-21.20446
 11
-31.115187
 21
-26.49736
  0
LINE
  8
ゴム等
  6
CONTINUOUS
 10
-30.11519
 20
-20.204463
 11
-30.11519
 21
-26.568422
  0
LINE
  8
ゴム等
  6
CONTINUOUS
 10
-29.115193
 20
-18.523337
 11
-29.115193
 21
-26.415775
  0
LINE
  8
ゴム等
  6
CONTINUOUS
 10
-28.115195
 20
-17.55766
 11
-28.115195
 21
-26.668923
  0
LINE
  8
ゴム等
  6
CONTINUOUS
 10
-27.115197
 20
-18.47653
 11
-27.115197
 21
-27.66892
  0
LINE
  8
ゴム等
  6
CONTINUOUS
 10
-21.11519
 20
-24.476537
 11
-21.11519
 21
-25.912277
  0
LINE
  8
ゴム等
  6
CONTINUOUS
 10
-22.115195
 20
-23.476533
 11
-22.115195
 21
-25.597855
  0
LINE
  8
ゴム等
  6
CONTINUOUS
 10
-23.115193
 20
-22.476535
 11
-23.115193
 21
-24.597858
  0
LINE
  8
ゴム等
  6
CONTINUOUS
 10
-23.115193
 20
-27.426288
 11
-23.115193
 21
-27.91228
  0
LINE
  8
ゴム等
  6
CONTINUOUS
 10
-24.115197
 20
-21.47653
 11
-24.115197
 21
-23.597853
  0
LINE
  8
ゴム等
  6
CONTINUOUS
 10
-24.115197
 20
-26.426282
 11
-24.115197
 21
-28.912277
  0
LINE
  8
ゴム等
  6
CONTINUOUS
 10
-25.115195
 20
-20.476533
 11
-25.115195
 21
-22.597855
  0
LINE
  8
ゴム等
  6
CONTINUOUS
 10
-25.115195
 20
-25.426285
 11
-25.115195
 21
-29.668923
  0
LINE
  8
ゴム等
  6
CONTINUOUS
 10
-26.1152
 20
-19.476527
 11
-26.1152
 21
-22.568433
  0
LINE
  8
ゴム等
  6
CONTINUOUS
 10
-26.1152
 20
-24.11086
 11
-26.1152
 21
-28.668925
  0
ENDBLK
  0
BLOCK
  2
*GRP_0032
 70
    65
 10
0.0
 20
0.0
  0
INSERT
  2
*GRP_0039
  8
ゴム等
  6
CONTINUOUS
 10
0.0
 20
0.0
  0
LINE
  8
ゴム等
  6
CONTINUOUS
 10
-49.251163
 20
2.576082
 11
-48.028955
 21
2.576082
  0
LINE
  8
ゴム等
  6
CONTINUOUS
 10
-51.185165
 20
1.576085
 11
-49.960992
 21
1.576085
  0
LINE
  8
ゴム等
  6
CONTINUOUS
 10
-52.185163
 20
0.57608
 11
-49.70324
 21
0.57608
  0
LINE
  8
ゴム等
  6
CONTINUOUS
 10
-53.18516
 20
-0.423917
 11
-50.748665
 21
-0.423917
  0
LINE
  8
ゴム等
  6
CONTINUOUS
 10
-54.185157
 20
-1.423923
 11
-51.861342
 21
-1.423923
  0
LINE
  8
ゴム等
  6
CONTINUOUS
 10
-55.185155
 20
-2.42392
 11
-52.006535
 21
-2.42392
  0
LINE
  8
ゴム等
  6
CONTINUOUS
 10
-56.185145
 20
-3.42391
 11
-51.006545
 21
-3.42391
  0
LINE
  8
ゴム等
  6
CONTINUOUS
 10
-57.18515
 20
-4.423915
 11
-53.225353
 21
-4.423915
  0
LINE
  8
ゴム等
  6
CONTINUOUS
 10
-52.834977
 20
-4.423915
 11
-50.006548
 21
-4.423915
  0
LINE
  8
ゴム等
  6
CONTINUOUS
 10
-58.18514
 20
-5.423913
 11
-54.22535
 21
-5.423913
  0
LINE
  8
ゴム等
  6
CONTINUOUS
 10
-51.834973
 20
-5.423913
 11
-49.08818
 21
-5.423913
  0
LINE
  8
ゴム等
  6
CONTINUOUS
 10
-59.185138
 20
-6.423917
 11
-55.225355
 21
-6.423917
  0
LINE
  8
ゴム等
  6
CONTINUOUS
 10
-50.83496
 20
-6.423917
 11
-49.114805
 21
-6.423917
  0
LINE
  8
ゴム等
  6
CONTINUOUS
 10
-60.185142
 20
-7.423915
 11
-54.431165
 21
-7.423915
  0
LINE
  8
ゴム等
  6
CONTINUOUS
 10
-61.18514
 20
-8.42392
 11
-52.346713
 21
-8.42392
  0
LINE
  8
ゴム等
  6
CONTINUOUS
 10
-70.609453
 20
-19.423923
 11
-70.06151
 21
-19.423923
  0
LINE
  8
ゴム等
  6
CONTINUOUS
 10
-70.161118
 20
-18.423917
 11
-69.613167
 21
-18.423917
  0
LINE
  8
ゴム等
  6
CONTINUOUS
 10
-67.681745
 20
-17.42392
 11
-68.472808
 21
-17.42392
  0
LINE
  8
ゴム等
  6
CONTINUOUS
 10
-68.873495
 20
-17.42392
 11
-69.712782
 21
-17.42392
  0
LINE
  8
ゴム等
  6
CONTINUOUS
 10
-66.783005
 20
-16.423915
 11
-69.18512
 21
-16.423915
  0
LINE
  8
ゴム等
  6
CONTINUOUS
 10
-65.884265
 20
-15.423917
 11
-68.185115
 21
-15.423917
  0
LINE
  8
ゴム等
  6
CONTINUOUS
 10
-65.1695
 20
-15.423917
 11
-62.34107
 21
-15.423917
  0
LINE
  8
ゴム等
  6
CONTINUOUS
 10
-64.169495
 20
-16.423915
 11
-61.136337
 21
-16.423915
  0
LINE
  8
ゴム等
  6
CONTINUOUS
 10
-63.169505
 20
-17.42392
 11
-60.046175
 21
-17.42392
  0
LINE
  8
ゴム等
  6
CONTINUOUS
 10
-62.185138
 20
-9.423917
 11
-58.225355
 21
-9.423917
  0
LINE
  8
ゴム等
  6
CONTINUOUS
 10
-55.9667
 20
-9.423917
 11
-52.297902
 21
-9.423917
  0
LINE
  8
ゴム等
  6
CONTINUOUS
 10
-63.185135
 20
-10.423923
 11
-58.80311
 21
-10.423923
  0
LINE
  8
ゴム等
  6
CONTINUOUS
 10
-55.09697
 20
-10.423923
 11
-52.2491
 21
-10.423923
  0
LINE
  8
ゴム等
  6
CONTINUOUS
 10
-64.185132
 20
-11.42392
 11
-58.209343
 21
-11.42392
  0
LINE
  8
ゴム等
  6
CONTINUOUS
 10
-55.275605
 20
-11.42392
 11
-53.154298
 21
-11.42392
  0
LINE
  8
ゴム等
  6
CONTINUOUS
 10
-54.154302
 20
-12.423925
 11
-56.422257
 21
-12.423925
  0
LINE
  8
ゴム等
  6
CONTINUOUS
 10
-65.18513
 20
-12.423925
 11
-61.22534
 21
-12.423925
  0
LINE
  8
ゴム等
  6
CONTINUOUS
 10
-60.744883
 20
-12.423925
 11
-57.06269
 21
-12.423925
  0
LINE
  8
ゴム等
  6
CONTINUOUS
 10
-66.185127
 20
-13.423915
 11
-62.22533
 21
-13.423915
  0
LINE
  8
ゴム等
  6
CONTINUOUS
 10
-59.744892
 20
-13.423915
 11
-55.154292
 21
-13.423915
  0
LINE
  8
ゴム等
  6
CONTINUOUS
 10
-67.185117
 20
-14.423913
 11
-63.225328
 21
-14.423913
  0
LINE
  8
ゴム等
  6
CONTINUOUS
 10
-59.658867
 20
-14.423913
 11
-56.15429
 21
-14.423913
  0
ENDBLK
  0
BLOCK
  2
*GRP_0033
 70
    65
 10
0.0
 20
0.0
  0
LINE
  8
ゴム等
  6
CONTINUOUS
 10
-36.943535
 20
-23.49739
 11
-30.579665
 21
-17.133385
  0
LINE
  8
ゴム等
  6
CONTINUOUS
 10
-44.262162
 20
-16.178935
 11
-36.943535
 21
-23.49739
  0
LINE
  8
ゴム等
  6
CONTINUOUS
 10
-30.579658
 20
-17.133385
 11
-41.327765
 21
-6.385435
  0
LINE
  8
ゴム等
  6
CONTINUOUS
 10
-41.327765
 20
-6.385435
 11
-44.15615
 21
-9.213903
  0
LINE
  8
ゴム等
  6
CONTINUOUS
 10
-44.15615
 20
-9.213903
 11
-40.726655
 21
-12.643345
  0
LINE
  8
ゴム等
  6
CONTINUOUS
 10
-44.262162
 20
-16.178935
 11
-40.726655
 21
-12.643345
  0
LINE
  8
ゴム等
  6
CONTINUOUS
 10
-40.579662
 20
-7.13353
 11
-40.579662
 21
-19.861345
  0
LINE
  8
ゴム等
  6
CONTINUOUS
 10
-37.579662
 20
-10.133485
 11
-37.579662
 21
-22.861277
  0
LINE
  8
ゴム等
  6
CONTINUOUS
 10
-39.579665
 20
-8.133512
 11
-39.579665
 21
-20.86132
  0
LINE
  8
ゴム等
  6
CONTINUOUS
 10
-38.579667
 20
-9.133495
 11
-38.579667
 21
-21.861295
  0
LINE
  8
ゴム等
  6
CONTINUOUS
 10
-36.579665
 20
-11.133468
 11
-36.579665
 21
-23.133512
  0
LINE
  8
ゴム等
  6
CONTINUOUS
 10
-35.579667
 20
-12.13345
 11
-35.579667
 21
-22.133493
  0
LINE
  8
ゴム等
  6
CONTINUOUS
 10
-34.579662
 20
-13.13344
 11
-34.579662
 21
-21.133465
  0
LINE
  8
ゴム等
  6
CONTINUOUS
 10
-33.579665
 20
-14.133422
 11
-33.579665
 21
-20.133445
  0
LINE
  8
ゴム等
  6
CONTINUOUS
 10
-32.579667
 20
-15.133405
 11
-32.579667
 21
-19.133432
  0
LINE
  8
ゴム等
  6
CONTINUOUS
 10
-31.579662
 20
-16.133395
 11
-31.579662
 21
-18.133405
  0
LINE
  8
ゴム等
  6
CONTINUOUS
 10
-41.579667
 20
-6.637345
 11
-41.579667
 21
-11.790348
  0
LINE
  8
ゴム等
  6
CONTINUOUS
 10
-41.579667
 20
-13.49638
 11
-41.579667
 21
-18.86137
  0
LINE
  8
ゴム等
  6
CONTINUOUS
 10
-42.579665
 20
-7.637373
 11
-42.579665
 21
-10.790365
  0
LINE
  8
ゴム等
  6
CONTINUOUS
 10
-42.579665
 20
-14.4964
 11
-42.579665
 21
-17.861395
  0
LINE
  8
ゴム等
  6
CONTINUOUS
 10
-43.579662
 20
-8.6374
 11
-43.579662
 21
-9.790383
  0
LINE
  8
ゴム等
  6
CONTINUOUS
 10
-43.579662
 20
-15.49642
 11
-43.579662
 21
-16.86142
  0
ENDBLK
  0
BLOCK
  2
*GRP_0034
 70
    65
 10
0.0
 20
0.0
  0
LINE
  8
ゴム等
  6
CONTINUOUS
 10
-22.588872
 20
-9.566147
 11
-17.639127
 21
-4.616403
  0
ARC
  8
ゴム等
  6
CONTINUOUS
 10
-22.942434
 20
-9.212589
 40
0.5
 50
225.0
 51
315.0
  0
ARC
  8
ゴム等
  6
CONTINUOUS
 10
-17.992686
 20
-4.262841
 40
0.5
 50
315.0
 51
405.0
  0
LINE
  8
ゴム等
  6
CONTINUOUS
 10
-23.29598
 20
-9.566147
 11
-24.710195
 21
-10.980355
  0
LINE
  8
ゴム等
  6
CONTINUOUS
 10
-17.639127
 20
-3.909295
 11
-16.224913
 21
-2.495072
  0
LINE
  8
ゴム等
  6
CONTINUOUS
 10
-11.982275
 20
-6.737717
 11
-14.527858
 21
-9.2833
  0
LINE
  8
ゴム等
  6
CONTINUOUS
 10
-17.921968
 20
-12.67741
 11
-20.46755
 21
-15.223
  0
LINE
  8
ゴム等
  6
CONTINUOUS
 10
-17.356287
 20
-14.657312
 11
-16.649172
 21
-13.950205
  0
LINE
  8
ゴム等
  6
CONTINUOUS
 10
-13.255062
 20
-10.556095
 11
-12.547955
 21
-9.848988
  0
LINE
  8
ゴム等
  6
CONTINUOUS
 10
-17.921968
 20
-12.67741
 11
-16.649172
 21
-13.950205
  0
LINE
  8
ゴム等
  6
CONTINUOUS
 10
-14.527858
 20
-9.2833
 11
-13.255062
 21
-10.556095
  0
LINE
  8
ゴム等
  6
CONTINUOUS
 10
-24.710195
 20
-10.980355
 11
-20.46755
 21
-15.223
  0
LINE
  8
ゴム等
  6
CONTINUOUS
 10
-16.224913
 20
-2.495072
 11
-11.982275
 21
-6.737717
  0
LINE
  8
ゴム等
  6
CONTINUOUS
 10
-17.00273
 20
-15.01087
 11
-13.75004
 21
-14.86945
  0
LINE
  8
ゴム等
  6
CONTINUOUS
 10
-12.194405
 20
-10.202545
 11
-12.335825
 21
-13.455235
  0
LINE
  8
ゴム等
  6
CONTINUOUS
 10
-12.547955
 20
-9.848988
 11
-12.194405
 21
-10.202545
  0
LINE
  8
ゴム等
  6
CONTINUOUS
 10
-17.356287
 20
-14.657312
 11
-17.00273
 21
-15.01087
  0
LINE
  8
ゴム等
  6
CONTINUOUS
 10
-13.75004
 20
-14.86945
 11
-12.335825
 21
-13.455235
  0
ARC
  8
ゴム等
  6
CONTINUOUS
 10
-15.517812
 20
-11.687462
 40
1.0
 50
45.0
 51
225.0
  0
ARC
  8
ゴム等
  6
CONTINUOUS
 10
-14.386442
 20
-12.818833
 40
1.0
 50
225.0
 51
405.0
  0
LINE
  8
ゴム等
  6
CONTINUOUS
 10
-16.224913
 20
-12.394578
 11
-15.093545
 21
-13.525945
  0
LINE
  8
ゴム等
  6
CONTINUOUS
 10
-14.810697
 20
-10.980362
 11
-13.67933
 21
-12.11173
  0
LINE
  8
ゴム等
  6
CONTINUOUS
 10
-23.880065
 20
-10.150225
 11
-23.880058
 21
-11.810492
  0
LINE
  8
ゴム等
  6
CONTINUOUS
 10
-21.880062
 20
-8.857337
 11
-21.880062
 21
-13.810487
  0
LINE
  8
ゴム等
  6
CONTINUOUS
 10
-19.88006
 20
-6.857335
 11
-19.88006
 21
-14.635495
  0
LINE
  8
ゴム等
  6
CONTINUOUS
 10
-17.880065
 20
-4.857333
 11
-17.880058
 21
-12.719327
  0
LINE
  8
ゴム等
  6
CONTINUOUS
 10
-13.88006
 20
-4.839933
 11
-13.88006
 21
-8.635495
  0
LINE
  8
ゴム等
  6
CONTINUOUS
 10
-13.88006
 20
-9.931098
 11
-13.88006
 21
-11.911
  0
LINE
  8
ゴム等
  6
CONTINUOUS
 10
-13.88006
 20
-13.68115
 11
-13.88006
 21
-14.875105
  0
LINE
  8
ゴム等
  6
CONTINUOUS
 10
-15.880055
 20
-2.83993
 11
-15.880055
 21
-10.755385
  0
LINE
  8
ゴム等
  6
CONTINUOUS
 10
-15.880062
 20
-12.739427
 11
-15.880062
 21
-14.962053
  0
ENDBLK
  0
BLOCK
  2
*GRP_0035
 70
    65
 10
0.0
 20
0.0
  0
LINE
  8
ゴム等
  6
CONTINUOUS
 10
-39.41849
 20
-1.223485
 11
-41.539805
 21
-3.344808
  0
LINE
  8
ゴム等
  6
CONTINUOUS
 10
-41.539805
 20
-3.344808
 11
-28.811885
 21
-16.072728
  0
LINE
  8
ゴム等
  6
CONTINUOUS
 10
-28.811885
 20
-16.072728
 11
-26.690563
 21
-13.951412
  0
LINE
  8
ゴム等
  6
CONTINUOUS
 10
-39.41849
 20
-1.223485
 11
-26.690563
 21
-13.951412
  0
LINE
  8
ゴム等
  6
CONTINUOUS
 10
-40.690565
 20
-4.194048
 11
-40.690565
 21
-2.495568
  0
LINE
  8
ゴム等
  6
CONTINUOUS
 10
-39.69056
 20
-5.194052
 11
-39.69056
 21
-1.495555
  0
LINE
  8
ゴム等
  6
CONTINUOUS
 10
-38.690563
 20
-6.19405
 11
-38.690563
 21
-1.951412
  0
LINE
  8
ゴム等
  6
CONTINUOUS
 10
-37.690565
 20
-7.194048
 11
-37.690565
 21
-2.95141
  0
LINE
  8
ゴム等
  6
CONTINUOUS
 10
-35.690563
 20
-9.19405
 11
-35.690563
 21
-4.951412
  0
LINE
  8
ゴム等
  6
CONTINUOUS
 10
-33.69056
 20
-11.194052
 11
-33.69056
 21
-6.951415
  0
LINE
  8
ゴム等
  6
CONTINUOUS
 10
-32.690563
 20
-12.19405
 11
-32.690563
 21
-7.951412
  0
LINE
  8
ゴム等
  6
CONTINUOUS
 10
-34.690565
 20
-10.194048
 11
-34.690565
 21
-5.95141
  0
LINE
  8
ゴム等
  6
CONTINUOUS
 10
-36.69056
 20
-8.194052
 11
-36.69056
 21
-3.951415
  0
LINE
  8
ゴム等
  6
CONTINUOUS
 10
-31.690565
 20
-13.194048
 11
-31.690565
 21
-8.95141
  0
LINE
  8
ゴム等
  6
CONTINUOUS
 10
-30.69056
 20
-14.194052
 11
-30.69056
 21
-9.951415
  0
LINE
  8
ゴム等
  6
CONTINUOUS
 10
-29.690563
 20
-15.19405
 11
-29.690563
 21
-10.951412
  0
LINE
  8
ゴム等
  6
CONTINUOUS
 10
-28.690565
 20
-15.951408
 11
-28.690565
 21
-11.95141
  0
LINE
  8
ゴム等
  6
CONTINUOUS
 10
-27.69056
 20
-14.95141
 11
-27.69056
 21
-12.951415
  0
ENDBLK
  0
BLOCK
  2
*GRP_0036
 70
    65
 10
0.0
 20
0.0
  0
LINE
  8
ボルト／ビス
  6
CONTINUOUS
 10
-33.19595
 20
-22.295268
 11
-30.36752
 21
-19.466838
  0
LINE
  8
ボルト／ビス
  6
CONTINUOUS
 10
-35.175845
 20
-21.72958
 11
-33.19595
 21
-22.295268
  0
LINE
  8
ボルト／ビス
  6
CONTINUOUS
 10
-35.175845
 20
-21.72958
 11
-30.933208
 21
-17.486942
  0
LINE
  8
ボルト／ビス
  6
CONTINUOUS
 10
-30.933208
 20
-17.486942
 11
-30.36752
 21
-19.466838
  0
LINE
  8
ボルト／ビス
  6
CONTINUOUS
 10
-34.10354
 20
-18.559248
 11
-23.97893
 21
-28.683857
  0
LINE
  8
ボルト／ビス
  6
CONTINUOUS
 10
-26.337013
 20
-29.154205
 11
-25.629905
 21
-29.154205
  0
LINE
  8
ボルト／ビス
  6
CONTINUOUS
 10
-23.508583
 20
-26.325775
 11
-23.508583
 21
-27.032882
  0
LINE
  8
ボルト／ビス
  6
CONTINUOUS
 10
-25.629905
 20
-29.154205
 11
-23.508583
 21
-27.032882
  0
LINE
  8
ボルト／ビス
  6
CONTINUOUS
 10
-26.337013
 20
-29.154205
 11
-23.508583
 21
-26.325775
  0
LINE
  8
ボルト／ビス
  6
CONTINUOUS
 10
-30.72107
 20
-19.820395
 11
-23.508583
 21
-27.032882
  0
LINE
  8
ボルト／ビス
  6
CONTINUOUS
 10
-32.842393
 20
-21.94171
 11
-25.629905
 21
-29.154205
  0
LINE
  8
ボルト／ビス
  6
CONTINUOUS
 10
-33.19595
 20
-22.295268
 11
-26.337013
 21
-29.154205
  0
LINE
  8
ボルト／ビス
  6
CONTINUOUS
 10
-30.36752
 20
-19.466838
 11
-23.508583
 21
-26.325775
  0
ENDBLK
  0
BLOCK
  2
*GRP_0037
 70
    65
 10
0.0
 20
0.0
  0
LINE
  8
ボルト／ビス
  6
CONTINUOUS
 62
    64
 10
-53.20703
 20
-19.25467
 11
-53.883357
 21
-18.44866
  0
ARC
  8
ボルト／ビス
  6
CONTINUOUS
 62
    64
 10
-52.581087
 20
-17.355919
 40
1.7
 50
135.0
 51
220.000011
  0
LINE
  8
ボルト／ビス
  6
CONTINUOUS
 62
    64
 10
-53.783165
 20
-16.15384
 11
-52.57064
 21
-14.941315
  0
LINE
  8
ボルト／ビス
  6
CONTINUOUS
 62
    64
 10
-48.257285
 20
-14.304918
 11
-49.063295
 21
-13.628597
  0
ARC
  8
ボルト／ビス
  6
CONTINUOUS
 62
    64
 10
-50.156041
 20
-14.930872
 40
1.7
 50
49.999989
 51
135.0
  0
LINE
  8
ボルト／ビス
  6
CONTINUOUS
 62
    64
 10
-51.358115
 20
-13.72879
 11
-52.57064
 21
-14.941315
  0
LINE
  8
ボルト／ビス
  6
CONTINUOUS
 62
    64
 10
-53.99315
 20
-16.908168
 11
-54.164383
 21
-16.736928
  0
LINE
  8
ボルト／ビス
  6
CONTINUOUS
 62
    64
 10
-52.333767
 20
-16.168135
 11
-51.83879
 21
-15.673157
  0
LINE
  8
ボルト／ビス
  6
CONTINUOUS
 62
    64
 10
-53.076282
 20
-15.991308
 11
-53.99315
 21
-16.908168
  0
LINE
  8
ボルト／ビス
  6
CONTINUOUS
 62
    64
 10
-52.333767
 20
-16.168135
 11
-52.510603
 21
-15.9913
  0
ARC
  8
ボルト／ビス
  6
CONTINUOUS
 62
    64
 10
-52.793451
 20
-16.274143
 40
0.4
 50
45.0
 51
135.0
  0
LINE
  8
ボルト／ビス
  6
CONTINUOUS
 62
    64
 10
-50.603787
 20
-13.518805
 11
-50.775028
 21
-13.347565
  0
LINE
  8
ボルト／ビス
  6
CONTINUOUS
 62
    64
 10
-51.34382
 20
-15.178187
 11
-51.83879
 21
-15.673157
  0
LINE
  8
ボルト／ビス
  6
CONTINUOUS
 62
    64
 10
-51.520647
 20
-14.435665
 11
-50.603787
 21
-13.518805
  0
LINE
  8
ボルト／ビス
  6
CONTINUOUS
 62
    64
 10
-51.34382
 20
-15.178187
 11
-51.520655
 21
-15.001353
  0
ARC
  8
ボルト／ビス
  6
CONTINUOUS
 62
    64
 10
-51.237816
 20
-14.718508
 40
0.4
 50
135.0
 51
225.0
  0
LINE
  8
ボルト／ビス
  6
CONTINUOUS
 62
    64
 10
-53.20703
 20
-19.25467
 11
-48.257285
 21
-14.304918
  0
LINE
  8
ボルト／ビス
  6
CONTINUOUS
 62
    64
 10
-46.84307
 20
-23.497315
 11
-46.13597
 21
-23.497307
  0
LINE
  8
ボルト／ビス
  6
CONTINUOUS
 62
    64
 10
-44.01464
 20
-20.668877
 11
-44.014647
 21
-21.375985
  0
LINE
  8
ボルト／ビス
  6
CONTINUOUS
 62
    64
 10
-51.792815
 20
-17.840455
 11
-46.13597
 21
-23.497307
  0
LINE
  8
ボルト／ビス
  6
CONTINUOUS
 62
    64
 10
-52.146372
 20
-18.194013
 11
-46.84307
 21
-23.497315
  0
LINE
  8
ボルト／ビス
  6
CONTINUOUS
 62
    64
 10
-49.6715
 20
-15.719132
 11
-44.014647
 21
-21.375985
  0
LINE
  8
ボルト／ビス
  6
CONTINUOUS
 62
    64
 10
-49.317943
 20
-15.365582
 11
-44.01464
 21
-20.668877
  0
LINE
  8
ボルト／ビス
  6
CONTINUOUS
 62
    64
 10
-46.84307
 20
-23.497315
 11
-44.01464
 21
-20.668877
  0
LINE
  8
ボルト／ビス
  6
CONTINUOUS
 62
    64
 10
-46.13597
 20
-23.497307
 11
-44.014647
 21
-21.375985
  0
LINE
  8
ボルト／ビス
  6
DASHDOT
 62
    64
 10
-54.691955
 20
-12.819992
 11
-42.95399
 21
-24.557965
  0
ENDBLK
  0
BLOCK
  2
*GRP_0038
 70
    65
 10
0.0
 20
0.0
  0
LINE
  8
別途部材
  6
DOT
 10
-61.580248
 20
-75.873632
 11
-71.580245
 21
-75.873632
  0
LINE
  8
別途部材
  6
DOT
 10
-71.580245
 20
-85.87363
 11
-71.580245
 21
-75.873632
  0
INSERT
  2
*HAT_0001
  8
別途部材
 10
0.0
 20
0.0
  0
LINE
  8
別途部材
  6
DOT
 10
-61.580248
 20
-85.87363
 11
-61.580248
 21
-75.873632
  0
LINE
  8
別途部材
  6
DOT
 10
-61.580248
 20
-85.87363
 11
-71.580245
 21
-85.87363
  0
ENDBLK
  0
BLOCK
  2
*GRP_0039
 70
    65
 10
0.0
 20
0.0
  0
LINE
  8
ゴム等
  6
CONTINUOUS
 10
-49.67141
 20
0.54425
 11
-52.464477
 21
-1.965985
  0
LINE
  8
ゴム等
  6
CONTINUOUS
 10
-53.030165
 20
-4.228727
 11
-55.328262
 21
-6.526825
  0
LINE
  8
ゴム等
  6
CONTINUOUS
 10
-50.944197
 20
1.817045
 11
-60.136572
 21
-7.375353
  0
LINE
  8
ゴム等
  6
CONTINUOUS
 10
-53.030165
 20
-4.228727
 11
-51.61595
 21
-5.642943
  0
LINE
  8
ゴム等
  6
CONTINUOUS
 10
-50.908835
 20
-6.35005
 11
-50.555285
 21
-6.7036
  0
LINE
  8
ゴム等
  6
CONTINUOUS
 10
-52.464477
 20
-1.965985
 11
-51.9695
 21
-2.460963
  0
LINE
  8
ゴム等
  6
CONTINUOUS
 10
-51.262385
 20
-3.168062
 11
-50.908835
 21
-3.521612
  0
LINE
  8
ゴム等
  6
CONTINUOUS
 10
-50.201735
 20
-4.228727
 11
-49.848185
 21
-4.582277
  0
LINE
  8
ゴム等
  6
CONTINUOUS
 10
-51.9695
 20
-2.460963
 11
-51.482607
 21
-2.391535
  0
LINE
  8
ゴム等
  6
CONTINUOUS
 10
-51.262385
 20
-3.168062
 11
-51.192972
 21
-2.68117
  0
ARC
  8
ゴム等
  6
CONTINUOUS
 10
-51.439181
 20
-2.637742
 40
0.25
 50
349.993887
 51
460.006107
  0
LINE
  8
ゴム等
  6
CONTINUOUS
 10
-50.908835
 20
-3.521612
 11
-50.42195
 21
-3.452193
  0
LINE
  8
ゴム等
  6
CONTINUOUS
 10
-50.201735
 20
-4.228727
 11
-50.132315
 21
-3.741842
  0
ARC
  8
ゴム等
  6
CONTINUOUS
 10
-50.37852
 20
-3.698402
 40
0.25
 50
349.993887
 51
460.006107
  0
LINE
  8
ゴム等
  6
CONTINUOUS
 10
-49.848185
 20
-4.582277
 11
-49.361293
 21
-4.51285
  0
ARC
  8
ゴム等
  6
CONTINUOUS
 10
-49.31786
 20
-4.759062
 40
0.25
 50
349.993887
 51
460.006107
  0
LINE
  8
ゴム等
  6
CONTINUOUS
 10
-49.07165
 20
-4.802492
 11
-49.14107
 21
-7.410715
  0
LINE
  8
ゴム等
  6
CONTINUOUS
 10
-51.61595
 20
-5.642943
 11
-51.68537
 21
-6.129828
  0
LINE
  8
ゴム等
  6
CONTINUOUS
 10
-50.908835
 20
-6.35005
 11
-51.395735
 21
-6.419463
  0
ARC
  8
ゴム等
  6
CONTINUOUS
 10
-51.43918
 20
-6.173275
 40
0.25
 50
169.993912
 51
280.006132
  0
LINE
  8
ゴム等
  6
CONTINUOUS
 10
-50.555285
 20
-6.7036
 11
-50.624705
 21
-7.190492
  0
ARC
  8
ゴム等
  6
CONTINUOUS
 10
-50.37852
 20
-7.233935
 40
0.25
 50
169.993912
 51
280.006132
  0
LINE
  8
ゴム等
  6
CONTINUOUS
 10
-50.33507
 20
-7.480127
 11
-49.14107
 21
-7.410715
  0
LINE
  8
ゴム等
  6
CONTINUOUS
 10
-53.56049
 20
-8.29459
 11
-53.20694
 21
-7.941032
  0
ARC
  8
ゴム等
  6
CONTINUOUS
 10
-52.853393
 20
-8.294596
 40
0.5
 50
225.000009
 51
225.000009
  0
ARC
  8
ゴム等
  6
CONTINUOUS
 10
-52.853393
 20
-8.294596
 40
0.5
 50
4.528473
 51
135.000009
  0
LINE
  8
ゴム等
  6
CONTINUOUS
 10
-52.24469
 20
-10.514312
 11
-52.354947
 21
-8.25511
  0
LINE
  8
ゴム等
  6
CONTINUOUS
 10
-54.621155
 20
-12.890777
 11
-52.24469
 21
-10.514312
  0
LINE
  8
ゴム等
  6
CONTINUOUS
 10
-55.328262
 20
-6.526825
 11
-53.56049
 21
-8.29459
  0
ARC
  8
ゴム等
  6
CONTINUOUS
 10
-57.096034
 20
-9.70881
 40
1.0
 50
45.000009
 51
135.000009
  0
LINE
  8
ゴム等
  6
CONTINUOUS
 10
-56.388928
 20
-9.001697
 11
-55.328262
 21
-10.062355
  0
ARC
  8
ゴム等
  6
CONTINUOUS
 10
-56.035373
 20
-10.76947
 40
1.0
 50
-44.999991
 51
45.000009
  0
LINE
  8
ゴム等
  6
CONTINUOUS
 10
-57.803135
 20
-9.001697
 11
-58.156693
 21
-9.355255
  0
LINE
  8
ゴム等
  6
CONTINUOUS
 10
-55.328262
 20
-11.47657
 11
-55.68182
 21
-11.830135
  0
LINE
  8
ゴム等
  6
CONTINUOUS
 10
-49.67141
 20
0.54425
 11
-50.237083
 21
1.109922
  0
LINE
  8
ゴム等
  6
CONTINUOUS
 10
-68.056182
 20
-17.840545
 11
-65.545947
 21
-15.047477
  0
LINE
  8
ゴム等
  6
CONTINUOUS
 10
-63.283205
 20
-14.48179
 11
-60.985107
 21
-12.183692
  0
LINE
  8
ゴム等
  6
CONTINUOUS
 10
-69.32897
 20
-16.56775
 11
-60.136572
 21
-7.375353
  0
LINE
  8
ゴム等
  6
CONTINUOUS
 10
-63.283205
 20
-14.48179
 11
-61.868998
 21
-15.89599
  0
LINE
  8
ゴム等
  6
CONTINUOUS
 10
-61.16189
 20
-16.603105
 11
-60.808332
 21
-16.956663
  0
LINE
  8
ゴム等
  6
CONTINUOUS
 10
-65.545947
 20
-15.047477
 11
-65.050978
 21
-15.54244
  0
LINE
  8
ゴム等
  6
CONTINUOUS
 10
-64.34387
 20
-16.249555
 11
-63.990312
 21
-16.60309
  0
LINE
  8
ゴム等
  6
CONTINUOUS
 10
-63.283205
 20
-17.31022
 11
-62.929655
 21
-17.66377
  0
LINE
  8
ゴム等
  6
CONTINUOUS
 10
-65.050978
 20
-15.54244
 11
-65.120398
 21
-16.029325
  0
LINE
  8
ゴム等
  6
CONTINUOUS
 10
-64.34387
 20
-16.249555
 11
-64.830747
 21
-16.318967
  0
ARC
  8
ゴム等
  6
CONTINUOUS
 10
-64.874207
 20
-16.072773
 40
0.25
 50
169.993912
 51
280.006132
  0
LINE
  8
ゴム等
  6
CONTINUOUS
 10
-63.990312
 20
-16.60309
 11
-64.059732
 21
-17.089975
  0
LINE
  8
ゴム等
  6
CONTINUOUS
 10
-63.283205
 20
-17.31022
 11
-63.770097
 21
-17.379625
  0
ARC
  8
ゴム等
  6
CONTINUOUS
 10
-63.813547
 20
-17.133433
 40
0.25
 50
169.993912
 51
280.006132
  0
LINE
  8
ゴム等
  6
CONTINUOUS
 10
-62.929655
 20
-17.66377
 11
-62.999068
 21
-18.150648
  0
ARC
  8
ゴム等
  6
CONTINUOUS
 10
-62.752887
 20
-18.194093
 40
0.25
 50
169.993912
 51
280.006132
  0
LINE
  8
ゴム等
  6
CONTINUOUS
 10
-62.709433
 20
-18.440283
 11
-60.101217
 21
-18.370863
  0
LINE
  8
ゴム等
  6
CONTINUOUS
 10
-61.868998
 20
-15.89599
 11
-61.382097
 21
-15.826577
  0
LINE
  8
ゴム等
  6
CONTINUOUS
 10
-61.16189
 20
-16.603105
 11
-61.092462
 21
-16.116205
  0
ARC
  8
ゴム等
  6
CONTINUOUS
 10
-61.338673
 20
-16.072772
 40
0.25
 50
349.993887
 51
460.006107
  0
LINE
  8
ゴム等
  6
CONTINUOUS
 10
-60.808332
 20
-16.956663
 11
-60.321447
 21
-16.887227
  0
ARC
  8
ゴム等
  6
CONTINUOUS
 10
-60.278013
 20
-17.133432
 40
0.25
 50
349.993887
 51
460.006107
  0
LINE
  8
ゴム等
  6
CONTINUOUS
 10
-60.031812
 20
-17.17687
 11
-60.101217
 21
-18.370863
  0
LINE
  8
ゴム等
  6
CONTINUOUS
 10
-59.217342
 20
-13.951458
 11
-59.5709
 21
-14.305015
  0
ARC
  8
ゴム等
  6
CONTINUOUS
 10
-59.217353
 20
-14.658558
 40
0.5
 50
45.000009
 51
45.000009
  0
ARC
  8
ゴム等
  6
CONTINUOUS
 10
-59.217353
 20
-14.658558
 40
0.5
 50
135.000009
 51
265.471546
  0
LINE
  8
ゴム等
  6
CONTINUOUS
 10
-56.997613
 20
-15.267257
 11
-59.25683
 21
-15.156992
  0
LINE
  8
ゴム等
  6
CONTINUOUS
 10
-54.621155
 20
-12.890777
 11
-56.997613
 21
-15.267257
  0
LINE
  8
ゴム等
  6
CONTINUOUS
 10
-60.985107
 20
-12.183692
 11
-59.217342
 21
-13.951458
  0
ARC
  8
ゴム等
  6
CONTINUOUS
 10
-57.80314
 20
-10.415917
 40
1.0
 50
135.000009
 51
225.000009
  0
LINE
  8
ゴム等
  6
CONTINUOUS
 10
-58.510243
 20
-11.12302
 11
-57.449585
 21
-12.183677
  0
ARC
  8
ゴム等
  6
CONTINUOUS
 10
-56.74248
 20
-11.476577
 40
1.0
 50
225.000009
 51
315.000009
  0
LINE
  8
ゴム等
  6
CONTINUOUS
 10
-58.510243
 20
-9.708805
 11
-58.156693
 21
-9.355255
  0
LINE
  8
ゴム等
  6
CONTINUOUS
 10
-56.03537
 20
-12.183685
 11
-55.68182
 21
-11.830135
  0
LINE
  8
ゴム等
  6
CONTINUOUS
 10
-68.056182
 20
-17.840545
 11
-68.62187
 21
-17.274857
  0
LINE
  8
ゴム等
  6
CONTINUOUS
 10
-50.944197
 20
1.817045
 11
-47.529785
 21
3.347825
  0
ARC
  8
ゴム等
  6
CONTINUOUS
 10
-47.427023
 20
3.118724
 40
0.25
 50
294.204813
 51
474.336845
  0
LINE
  8
ゴム等
  6
CONTINUOUS
 10
-47.32523
 20
2.891585
 11
-49.853097
 21
1.758252
  0
LINE
  8
ゴム等
  6
CONTINUOUS
 10
-69.328955
 20
-16.567772
 11
-70.859742
 21
-19.982185
  0
ARC
  8
ゴム等
  6
CONTINUOUS
 10
-70.630656
 20
-20.084963
 40
0.25
 50
155.663289
 51
335.795321
  0
LINE
  8
ゴム等
  6
CONTINUOUS
 10
-70.403503
 20
-20.18674
 11
-69.27017
 21
-17.658865
  0
LINE
  8
ゴム等
  6
CONTINUOUS
 10
-50.237083
 20
1.109922
 11
-49.853097
 21
1.758252
  0
LINE
  8
ゴム等
  6
CONTINUOUS
 10
-68.621855
 20
-17.274873
 11
-69.27017
 21
-17.658865
  0
ENDBLK
  0
BLOCK
  2
*GRP_0040
 70
    65
 10
0.0
 20
0.0
  0
LINE
  8
ゴム等
  6
CONTINUOUS
 10
-14.68484
 20
-70.023715
 11
-15.58484
 21
-71.473712
  0
LINE
  8
ゴム等
  6
CONTINUOUS
 10
-10.78484
 20
-71.473712
 11
-11.68484
 21
-70.023715
  0
LINE
  8
ゴム等
  6
CONTINUOUS
 10
-14.68484
 20
-70.023715
 11
-14.68484
 21
-65.573718
  0
LINE
  8
ゴム等
  6
CONTINUOUS
 10
-14.68484
 20
-65.573718
 11
-11.68484
 21
-65.573718
  0
LINE
  8
ゴム等
  6
CONTINUOUS
 10
-11.68484
 20
-70.023715
 11
-11.68484
 21
-65.573718
  0
LINE
  8
ゴム等
  6
CONTINUOUS
 10
-16.684843
 20
-65.573718
 11
-18.184843
 21
-65.573718
  0
LINE
  8
ゴム等
  6
CONTINUOUS
 10
-16.684843
 20
-65.573718
 11
-16.684843
 21
-71.473712
  0
LINE
  8
ゴム等
  6
CONTINUOUS
 10
-16.684843
 20
-71.473712
 11
-15.58484
 21
-71.473712
  0
LINE
  8
ゴム等
  6
CONTINUOUS
 10
-10.78484
 20
-71.473712
 11
-9.684837
 21
-71.473712
  0
LINE
  8
ゴム等
  6
CONTINUOUS
 10
-9.684837
 20
-71.473712
 11
-9.684837
 21
-76.473715
  0
LINE
  8
ゴム等
  6
CONTINUOUS
 10
-10.684843
 20
-76.473715
 11
-10.93484
 21
-75.973712
  0
LINE
  8
ゴム等
  6
CONTINUOUS
 10
-15.43484
 20
-75.973712
 11
-15.684837
 21
-76.473715
  0
LINE
  8
ゴム等
  6
CONTINUOUS
 10
-15.43484
 20
-75.973712
 11
-10.93484
 21
-75.973712
  0
LINE
  8
ゴム等
  6
CONTINUOUS
 10
-9.684837
 20
-76.473715
 11
-10.684843
 21
-76.473715
  0
LINE
  8
ゴム等
  6
CONTINUOUS
 10
-15.684837
 20
-76.473715
 11
-18.184843
 21
-76.43008
  0
LINE
  8
ゴム等
  6
CONTINUOUS
 10
-18.184843
 20
-65.573718
 11
-18.184843
 21
-76.43008
  0
LINE
  8
ゴム等
  6
CONTINUOUS
 10
-10.82291
 20
-76.197573
 11
-9.684837
 21
-75.0595
  0
LINE
  8
ゴム等
  6
CONTINUOUS
 10
-12.013265
 20
-75.973712
 11
-9.684837
 21
-73.645285
  0
LINE
  8
ゴム等
  6
CONTINUOUS
 10
-13.42748
 20
-75.973712
 11
-9.684837
 21
-72.23107
  0
LINE
  8
ゴム等
  6
CONTINUOUS
 10
-14.841695
 20
-75.973712
 11
-10.341695
 21
-71.473712
  0
LINE
  8
ゴム等
  6
CONTINUOUS
 10
-16.737537
 20
-76.45534
 11
-11.156743
 21
-70.874545
  0
LINE
  8
ゴム等
  6
CONTINUOUS
 10
-18.127475
 20
-76.431077
 11
-11.68484
 21
-69.988443
  0
LINE
  8
ゴム等
  6
CONTINUOUS
 10
-18.184843
 20
-75.07423
 11
-11.68484
 21
-68.574227
  0
LINE
  8
ゴム等
  6
CONTINUOUS
 10
-18.184843
 20
-66.58894
 11
-17.16962
 21
-65.573718
  0
LINE
  8
ゴム等
  6
CONTINUOUS
 10
-18.184843
 20
-68.003155
 11
-16.684843
 21
-66.503155
  0
LINE
  8
ゴム等
  6
CONTINUOUS
 10
-18.184843
 20
-69.41737
 11
-16.684843
 21
-67.91737
  0
LINE
  8
ゴム等
  6
CONTINUOUS
 10
-14.68484
 20
-65.917367
 11
-14.34119
 21
-65.573718
  0
LINE
  8
ゴム等
  6
CONTINUOUS
 10
-18.184843
 20
-70.831585
 11
-16.684843
 21
-69.331585
  0
LINE
  8
ゴム等
  6
CONTINUOUS
 10
-14.68484
 20
-67.331582
 11
-12.926975
 21
-65.573718
  0
LINE
  8
ゴム等
  6
CONTINUOUS
 10
-18.184843
 20
-72.2458
 11
-16.684843
 21
-70.7458
  0
LINE
  8
ゴム等
  6
CONTINUOUS
 10
-14.68484
 20
-68.745798
 11
-11.68484
 21
-65.745798
  0
LINE
  8
ゴム等
  6
CONTINUOUS
 10
-18.184843
 20
-73.660015
 11
-15.99854
 21
-71.473712
  0
LINE
  8
ゴム等
  6
CONTINUOUS
 10
-14.907875
 20
-70.383047
 11
-11.68484
 21
-67.160012
  0
ENDBLK
  0
BLOCK
  2
*GRP_0041
 70
    65
 10
0.0
 20
0.0
  0
LINE
  8
ボルト／ビス
  6
CONTINUOUS
 62
    64
 10
-16.684835
 20
-77.973715
 11
-16.593132
 21
-79.021878
  0
ARC
  8
ボルト／ビス
  6
CONTINUOUS
 62
    64
 10
-14.899606
 20
-78.873716
 40
1.7
 50
184.999989
 51
270.0
  0
LINE
  8
ボルト／ビス
  6
CONTINUOUS
 62
    64
 10
-14.899603
 20
-80.573718
 11
-13.184832
 21
-80.573718
  0
LINE
  8
ボルト／ビス
  6
CONTINUOUS
 62
    64
 10
-9.684837
 20
-77.973715
 11
-9.77654
 21
-79.021878
  0
ARC
  8
ボルト／ビス
  6
CONTINUOUS
 62
    64
 10
-11.470073
 20
-78.873716
 40
1.7
 50
270.0
 51
355.000011
  0
LINE
  8
ボルト／ビス
  6
CONTINUOUS
 62
    64
 10
-11.47007
 20
-80.573718
 11
-13.184832
 21
-80.573718
  0
LINE
  8
ボルト／ビス
  6
CONTINUOUS
 62
    64
 10
-15.581473
 20
-80.18881
 11
-15.581473
 21
-80.43097
  0
LINE
  8
ボルト／ビス
  6
CONTINUOUS
 62
    64
 10
-13.884837
 20
-79.538725
 11
-13.184832
 21
-79.538725
  0
LINE
  8
ボルト／ビス
  6
CONTINUOUS
 62
    64
 10
-14.284835
 20
-80.18881
 11
-15.581473
 21
-80.18881
  0
LINE
  8
ボルト／ビス
  6
CONTINUOUS
 62
    64
 10
-13.884837
 20
-79.538725
 11
-13.884837
 21
-79.788813
  0
ARC
  8
ボルト／ビス
  6
CONTINUOUS
 62
    64
 10
-14.284839
 20
-79.788811
 40
0.4
 50
270.0
 51
360.0
  0
LINE
  8
ボルト／ビス
  6
CONTINUOUS
 62
    64
 10
-10.788192
 20
-80.18881
 11
-10.788192
 21
-80.43097
  0
LINE
  8
ボルト／ビス
  6
CONTINUOUS
 62
    64
 10
-12.484835
 20
-79.538725
 11
-13.184832
 21
-79.538725
  0
LINE
  8
ボルト／ビス
  6
CONTINUOUS
 62
    64
 10
-12.084837
 20
-80.18881
 11
-10.788192
 21
-80.18881
  0
LINE
  8
ボルト／ビス
  6
CONTINUOUS
 62
    64
 10
-12.484835
 20
-79.538725
 11
-12.484835
 21
-79.788813
  0
ARC
  8
ボルト／ビス
  6
CONTINUOUS
 62
    64
 10
-12.084839
 20
-79.788811
 40
0.4
 50
180.0
 51
270.0
  0
LINE
  8
ボルト／ビス
  6
CONTINUOUS
 62
    64
 10
-16.684835
 20
-77.973715
 11
-9.684837
 21
-77.973715
  0
LINE
  8
ボルト／ビス
  6
CONTINUOUS
 62
    64
 10
-15.184835
 20
-66.47371
 11
-14.684832
 21
-65.973715
  0
LINE
  8
ボルト／ビス
  6
CONTINUOUS
 62
    64
 10
-11.184837
 20
-66.47371
 11
-11.684832
 21
-65.973715
  0
LINE
  8
ボルト／ビス
  6
CONTINUOUS
 62
    64
 10
-15.184835
 20
-66.47371
 11
-11.184837
 21
-66.47371
  0
LINE
  8
ボルト／ビス
  6
CONTINUOUS
 62
    64
 10
-14.684832
 20
-65.973715
 11
-11.684832
 21
-65.973715
  0
LINE
  8
ボルト／ビス
  6
CONTINUOUS
 62
    64
 10
-11.184837
 20
-77.973715
 11
-11.184837
 21
-66.47371
  0
LINE
  8
ボルト／ビス
  6
CONTINUOUS
 62
    64
 10
-15.184835
 20
-77.973715
 11
-15.184835
 21
-66.47371
  0
LINE
  8
ボルト／ビス
  6
CONTINUOUS
 62
    64
 10
-14.684832
 20
-77.973715
 11
-14.684832
 21
-65.973715
  0
LINE
  8
ボルト／ビス
  6
CONTINUOUS
 62
    64
 10
-11.684832
 20
-77.973715
 11
-11.684832
 21
-65.973715
  0
LINE
  8
ボルト／ビス
  6
DASHDOT
 62
    64
 10
-13.184832
 20
-83.573718
 11
-13.184832
 21
-62.973715
  0
ENDBLK
  0
BLOCK
  2
*GRP_0042
 70
    65
 10
0.0
 20
0.0
  0
POLYLINE
  8
ガラス
  6
CONTINUOUS
 66
     1
 70
     4
  0
VERTEX
  8
ガラス
 10
-77.525
 20
-87.175
 70
     8
  0
VERTEX
  8
ガラス
 10
-77.5
 20
-87.1
 70
     8
  0
VERTEX
  8
ガラス
 10
-77.45
 20
-87.0
 70
     8
  0
VERTEX
  8
ガラス
 10
-77.425
 20
-86.925
 70
     8
  0
VERTEX
  8
ガラス
 10
-77.375
 20
-86.825
 70
     8
  0
VERTEX
  8
ガラス
 10
-77.35
 20
-86.75
 70
     8
  0
VERTEX
  8
ガラス
 10
-77.3
 20
-86.675
 70
     8
  0
VERTEX
  8
ガラス
 10
-77.275
 20
-86.575
 70
     8
  0
VERTEX
  8
ガラス
 10
-77.225
 20
-86.5
 70
     8
  0
VERTEX
  8
ガラス
 10
-77.2
 20
-86.425
 70
     8
  0
VERTEX
  8
ガラス
 10
-77.15
 20
-86.35
 70
     8
  0
VERTEX
  8
ガラス
 10
-77.1
 20
-86.275
 70
     8
  0
VERTEX
  8
ガラス
 10
-77.05
 20
-86.2
 70
     8
  0
VERTEX
  8
ガラス
 10
-77.025
 20
-86.125
 70
     8
  0
VERTEX
  8
ガラス
 10
-76.975
 20
-86.05
 70
     8
  0
VERTEX
  8
ガラス
 10
-76.925
 20
-85.975
 70
     8
  0
VERTEX
  8
ガラス
 10
-76.875
 20
-85.9
 70
     8
  0
VERTEX
  8
ガラス
 10
-76.8
 20
-85.85
 70
     8
  0
VERTEX
  8
ガラス
 10
-76.75
 20
-85.775
 70
     8
  0
VERTEX
  8
ガラス
 10
-76.7
 20
-85.725
 70
     8
  0
VERTEX
  8
ガラス
 10
-76.625
 20
-85.675
 70
     8
  0
VERTEX
  8
ガラス
 10
-76.575
 20
-85.625
 70
     8
  0
VERTEX
  8
ガラス
 10
-76.5
 20
-85.575
 70
     8
  0
VERTEX
  8
ガラス
 10
-76.425
 20
-85.525
 70
     8
  0
VERTEX
  8
ガラス
 10
-76.375
 20
-85.475
 70
     8
  0
VERTEX
  8
ガラス
 10
-76.3
 20
-85.425
 70
     8
  0
VERTEX
  8
ガラス
 10
-76.225
 20
-85.4
 70
     8
  0
VERTEX
  8
ガラス
 10
-76.125
 20
-85.375
 70
     8
  0
VERTEX
  8
ガラス
 10
-76.05
 20
-85.325
 70
     8
  0
VERTEX
  8
ガラス
 10
-75.975
 20
-85.3
 70
     8
  0
VERTEX
  8
ガラス
 10
-75.9
 20
-85.275
 70
     8
  0
VERTEX
  8
ガラス
 10
-75.8
 20
-85.25
 70
     8
  0
VERTEX
  8
ガラス
 10
-75.725
 20
-85.225
 70
     8
  0
VERTEX
  8
ガラス
 10
-75.625
 20
-85.2
 70
     8
  0
VERTEX
  8
ガラス
 10
-75.55
 20
-85.175
 70
     8
  0
VERTEX
  8
ガラス
 10
-75.45
 20
-85.15
 70
     8
  0
VERTEX
  8
ガラス
 10
-75.375
 20
-85.125
 70
     8
  0
VERTEX
  8
ガラス
 10
-75.275
 20
-85.1
 70
     8
  0
VERTEX
  8
ガラス
 10
-75.175
 20
-85.1
 70
     8
  0
VERTEX
  8
ガラス
 10
-75.1
 20
-85.075
 70
     8
  0
VERTEX
  8
ガラス
 10
-75.0
 20
-85.05
 70
     8
  0
SEQEND
  0
POLYLINE
  8
ガラス
  6
CONTINUOUS
 66
     1
 70
     4
  0
VERTEX
  8
ガラス
 10
-75.0
 20
-85.05
 70
     8
  0
VERTEX
  8
ガラス
 10
-75.025
 20
-85.1
 70
     8
  0
VERTEX
  8
ガラス
 10
-75.05
 20
-85.175
 70
     8
  0
VERTEX
  8
ガラス
 10
-75.075
 20
-85.225
 70
     8
  0
VERTEX
  8
ガラス
 10
-75.1
 20
-85.275
 70
     8
  0
VERTEX
  8
ガラス
 10
-75.125
 20
-85.325
 70
     8
  0
VERTEX
  8
ガラス
 10
-75.15
 20
-85.4
 70
     8
  0
VERTEX
  8
ガラス
 10
-75.175
 20
-85.45
 70
     8
  0
VERTEX
  8
ガラス
 10
-75.2
 20
-85.5
 70
     8
  0
VERTEX
  8
ガラス
 10
-75.225
 20
-85.55
 70
     8
  0
VERTEX
  8
ガラス
 10
-75.25
 20
-85.625
 70
     8
  0
VERTEX
  8
ガラス
 10
-75.25
 20
-85.675
 70
     8
  0
VERTEX
  8
ガラス
 10
-75.275
 20
-85.725
 70
     8
  0
VERTEX
  8
ガラス
 10
-75.3
 20
-85.8
 70
     8
  0
VERTEX
  8
ガラス
 10
-75.325
 20
-85.85
 70
     8
  0
VERTEX
  8
ガラス
 10
-75.35
 20
-85.9
 70
     8
  0
VERTEX
  8
ガラス
 10
-75.375
 20
-85.975
 70
     8
  0
VERTEX
  8
ガラス
 10
-75.375
 20
-86.025
 70
     8
  0
VERTEX
  8
ガラス
 10
-75.4
 20
-86.075
 70
     8
  0
VERTEX
  8
ガラス
 10
-75.425
 20
-86.15
 70
     8
  0
VERTEX
  8
ガラス
 10
-75.425
 20
-86.2
 70
     8
  0
VERTEX
  8
ガラス
 10
-75.45
 20
-86.25
 70
     8
  0
VERTEX
  8
ガラス
 10
-75.475
 20
-86.325
 70
     8
  0
VERTEX
  8
ガラス
 10
-75.475
 20
-86.375
 70
     8
  0
VERTEX
  8
ガラス
 10
-75.5
 20
-86.425
 70
     8
  0
VERTEX
  8
ガラス
 10
-75.5
 20
-86.5
 70
     8
  0
VERTEX
  8
ガラス
 10
-75.525
 20
-86.55
 70
     8
  0
VERTEX
  8
ガラス
 10
-75.525
 20
-86.625
 70
     8
  0
VERTEX
  8
ガラス
 10
-75.525
 20
-86.675
 70
     8
  0
VERTEX
  8
ガラス
 10
-75.55
 20
-86.725
 70
     8
  0
VERTEX
  8
ガラス
 10
-75.55
 20
-86.8
 70
     8
  0
VERTEX
  8
ガラス
 10
-75.575
 20
-86.85
 70
     8
  0
VERTEX
  8
ガラス
 10
-75.575
 20
-86.925
 70
     8
  0
VERTEX
  8
ガラス
 10
-75.575
 20
-86.975
 70
     8
  0
VERTEX
  8
ガラス
 10
-75.6
 20
-87.05
 70
     8
  0
VERTEX
  8
ガラス
 10
-75.6
 20
-87.1
 70
     8
  0
VERTEX
  8
ガラス
 10
-75.6
 20
-87.175
 70
     8
  0
VERTEX
  8
ガラス
 10
-75.625
 20
-87.225
 70
     8
  0
VERTEX
  8
ガラス
 10
-75.625
 20
-87.275
 70
     8
  0
VERTEX
  8
ガラス
 10
-75.625
 20
-87.35
 70
     8
  0
VERTEX
  8
ガラス
 10
-75.625
 20
-87.4
 70
     8
  0
SEQEND
  0
ARC
  8
ガラス
  6
CONTINUOUS
 10
-76.57023
 20
-87.280699
 40
0.955135
 50
173.117443
 51
353.117443
  0
ENDBLK
  0
BLOCK
  2
*GRP_0043
 70
    65
 10
0.0
 20
0.0
  0
POLYLINE
  8
ガラス
  6
CONTINUOUS
 66
     1
 70
     4
  0
VERTEX
  8
ガラス
 10
-79.45
 20
-99.7
 70
     8
  0
VERTEX
  8
ガラス
 10
-79.4
 20
-99.6
 70
     8
  0
VERTEX
  8
ガラス
 10
-79.375
 20
-99.525
 70
     8
  0
VERTEX
  8
ガラス
 10
-79.35
 20
-99.45
 70
     8
  0
VERTEX
  8
ガラス
 10
-79.3
 20
-99.35
 70
     8
  0
VERTEX
  8
ガラス
 10
-79.275
 20
-99.275
 70
     8
  0
VERTEX
  8
ガラス
 10
-79.225
 20
-99.175
 70
     8
  0
VERTEX
  8
ガラス
 10
-79.2
 20
-99.1
 70
     8
  0
VERTEX
  8
ガラス
 10
-79.15
 20
-99.025
 70
     8
  0
VERTEX
  8
ガラス
 10
-79.1
 20
-98.95
 70
     8
  0
VERTEX
  8
ガラス
 10
-79.075
 20
-98.85
 70
     8
  0
VERTEX
  8
ガラス
 10
-79.025
 20
-98.775
 70
     8
  0
VERTEX
  8
ガラス
 10
-78.975
 20
-98.7
 70
     8
  0
VERTEX
  8
ガラス
 10
-78.925
 20
-98.625
 70
     8
  0
VERTEX
  8
ガラス
 10
-78.875
 20
-98.55
 70
     8
  0
VERTEX
  8
ガラス
 10
-78.825
 20
-98.5
 70
     8
  0
VERTEX
  8
ガラス
 10
-78.775
 20
-98.425
 70
     8
  0
VERTEX
  8
ガラス
 10
-78.725
 20
-98.35
 70
     8
  0
VERTEX
  8
ガラス
 10
-78.675
 20
-98.3
 70
     8
  0
VERTEX
  8
ガラス
 10
-78.625
 20
-98.25
 70
     8
  0
VERTEX
  8
ガラス
 10
-78.55
 20
-98.175
 70
     8
  0
VERTEX
  8
ガラス
 10
-78.5
 20
-98.125
 70
     8
  0
VERTEX
  8
ガラス
 10
-78.425
 20
-98.075
 70
     8
  0
VERTEX
  8
ガラス
 10
-78.35
 20
-98.025
 70
     8
  0
VERTEX
  8
ガラス
 10
-78.275
 20
-98.0
 70
     8
  0
VERTEX
  8
ガラス
 10
-78.2
 20
-97.95
 70
     8
  0
VERTEX
  8
ガラス
 10
-78.125
 20
-97.925
 70
     8
  0
VERTEX
  8
ガラス
 10
-78.05
 20
-97.875
 70
     8
  0
VERTEX
  8
ガラス
 10
-77.975
 20
-97.85
 70
     8
  0
VERTEX
  8
ガラス
 10
-77.9
 20
-97.825
 70
     8
  0
VERTEX
  8
ガラス
 10
-77.8
 20
-97.8
 70
     8
  0
VERTEX
  8
ガラス
 10
-77.725
 20
-97.75
 70
     8
  0
VERTEX
  8
ガラス
 10
-77.65
 20
-97.725
 70
     8
  0
VERTEX
  8
ガラス
 10
-77.55
 20
-97.7
 70
     8
  0
VERTEX
  8
ガラス
 10
-77.475
 20
-97.7
 70
     8
  0
VERTEX
  8
ガラス
 10
-77.375
 20
-97.675
 70
     8
  0
VERTEX
  8
ガラス
 10
-77.275
 20
-97.65
 70
     8
  0
VERTEX
  8
ガラス
 10
-77.2
 20
-97.625
 70
     8
  0
VERTEX
  8
ガラス
 10
-77.1
 20
-97.6
 70
     8
  0
VERTEX
  8
ガラス
 10
-77.025
 20
-97.575
 70
     8
  0
VERTEX
  8
ガラス
 10
-76.925
 20
-97.575
 70
     8
  0
SEQEND
  0
POLYLINE
  8
ガラス
  6
CONTINUOUS
 66
     1
 70
     4
  0
VERTEX
  8
ガラス
 10
-76.925
 20
-97.575
 70
     8
  0
VERTEX
  8
ガラス
 10
-76.95
 20
-97.625
 70
     8
  0
VERTEX
  8
ガラス
 10
-76.975
 20
-97.675
 70
     8
  0
VERTEX
  8
ガラス
 10
-77.0
 20
-97.725
 70
     8
  0
VERTEX
  8
ガラス
 10
-77.025
 20
-97.8
 70
     8
  0
VERTEX
  8
ガラス
 10
-77.05
 20
-97.85
 70
     8
  0
VERTEX
  8
ガラス
 10
-77.075
 20
-97.9
 70
     8
  0
VERTEX
  8
ガラス
 10
-77.1
 20
-97.975
 70
     8
  0
VERTEX
  8
ガラス
 10
-77.1
 20
-98.025
 70
     8
  0
VERTEX
  8
ガラス
 10
-77.125
 20
-98.075
 70
     8
  0
VERTEX
  8
ガラス
 10
-77.15
 20
-98.125
 70
     8
  0
VERTEX
  8
ガラス
 10
-77.175
 20
-98.2
 70
     8
  0
VERTEX
  8
ガラス
 10
-77.2
 20
-98.25
 70
     8
  0
VERTEX
  8
ガラス
 10
-77.225
 20
-98.3
 70
     8
  0
VERTEX
  8
ガラス
 10
-77.25
 20
-98.375
 70
     8
  0
VERTEX
  8
ガラス
 10
-77.25
 20
-98.425
 70
     8
  0
VERTEX
  8
ガラス
 10
-77.275
 20
-98.475
 70
     8
  0
VERTEX
  8
ガラス
 10
-77.3
 20
-98.55
 70
     8
  0
VERTEX
  8
ガラス
 10
-77.325
 20
-98.6
 70
     8
  0
VERTEX
  8
ガラス
 10
-77.325
 20
-98.65
 70
     8
  0
VERTEX
  8
ガラス
 10
-77.35
 20
-98.725
 70
     8
  0
VERTEX
  8
ガラス
 10
-77.375
 20
-98.775
 70
     8
  0
VERTEX
  8
ガラス
 10
-77.375
 20
-98.825
 70
     8
  0
VERTEX
  8
ガラス
 10
-77.4
 20
-98.9
 70
     8
  0
VERTEX
  8
ガラス
 10
-77.4
 20
-98.95
 70
     8
  0
VERTEX
  8
ガラス
 10
-77.425
 20
-99.025
 70
     8
  0
VERTEX
  8
ガラス
 10
-77.425
 20
-99.075
 70
     8
  0
VERTEX
  8
ガラス
 10
-77.45
 20
-99.125
 70
     8
  0
VERTEX
  8
ガラス
 10
-77.45
 20
-99.2
 70
     8
  0
VERTEX
  8
ガラス
 10
-77.475
 20
-99.25
 70
     8
  0
VERTEX
  8
ガラス
 10
-77.475
 20
-99.325
 70
     8
  0
VERTEX
  8
ガラス
 10
-77.475
 20
-99.375
 70
     8
  0
VERTEX
  8
ガラス
 10
-77.5
 20
-99.425
 70
     8
  0
VERTEX
  8
ガラス
 10
-77.5
 20
-99.5
 70
     8
  0
VERTEX
  8
ガラス
 10
-77.5
 20
-99.55
 70
     8
  0
VERTEX
  8
ガラス
 10
-77.525
 20
-99.625
 70
     8
  0
VERTEX
  8
ガラス
 10
-77.525
 20
-99.675
 70
     8
  0
VERTEX
  8
ガラス
 10
-77.525
 20
-99.75
 70
     8
  0
VERTEX
  8
ガラス
 10
-77.525
 20
-99.8
 70
     8
  0
VERTEX
  8
ガラス
 10
-77.55
 20
-99.875
 70
     8
  0
VERTEX
  8
ガラス
 10
-77.55
 20
-99.925
 70
     8
  0
SEQEND
  0
ARC
  8
ガラス
  6
CONTINUOUS
 10
-78.486745
 20
-99.79794
 40
0.955135
 50
173.117443
 51
353.117443
  0
ENDBLK
  0
BLOCK
  2
*GRP_0044
 70
    65
 10
0.0
 20
0.0
  0
POLYLINE
  8
ガラス
  6
CONTINUOUS
 66
     1
 70
     4
  0
VERTEX
  8
ガラス
 10
-64.175
 20
-83.65
 70
     8
  0
VERTEX
  8
ガラス
 10
-64.075
 20
-83.625
 70
     8
  0
VERTEX
  8
ガラス
 10
-64.0
 20
-83.625
 70
     8
  0
VERTEX
  8
ガラス
 10
-63.9
 20
-83.6
 70
     8
  0
VERTEX
  8
ガラス
 10
-63.8
 20
-83.6
 70
     8
  0
VERTEX
  8
ガラス
 10
-63.7
 20
-83.6
 70
     8
  0
VERTEX
  8
ガラス
 10
-63.625
 20
-83.575
 70
     8
  0
VERTEX
  8
ガラス
 10
-63.525
 20
-83.575
 70
     8
  0
VERTEX
  8
ガラス
 10
-63.425
 20
-83.575
 70
     8
  0
VERTEX
  8
ガラス
 10
-63.35
 20
-83.575
 70
     8
  0
VERTEX
  8
ガラス
 10
-63.25
 20
-83.575
 70
     8
  0
VERTEX
  8
ガラス
 10
-63.175
 20
-83.575
 70
     8
  0
VERTEX
  8
ガラス
 10
-63.075
 20
-83.575
 70
     8
  0
VERTEX
  8
ガラス
 10
-63.0
 20
-83.575
 70
     8
  0
VERTEX
  8
ガラス
 10
-62.9
 20
-83.575
 70
     8
  0
VERTEX
  8
ガラス
 10
-62.825
 20
-83.6
 70
     8
  0
VERTEX
  8
ガラス
 10
-62.75
 20
-83.6
 70
     8
  0
VERTEX
  8
ガラス
 10
-62.65
 20
-83.625
 70
     8
  0
VERTEX
  8
ガラス
 10
-62.575
 20
-83.65
 70
     8
  0
VERTEX
  8
ガラス
 10
-62.5
 20
-83.675
 70
     8
  0
VERTEX
  8
ガラス
 10
-62.425
 20
-83.7
 70
     8
  0
VERTEX
  8
ガラス
 10
-62.35
 20
-83.725
 70
     8
  0
VERTEX
  8
ガラス
 10
-62.275
 20
-83.75
 70
     8
  0
VERTEX
  8
ガラス
 10
-62.2
 20
-83.8
 70
     8
  0
VERTEX
  8
ガラス
 10
-62.125
 20
-83.825
 70
     8
  0
VERTEX
  8
ガラス
 10
-62.05
 20
-83.875
 70
     8
  0
VERTEX
  8
ガラス
 10
-61.975
 20
-83.925
 70
     8
  0
VERTEX
  8
ガラス
 10
-61.9
 20
-83.975
 70
     8
  0
VERTEX
  8
ガラス
 10
-61.85
 20
-84.025
 70
     8
  0
VERTEX
  8
ガラス
 10
-61.775
 20
-84.075
 70
     8
  0
VERTEX
  8
ガラス
 10
-61.7
 20
-84.15
 70
     8
  0
VERTEX
  8
ガラス
 10
-61.65
 20
-84.2
 70
     8
  0
VERTEX
  8
ガラス
 10
-61.575
 20
-84.275
 70
     8
  0
VERTEX
  8
ガラス
 10
-61.525
 20
-84.325
 70
     8
  0
VERTEX
  8
ガラス
 10
-61.45
 20
-84.4
 70
     8
  0
VERTEX
  8
ガラス
 10
-61.4
 20
-84.475
 70
     8
  0
VERTEX
  8
ガラス
 10
-61.325
 20
-84.525
 70
     8
  0
VERTEX
  8
ガラス
 10
-61.275
 20
-84.6
 70
     8
  0
VERTEX
  8
ガラス
 10
-61.2
 20
-84.675
 70
     8
  0
VERTEX
  8
ガラス
 10
-61.15
 20
-84.75
 70
     8
  0
VERTEX
  8
ガラス
 10
-61.075
 20
-84.8
 70
     8
  0
SEQEND
  0
POLYLINE
  8
ガラス
  6
CONTINUOUS
 66
     1
 70
     4
  0
VERTEX
  8
ガラス
 10
-61.075
 20
-84.8
 70
     8
  0
VERTEX
  8
ガラス
 10
-61.15
 20
-84.825
 70
     8
  0
VERTEX
  8
ガラス
 10
-61.2
 20
-84.825
 70
     8
  0
VERTEX
  8
ガラス
 10
-61.275
 20
-84.825
 70
     8
  0
VERTEX
  8
ガラス
 10
-61.325
 20
-84.85
 70
     8
  0
VERTEX
  8
ガラス
 10
-61.4
 20
-84.85
 70
     8
  0
VERTEX
  8
ガラス
 10
-61.45
 20
-84.85
 70
     8
  0
VERTEX
  8
ガラス
 10
-61.525
 20
-84.85
 70
     8
  0
VERTEX
  8
ガラス
 10
-61.575
 20
-84.875
 70
     8
  0
VERTEX
  8
ガラス
 10
-61.625
 20
-84.875
 70
     8
  0
VERTEX
  8
ガラス
 10
-61.7
 20
-84.875
 70
     8
  0
VERTEX
  8
ガラス
 10
-61.75
 20
-84.9
 70
     8
  0
VERTEX
  8
ガラス
 10
-61.825
 20
-84.9
 70
     8
  0
VERTEX
  8
ガラス
 10
-61.875
 20
-84.925
 70
     8
  0
VERTEX
  8
ガラス
 10
-61.95
 20
-84.925
 70
     8
  0
VERTEX
  8
ガラス
 10
-62.0
 20
-84.925
 70
     8
  0
VERTEX
  8
ガラス
 10
-62.05
 20
-84.95
 70
     8
  0
VERTEX
  8
ガラス
 10
-62.125
 20
-84.95
 70
     8
  0
VERTEX
  8
ガラス
 10
-62.175
 20
-84.975
 70
     8
  0
VERTEX
  8
ガラス
 10
-62.225
 20
-84.975
 70
     8
  0
VERTEX
  8
ガラス
 10
-62.3
 20
-85.0
 70
     8
  0
VERTEX
  8
ガラス
 10
-62.35
 20
-85.025
 70
     8
  0
VERTEX
  8
ガラス
 10
-62.425
 20
-85.025
 70
     8
  0
VERTEX
  8
ガラス
 10
-62.475
 20
-85.05
 70
     8
  0
VERTEX
  8
ガラス
 10
-62.525
 20
-85.075
 70
     8
  0
VERTEX
  8
ガラス
 10
-62.6
 20
-85.075
 70
     8
  0
VERTEX
  8
ガラス
 10
-62.65
 20
-85.1
 70
     8
  0
VERTEX
  8
ガラス
 10
-62.7
 20
-85.125
 70
     8
  0
VERTEX
  8
ガラス
 10
-62.775
 20
-85.15
 70
     8
  0
VERTEX
  8
ガラス
 10
-62.825
 20
-85.15
 70
     8
  0
VERTEX
  8
ガラス
 10
-62.875
 20
-85.175
 70
     8
  0
VERTEX
  8
ガラス
 10
-62.925
 20
-85.2
 70
     8
  0
VERTEX
  8
ガラス
 10
-63.0
 20
-85.225
 70
     8
  0
VERTEX
  8
ガラス
 10
-63.05
 20
-85.25
 70
     8
  0
VERTEX
  8
ガラス
 10
-63.1
 20
-85.275
 70
     8
  0
VERTEX
  8
ガラス
 10
-63.175
 20
-85.3
 70
     8
  0
VERTEX
  8
ガラス
 10
-63.225
 20
-85.325
 70
     8
  0
VERTEX
  8
ガラス
 10
-63.275
 20
-85.35
 70
     8
  0
VERTEX
  8
ガラス
 10
-63.325
 20
-85.375
 70
     8
  0
VERTEX
  8
ガラス
 10
-63.4
 20
-85.375
 70
     8
  0
VERTEX
  8
ガラス
 10
-63.45
 20
-85.4
 70
     8
  0
SEQEND
  0
ARC
  8
ガラス
  6
CONTINUOUS
 10
-63.799329
 20
-84.514335
 40
0.955135
 50
112.264588
 51
292.264588
  0
ENDBLK
  0
BLOCK
  2
*GRP_0045
 70
    65
 10
0.0
 20
0.0
  0
LINE
  8
ボルト／ビス
  6
CONTINUOUS
 62
    64
 10
-39.34727
 20
-35.941382
 11
-38.54126
 21
-35.265063
  0
ARC
  8
ボルト／ビス
  6
CONTINUOUS
 62
    64
 10
-37.448514
 20
-36.567335
 40
1.7
 50
45.0
 51
130.000011
  0
LINE
  8
ボルト／ビス
  6
CONTINUOUS
 62
    64
 10
-36.24644
 20
-35.365247
 11
-35.033915
 21
-36.577772
  0
LINE
  8
ボルト／ビス
  6
CONTINUOUS
 62
    64
 10
-34.397517
 20
-40.891128
 11
-33.721198
 21
-40.085125
  0
ARC
  8
ボルト／ビス
  6
CONTINUOUS
 62
    64
 10
-35.023468
 20
-38.992381
 40
1.7
 50
319.999989
 51
405.0
  0
LINE
  8
ボルト／ビス
  6
CONTINUOUS
 62
    64
 10
-33.82139
 20
-37.790297
 11
-35.033915
 21
-36.577772
  0
LINE
  8
ボルト／ビス
  6
CONTINUOUS
 62
    64
 10
-37.000767
 20
-35.155263
 11
-36.829535
 21
-34.98403
  0
LINE
  8
ボルト／ビス
  6
CONTINUOUS
 62
    64
 10
-36.260735
 20
-36.814653
 11
-35.765765
 21
-37.309623
  0
LINE
  8
ボルト／ビス
  6
CONTINUOUS
 62
    64
 10
-36.083907
 20
-36.07213
 11
-37.000767
 21
-35.155263
  0
LINE
  8
ボルト／ビス
  6
CONTINUOUS
 62
    64
 10
-36.260735
 20
-36.814653
 11
-36.0839
 21
-36.637817
  0
ARC
  8
ボルト／ビス
  6
CONTINUOUS
 62
    64
 10
-36.366739
 20
-36.354971
 40
0.4
 50
315.0
 51
405.0
  0
LINE
  8
ボルト／ビス
  6
CONTINUOUS
 62
    64
 10
-33.611405
 20
-38.544625
 11
-33.440172
 21
-38.373393
  0
LINE
  8
ボルト／ビス
  6
CONTINUOUS
 62
    64
 10
-35.270795
 20
-37.8046
 11
-35.765765
 21
-37.309623
  0
LINE
  8
ボルト／ビス
  6
CONTINUOUS
 62
    64
 10
-34.528265
 20
-37.627765
 11
-33.611405
 21
-38.544625
  0
LINE
  8
ボルト／ビス
  6
CONTINUOUS
 62
    64
 10
-35.270795
 20
-37.8046
 11
-35.093952
 21
-37.627758
  0
ARC
  8
ボルト／ビス
  6
CONTINUOUS
 62
    64
 10
-34.811104
 20
-37.910605
 40
0.4
 50
45.0
 51
135.0
  0
LINE
  8
ボルト／ビス
  6
CONTINUOUS
 62
    64
 10
-39.34727
 20
-35.941382
 11
-34.397517
 21
-40.891128
  0
LINE
  8
ボルト／ビス
  6
CONTINUOUS
 62
    64
 10
-49.246767
 20
-47.962195
 11
-49.24676
 21
-48.669302
  0
LINE
  8
ボルト／ビス
  6
CONTINUOUS
 62
    64
 10
-46.418337
 20
-50.790625
 11
-47.125438
 21
-50.790625
  0
LINE
  8
ボルト／ビス
  6
CONTINUOUS
 62
    64
 10
-49.246767
 20
-47.962195
 11
-46.418337
 21
-50.790625
  0
LINE
  8
ボルト／ビス
  6
CONTINUOUS
 62
    64
 10
-49.24676
 20
-48.669302
 11
-47.125438
 21
-50.790625
  0
LINE
  8
ボルト／ビス
  6
CONTINUOUS
 62
    64
 10
-35.458175
 20
-39.83047
 11
-46.418337
 21
-50.790625
  0
LINE
  8
ボルト／ビス
  6
CONTINUOUS
 62
    64
 10
-38.286612
 20
-37.00204
 11
-49.246767
 21
-47.962195
  0
LINE
  8
ボルト／ビス
  6
CONTINUOUS
 62
    64
 10
-37.933055
 20
-37.355598
 11
-49.24676
 21
-48.669302
  0
LINE
  8
ボルト／ビス
  6
CONTINUOUS
 62
    64
 10
-35.811733
 20
-39.476912
 11
-47.125438
 21
-50.790625
  0
LINE
  8
ボルト／ビス
  6
DASHDOT
 62
    64
 10
-32.912593
 20
-34.456458
 11
-50.307417
 21
-51.851282
  0
ENDBLK
  0
BLOCK
  2
*GRP_0046
 70
    65
 10
0.0
 20
0.0
  0
LINE
  8
ゴム等
  6
CONTINUOUS
 10
-45.28694
 20
-43.43671
 11
-43.872725
 21
-41.315395
  0
LINE
  8
ゴム等
  6
CONTINUOUS
 10
-39.771508
 20
-45.416612
 11
-41.89283
 21
-46.83082
  0
LINE
  8
ゴム等
  6
CONTINUOUS
 10
-34.751045
 20
-43.366
 11
-38.286582
 21
-46.901537
  0
LINE
  8
ゴム等
  6
CONTINUOUS
 10
-41.822113
 20
-36.294932
 11
-45.35765
 21
-39.83047
  0
LINE
  8
ゴム等
  6
CONTINUOUS
 10
-45.28694
 20
-43.43671
 11
-41.89283
 21
-46.83082
  0
LINE
  8
ゴム等
  6
CONTINUOUS
 10
-38.286582
 20
-46.901537
 11
-39.771508
 21
-45.416612
  0
LINE
  8
ゴム等
  6
CONTINUOUS
 10
-43.872725
 20
-41.315395
 11
-45.35765
 21
-39.83047
  0
LINE
  8
ゴム等
  6
CONTINUOUS
 10
-38.64014
 20
-40.18402
 11
-37.933025
 21
-40.18402
  0
LINE
  8
ゴム等
  6
CONTINUOUS
 10
-38.64014
 20
-40.18402
 11
-38.640132
 21
-39.476912
  0
LINE
  8
ゴム等
  6
CONTINUOUS
 10
-41.822113
 20
-36.294932
 11
-38.640132
 21
-39.476912
  0
LINE
  8
ゴム等
  6
CONTINUOUS
 10
-37.933025
 20
-40.18402
 11
-34.751045
 21
-43.366
  0
LINE
  8
ゴム等
  6
CONTINUOUS
 10
-35.75105
 20
-44.365997
 11
-35.75105
 21
-42.365995
  0
LINE
  8
ゴム等
  6
CONTINUOUS
 10
-36.751048
 20
-45.366003
 11
-36.751048
 21
-41.365997
  0
LINE
  8
ゴム等
  6
CONTINUOUS
 10
-37.751052
 20
-46.366
 11
-37.751052
 21
-40.365992
  0
LINE
  8
ゴム等
  6
CONTINUOUS
 10
-38.75105
 20
-46.437062
 11
-38.75105
 21
-39.365995
  0
LINE
  8
ゴム等
  6
CONTINUOUS
 10
-39.751055
 20
-45.402977
 11
-39.751055
 21
-38.36599
  0
LINE
  8
ゴム等
  6
CONTINUOUS
 10
-40.751045
 20
-46.06963
 11
-40.751045
 21
-37.366
  0
LINE
  8
ゴム等
  6
CONTINUOUS
 10
-41.751043
 20
-46.736297
 11
-41.751043
 21
-36.366003
  0
LINE
  8
ゴム等
  6
CONTINUOUS
 10
-42.751048
 20
-45.972602
 11
-42.751048
 21
-37.22386
  0
LINE
  8
ゴム等
  6
CONTINUOUS
 10
-43.751045
 20
-44.972605
 11
-43.751045
 21
-38.223865
  0
LINE
  8
ゴム等
  6
CONTINUOUS
 10
-44.75105
 20
-43.9726
 11
-44.75105
 21
-42.632867
  0
LINE
  8
ゴム等
  6
CONTINUOUS
 10
-44.75105
 20
-40.43707
 11
-44.75105
 21
-39.223862
  0
ENDBLK
  0
BLOCK
  2
*GRP_0047
 70
    65
 10
0.0
 20
0.0
  0
LINE
  8
ボルト／ビス
  6
CONTINUOUS
 10
-69.080255
 20
-38.873638
 11
-73.080253
 21
-38.873638
  0
LINE
  8
ボルト／ビス
  6
CONTINUOUS
 10
-69.080248
 20
-42.873635
 11
-73.080253
 21
-42.873635
  0
LINE
  8
ボルト／ビス
  6
CONTINUOUS
 10
-73.080253
 20
-37.873632
 11
-73.080253
 21
-43.873632
  0
LINE
  8
ボルト／ビス
  6
CONTINUOUS
 10
-68.08025
 20
-37.873632
 11
-68.08025
 21
-43.873632
  0
LINE
  8
ボルト／ビス
  6
CONTINUOUS
 10
-68.08025
 20
-37.873632
 11
-69.080255
 21
-37.873632
  0
LINE
  8
ボルト／ビス
  6
CONTINUOUS
 10
-68.08025
 20
-43.873632
 11
-69.080248
 21
-43.873632
  0
LINE
  8
ボルト／ビス
  6
CONTINUOUS
 10
-69.080255
 20
-37.873632
 11
-69.080248
 21
-43.873632
  0
LINE
  8
ボルト／ビス
  6
CONTINUOUS
 10
-68.08025
 20
-38.873638
 11
-68.08025
 21
-38.873638
  0
ARC
  8
ボルト／ビス
  6
CONTINUOUS
 10
-68.080254
 20
-39.373633
 40
0.5
 50
0.000036
 51
90.0
  0
LINE
  8
ボルト／ビス
  6
CONTINUOUS
 10
-67.580255
 20
-39.373632
 11
-67.580248
 21
-42.373632
  0
LINE
  8
ボルト／ビス
  6
CONTINUOUS
 10
-68.08025
 20
-42.873635
 11
-68.08025
 21
-42.873635
  0
ARC
  8
ボルト／ビス
  6
CONTINUOUS
 10
-68.080252
 20
-42.373633
 40
0.5
 50
-90.0
 51
0.000041
  0
LINE
  8
ボルト／ビス
  6
CONTINUOUS
 10
-73.080253
 20
-37.873632
 11
-73.580255
 21
-38.373635
  0
LINE
  8
ボルト／ビス
  6
CONTINUOUS
 10
-73.080253
 20
-43.873632
 11
-73.580248
 21
-43.373638
  0
LINE
  8
ボルト／ビス
  6
CONTINUOUS
 10
-73.580255
 20
-38.373635
 11
-73.580248
 21
-43.373638
  0
ENDBLK
  0
BLOCK
  2
*GRP_0048
 70
    65
 10
0.0
 20
0.0
  0
LINE
  8
ボルト／ビス
  6
CONTINUOUS
 10
-69.080255
 20
-68.873638
 11
-73.080253
 21
-68.873638
  0
LINE
  8
ボルト／ビス
  6
CONTINUOUS
 10
-69.080248
 20
-72.873635
 11
-73.080253
 21
-72.873635
  0
LINE
  8
ボルト／ビス
  6
CONTINUOUS
 10
-73.080253
 20
-67.873632
 11
-73.080253
 21
-73.873632
  0
LINE
  8
ボルト／ビス
  6
CONTINUOUS
 10
-68.08025
 20
-67.873632
 11
-68.08025
 21
-73.873632
  0
LINE
  8
ボルト／ビス
  6
CONTINUOUS
 10
-68.08025
 20
-67.873632
 11
-69.080255
 21
-67.873632
  0
LINE
  8
ボルト／ビス
  6
CONTINUOUS
 10
-68.08025
 20
-73.873632
 11
-69.080248
 21
-73.873632
  0
LINE
  8
ボルト／ビス
  6
CONTINUOUS
 10
-69.080255
 20
-67.873632
 11
-69.080248
 21
-73.873632
  0
LINE
  8
ボルト／ビス
  6
CONTINUOUS
 10
-68.08025
 20
-68.873638
 11
-68.08025
 21
-68.873638
  0
ARC
  8
ボルト／ビス
  6
CONTINUOUS
 10
-68.080254
 20
-69.373633
 40
0.5
 50
0.000036
 51
90.0
  0
LINE
  8
ボルト／ビス
  6
CONTINUOUS
 10
-67.580255
 20
-69.373632
 11
-67.580248
 21
-72.373632
  0
LINE
  8
ボルト／ビス
  6
CONTINUOUS
 10
-68.08025
 20
-72.873635
 11
-68.08025
 21
-72.873635
  0
ARC
  8
ボルト／ビス
  6
CONTINUOUS
 10
-68.080252
 20
-72.373633
 40
0.5
 50
-90.0
 51
0.000041
  0
LINE
  8
ボルト／ビス
  6
CONTINUOUS
 10
-73.080253
 20
-67.873632
 11
-73.580255
 21
-68.373635
  0
LINE
  8
ボルト／ビス
  6
CONTINUOUS
 10
-73.080253
 20
-73.873632
 11
-73.580248
 21
-73.373638
  0
LINE
  8
ボルト／ビス
  6
CONTINUOUS
 10
-73.580255
 20
-68.373635
 11
-73.580248
 21
-73.373638
  0
ENDBLK
  0
BLOCK
  2
*GRP_0049
 70
    65
 10
0.0
 20
0.0
  0
LINE
  8
曲げ物
  6
CONTINUOUS
 10
-71.580253
 20
-24.696985
 11
-69.580253
 21
-24.696985
  0
LINE
  8
曲げ物
  6
CONTINUOUS
 10
-69.580253
 20
-24.696985
 11
-69.580253
 21
-83.87363
  0
LINE
  8
曲げ物
  6
CONTINUOUS
 10
-69.580253
 20
-83.87363
 11
-22.334835
 21
-83.87363
  0
LINE
  8
曲げ物
  6
CONTINUOUS
 10
-22.334835
 20
-83.87363
 11
-22.334835
 21
-77.37363
  0
LINE
  8
曲げ物
  6
CONTINUOUS
 10
-22.334835
 20
-77.37363
 11
-20.334835
 21
-77.37363
  0
LINE
  8
曲げ物
  6
CONTINUOUS
 10
-20.334835
 20
-83.87363
 11
-20.334835
 21
-77.37363
  0
ARC
  8
曲げ物
  6
CONTINUOUS
 10
-22.334834
 20
-83.87363
 40
2.0
 50
-90.0
 51
0.0
  0
LINE
  8
曲げ物
  6
CONTINUOUS
 10
-71.580253
 20
-83.87363
 11
-71.580253
 21
-24.696985
  0
LINE
  8
曲げ物
  6
CONTINUOUS
 10
-69.580253
 20
-85.87363
 11
-22.334835
 21
-85.87363
  0
ARC
  8
曲げ物
  6
CONTINUOUS
 10
-69.580252
 20
-83.87363
 40
2.0
 50
180.0
 51
270.0
  0
ENDBLK
  0
BLOCK
  2
*GRP_0050
 70
    65
 10
0.0
 20
0.0
  0
LINE
  8
ボルト／ビス
  6
CONTINUOUS
 62
    64
 10
4.722962
 20
-77.229445
 11
4.63126
 21
-78.277607
  0
ARC
  8
ボルト／ビス
  6
CONTINUOUS
 62
    64
 10
2.937721
 20
-78.12946
 40
1.7
 50
270.0
 51
355.000011
  0
LINE
  8
ボルト／ビス
  6
CONTINUOUS
 62
    64
 10
2.93773
 20
-79.829447
 11
1.22296
 21
-79.829447
  0
LINE
  8
ボルト／ビス
  6
CONTINUOUS
 62
    64
 10
-2.277035
 20
-77.229445
 11
-2.185333
 21
-78.277607
  0
ARC
  8
ボルト／ビス
  6
CONTINUOUS
 62
    64
 10
-0.491813
 20
-78.12946
 40
1.7
 50
184.999989
 51
270.0
  0
LINE
  8
ボルト／ビス
  6
CONTINUOUS
 62
    64
 10
-0.491802
 20
-79.829447
 11
1.22296
 21
-79.829447
  0
LINE
  8
ボルト／ビス
  6
CONTINUOUS
 62
    64
 10
3.6196
 20
-79.44454
 11
3.6196
 21
-79.6867
  0
LINE
  8
ボルト／ビス
  6
CONTINUOUS
 62
    64
 10
1.922965
 20
-78.794455
 11
1.22296
 21
-78.794455
  0
LINE
  8
ボルト／ビス
  6
CONTINUOUS
 62
    64
 10
2.322962
 20
-79.44454
 11
3.6196
 21
-79.44454
  0
LINE
  8
ボルト／ビス
  6
CONTINUOUS
 62
    64
 10
1.922965
 20
-78.794455
 11
1.922965
 21
-79.044542
  0
ARC
  8
ボルト／ビス
  6
CONTINUOUS
 62
    64
 10
2.322954
 20
-79.044555
 40
0.4
 50
180.0
 51
270.0
  0
LINE
  8
ボルト／ビス
  6
CONTINUOUS
 62
    64
 10
-1.17368
 20
-79.44454
 11
-1.17368
 21
-79.6867
  0
LINE
  8
ボルト／ビス
  6
CONTINUOUS
 62
    64
 10
0.522962
 20
-78.794455
 11
1.22296
 21
-78.794455
  0
LINE
  8
ボルト／ビス
  6
CONTINUOUS
 62
    64
 10
0.122965
 20
-79.44454
 11
-1.17368
 21
-79.44454
  0
LINE
  8
ボルト／ビス
  6
CONTINUOUS
 62
    64
 10
0.522962
 20
-78.794455
 11
0.522962
 21
-79.044542
  0
ARC
  8
ボルト／ビス
  6
CONTINUOUS
 62
    64
 10
0.122954
 20
-79.044555
 40
0.4
 50
270.0
 51
360.0
  0
LINE
  8
ボルト／ビス
  6
CONTINUOUS
 62
    64
 10
4.722962
 20
-77.229445
 11
-2.277035
 21
-77.229445
  0
LINE
  8
ボルト／ビス
  6
CONTINUOUS
 62
    64
 10
3.222962
 20
-69.729445
 11
2.72296
 21
-69.229443
  0
LINE
  8
ボルト／ビス
  6
CONTINUOUS
 62
    64
 10
-0.777035
 20
-69.729445
 11
-0.27704
 21
-69.229443
  0
LINE
  8
ボルト／ビス
  6
CONTINUOUS
 62
    64
 10
2.72296
 20
-77.229445
 11
2.72296
 21
-69.229443
  0
LINE
  8
ボルト／ビス
  6
CONTINUOUS
 62
    64
 10
3.222962
 20
-77.229445
 11
3.222962
 21
-69.729445
  0
LINE
  8
ボルト／ビス
  6
CONTINUOUS
 62
    64
 10
-0.27704
 20
-77.229445
 11
-0.27704
 21
-69.229443
  0
LINE
  8
ボルト／ビス
  6
CONTINUOUS
 62
    64
 10
-0.777035
 20
-77.229445
 11
-0.777035
 21
-69.729445
  0
LINE
  8
ボルト／ビス
  6
CONTINUOUS
 62
    64
 10
3.222962
 20
-69.729445
 11
-0.777035
 21
-69.729445
  0
LINE
  8
ボルト／ビス
  6
CONTINUOUS
 62
    64
 10
2.72296
 20
-69.229443
 11
-0.27704
 21
-69.229443
  0
LINE
  8
ボルト／ビス
  6
CONTINUOUS
 62
    64
 10
1.22296
 20
-81.80083
 11
1.22296
 21
-66.978947
  0
ENDBLK
  0
BLOCK
  2
*GRP_0051
 70
    65
 10
0.0
 20
0.0
  0
LINE
  8
St
  6
CONTINUOUS
 10
5.222957
 20
-77.229445
 11
5.222957
 21
-75.629447
  0
LINE
  8
St
  6
CONTINUOUS
 10
-2.777045
 20
-75.629447
 11
5.222957
 21
-75.629447
  0
LINE
  8
St
  6
CONTINUOUS
 10
-2.777045
 20
-77.229445
 11
5.222957
 21
-77.229445
  0
ARC
  8
St
  6
CONTINUOUS
 10
-2.777045
 20
-75.629445
 40
1.6
 50
180.0
 51
270.0
  0
LINE
  8
St
  6
CONTINUOUS
 10
0.672317
 20
-75.629447
 11
2.272315
 21
-77.229445
  0
LINE
  8
St
  6
CONTINUOUS
 10
1.379418
 20
-75.629447
 11
2.979415
 21
-77.229445
  0
ARC
  8
St
  6
CONTINUOUS
 10
-4.377048
 20
-67.029447
 40
1.6
 50
0.0
 51
90.0
  0
LINE
  8
St
  6
CONTINUOUS
 10
-14.586492
 20
-65.429447
 11
-12.986495
 21
-67.029445
  0
LINE
  8
St
  6
CONTINUOUS
 10
-13.879392
 20
-65.429447
 11
-12.279395
 21
-67.029445
  0
LINE
  8
St
  6
CONTINUOUS
 10
-4.377042
 20
-67.029445
 11
-18.18482
 21
-67.029445
  0
LINE
  8
St
  6
CONTINUOUS
 10
-18.18482
 20
-67.029445
 11
-18.18482
 21
-65.429447
  0
LINE
  8
St
  6
CONTINUOUS
 10
-4.377042
 20
-65.429447
 11
-18.18482
 21
-65.429447
  0
LINE
  8
St
  6
CONTINUOUS
 10
-4.377042
 20
-67.029445
 11
-4.377042
 21
-75.629447
  0
LINE
  8
St
  6
CONTINUOUS
 10
-2.777045
 20
-67.029445
 11
-2.777045
 21
-75.629447
  0
ENDBLK
  0
BLOCK
  2
*DIM_0052
 70
    65
 10
0.0
 20
0.0
  0
LINE
  8
寸法
  6
CONTINUOUS
 10
-48.080255
 20
-102.373632
 11
-48.080255
 21
-113.80211
  0
LINE
  8
寸法
  6
CONTINUOUS
 10
-73.080253
 20
-88.37363
 11
-73.080253
 21
-113.80211
  0
LINE
  8
寸法
  6
CONTINUOUS
 10
-48.080255
 20
-113.80211
 11
-73.080253
 21
-113.80211
  0
POINT
  8
寸法
 10
-48.080255
 20
-113.80211
  0
POINT
  8
寸法
 10
-73.080253
 20
-113.80211
  0
TEXT
  7
TextStyle03
  8
寸法
  6
CONTINUOUS
 10
-62.19375
 20
-113.45
  1
25
 40
3.0
 72
     5
 11
-59.00625
 21
-113.45
  0
ENDBLK
  0
BLOCK
  2
*DIM_0053
 70
    65
 10
0.0
 20
0.0
  0
LINE
  8
寸法
  6
CONTINUOUS
 10
-49.080255
 20
-101.373632
 11
-115.67259
 21
-101.373632
  0
LINE
  8
寸法
  6
CONTINUOUS
 10
-74.080253
 20
-87.37363
 11
-115.67259
 21
-87.37363
  0
LINE
  8
寸法
  6
CONTINUOUS
 10
-115.67259
 20
-101.373632
 11
-115.67259
 21
-87.37363
  0
POINT
  8
寸法
 10
-115.67259
 20
-101.373632
  0
POINT
  8
寸法
 10
-115.67259
 20
-87.37363
  0
TEXT
  7
TextStyle03
  8
寸法
  6
CONTINUOUS
 10
-116.05
 20
-95.96875
  1
14
 40
3.0
 50
90.0
 72
     5
 11
-116.05
 21
-92.78125
  0
ENDBLK
  0
BLOCK
  2
*DIM_0054
 70
    65
 10
0.0
 20
0.0
  0
LINE
  8
寸法
  6
CONTINUOUS
 10
-74.080253
 20
-21.030077
 11
-115.67259
 21
-21.030077
  0
LINE
  8
寸法
  6
CONTINUOUS
 10
-115.67259
 20
-87.37363
 11
-115.67259
 21
-21.030077
  0
POINT
  8
寸法
 10
-115.67259
 20
-21.030077
  0
TEXT
  7
TextStyle03
  8
寸法
  6
CONTINUOUS
 10
-116.05
 20
-57.50625
  1
66.3
 40
3.0
 50
90.0
 72
     5
 11
-116.05
 21
-50.94375
  0
ENDBLK
  0
BLOCK
  2
*DIM_0055
 70
    65
 10
0.0
 20
0.0
  0
LINE
  8
寸法
  6
CONTINUOUS
 10
63.41974
 20
-33.42945
 11
63.41974
 21
84.473425
  0
LINE
  8
寸法
  6
CONTINUOUS
 10
-73.080253
 20
-20.030077
 11
-73.080253
 21
84.473425
  0
LINE
  8
寸法
  6
CONTINUOUS
 10
63.41974
 20
84.473425
 11
-73.080253
 21
84.473425
  0
POINT
  8
寸法
 10
63.41974
 20
84.473425
  0
POINT
  8
寸法
 10
-73.080253
 20
84.473425
  0
TEXT
  7
TextStyle03
  8
寸法
  6
CONTINUOUS
 10
-8.975
 20
84.825
  1
136.5
 40
3.0
 72
     5
 11
-0.725
 21
84.825
  0
ENDBLK
  0
BLOCK
  2
*DIM_0056
 70
    65
 10
0.0
 20
0.0
  0
LINE
  8
寸法
  6
CONTINUOUS
 10
5.919737
 20
77.605938
 11
-73.080253
 21
77.605938
  0
POINT
  8
寸法
 10
5.919737
 20
77.605938
  0
POINT
  8
寸法
 10
-73.080253
 20
77.605938
  0
TEXT
  7
TextStyle03
  8
寸法
  6
CONTINUOUS
 10
-35.19375
 20
77.975
  1
79
 40
3.0
 72
     5
 11
-32.00625
 21
77.975
  0
ENDBLK
  0
BLOCK
  2
*GRP_0057
 70
    65
 10
0.0
 20
0.0
  0
ARC
  8
St
  6
CONTINUOUS
 10
-27.180262
 20
-62.329447
 40
1.6
 50
180.0
 51
270.0
  0
LINE
  8
St
  6
CONTINUOUS
 10
-22.654415
 20
-63.929447
 11
-24.254413
 21
-62.32945
  0
LINE
  8
St
  6
CONTINUOUS
 10
-27.18026
 20
-59.403603
 11
-28.780257
 21
-57.803605
  0
LINE
  8
St
  6
CONTINUOUS
 10
-21.947315
 20
-63.929447
 11
-23.547313
 21
-62.32945
  0
LINE
  8
St
  6
CONTINUOUS
 10
-27.18026
 20
-58.696503
 11
-28.780257
 21
-57.096505
  0
LINE
  8
St
  6
CONTINUOUS
 10
-5.150405
 20
-63.929447
 11
-6.750403
 21
-62.32945
  0
LINE
  8
St
  6
CONTINUOUS
 10
-4.443305
 20
-63.929447
 11
-6.043303
 21
-62.32945
  0
LINE
  8
St
  6
CONTINUOUS
 10
-22.379975
 20
-41.035225
 11
-21.248607
 21
-42.166593
  0
LINE
  8
St
  6
CONTINUOUS
 10
-22.026418
 20
-40.681682
 11
-20.89505
 21
-41.81305
  0
LINE
  8
St
  6
CONTINUOUS
 10
-12.907835
 20
-31.563378
 11
-11.776468
 21
-32.694745
  0
LINE
  8
St
  6
CONTINUOUS
 10
-12.554285
 20
-31.209828
 11
-11.42291
 21
-32.341202
  0
LINE
  8
St
  6
CONTINUOUS
 10
-28.780257
 20
-62.32945
 11
-28.780257
 21
-47.43532
  0
LINE
  8
St
  6
CONTINUOUS
 10
-27.18026
 20
-62.32945
 11
-27.18026
 21
-48.098073
  0
LINE
  8
St
  6
CONTINUOUS
 10
-28.780257
 20
-47.43532
 11
-7.315377
 21
-25.971085
  0
LINE
  8
St
  6
CONTINUOUS
 10
-27.18026
 20
-48.098073
 11
-6.183995
 21
-27.102445
  0
LINE
  8
St
  6
CONTINUOUS
 10
-7.315377
 20
-25.971085
 11
-6.183995
 21
-27.102445
  0
LINE
  8
St
  6
CONTINUOUS
 10
-3.080255
 20
-63.929447
 11
-3.080255
 21
-62.32945
  0
LINE
  8
St
  6
CONTINUOUS
 10
-27.18026
 20
-63.929447
 11
-3.080255
 21
-63.929447
  0
LINE
  8
St
  6
CONTINUOUS
 10
-27.18026
 20
-62.32945
 11
-3.080255
 21
-62.32945
  0
ENDBLK
  0
BLOCK
  2
*GRP_0058
 70
    65
 10
0.0
 20
0.0
  0
ARC
  8
型材断面
  6
CONTINUOUS
 62
    47
 10
-170.272071
 20
68.49931
 40
0.3
 50
135.0
 51
225.0
  0
LINE
  8
型材断面
  6
CONTINUOUS
 62
    47
 10
-170.484207
 20
68.711422
 11
-169.847807
 21
69.347823
  0
LINE
  8
型材断面
  6
CONTINUOUS
 62
    47
 10
-168.928575
 20
68.852845
 11
-169.423555
 21
69.347823
  0
ARC
  8
型材断面
  6
CONTINUOUS
 62
    47
 10
-169.635675
 20
69.135706
 40
0.3
 50
45.0
 51
135.0
  0
LINE
  8
型材断面
  6
CONTINUOUS
 62
    47
 10
-169.140703
 20
66.943663
 11
-170.484207
 21
68.287157
  0
LINE
  8
型材断面
  6
CONTINUOUS
 62
    47
 10
-168.716443
 20
66.943657
 11
-168.009332
 21
67.650768
  0
ARC
  8
型材断面
  6
CONTINUOUS
 62
    47
 10
-168.928568
 20
67.155807
 40
0.3
 50
225.0
 51
315.0
  0
LINE
  8
型材断面
  6
CONTINUOUS
 62
    47
 10
-165.888012
 20
67.650768
 11
-166.948672
 21
68.711427
  0
LINE
  8
型材断面
  6
CONTINUOUS
 62
    47
 10
-166.241562
 20
67.297207
 11
-165.888012
 21
67.650768
  0
LINE
  8
型材断面
  6
CONTINUOUS
 62
    47
 10
-166.241562
 20
67.297207
 11
-168.009332
 21
67.650768
  0
LINE
  8
型材断面
  6
CONTINUOUS
 62
    47
 10
-153.018672
 20
60.721125
 11
-163.978825
 21
71.681275
  0
LINE
  8
型材断面
  6
CONTINUOUS
 62
    47
 10
-166.948672
 20
68.711427
 11
-163.978825
 21
71.681275
  0
LINE
  8
型材断面
  6
CONTINUOUS
 62
    47
 10
-155.281405
 20
58.45838
 11
-155.28141
 21
58.034113
  0
LINE
  8
型材断面
  6
CONTINUOUS
 62
    47
 10
-155.28141
 20
58.034113
 11
-155.705675
 21
58.034113
  0
LINE
  8
型材断面
  6
CONTINUOUS
 62
    47
 10
-155.281405
 20
58.45838
 11
-153.018672
 21
60.721125
  0
LINE
  8
型材断面
  6
CONTINUOUS
 62
    47
 10
-152.382277
 20
58.52909
 11
-152.205493
 21
57.998755
  0
LINE
  8
型材断面
  6
CONTINUOUS
 62
    47
 10
-155.24605
 20
54.958197
 11
-155.776385
 21
55.134982
  0
LINE
  8
型材断面
  6
CONTINUOUS
 62
    47
 10
-155.24605
 20
54.958197
 11
-152.205493
 21
57.998755
  0
LINE
  8
型材断面
  6
CONTINUOUS
 62
    47
 10
-157.756293
 20
55.983505
 11
-155.705675
 21
58.034113
  0
ARC
  8
型材断面
  6
CONTINUOUS
 62
    47
 10
-157.544149
 20
55.771387
 40
0.3
 50
135.0
 51
225.0
  0
LINE
  8
型材断面
  6
CONTINUOUS
 62
    47
 10
-156.76633
 20
54.56929
 11
-157.756287
 21
55.559235
  0
LINE
  8
型材断面
  6
CONTINUOUS
 62
    47
 10
-156.342077
 20
54.56929
 11
-155.776385
 21
55.134982
  0
ARC
  8
型材断面
  6
CONTINUOUS
 62
    47
 10
-156.5542
 20
54.781438
 40
0.3
 50
225.0
 51
315.0
  0
LINE
  8
型材断面
  6
CONTINUOUS
 62
    47
 10
-152.382277
 20
58.52909
 11
-150.543793
 21
60.367565
  0
LINE
  8
型材断面
  6
CONTINUOUS
 62
    47
 10
-151.250897
 20
61.78178
 11
-150.75593
 21
62.276757
  0
ARC
  8
型材断面
  6
CONTINUOUS
 62
    47
 10
-150.543792
 20
62.064638
 40
0.3
 50
45.0
 51
135.0
  0
LINE
  8
型材断面
  6
CONTINUOUS
 62
    47
 10
-149.34172
 20
61.2868
 11
-150.331665
 21
62.276757
  0
ARC
  8
型材断面
  6
CONTINUOUS
 62
    47
 10
-149.553842
 20
61.074688
 40
0.3
 50
315.0
 51
405.0
  0
LINE
  8
型材断面
  6
CONTINUOUS
 62
    47
 10
-150.402375
 20
60.226147
 11
-150.543793
 21
60.367565
  0
LINE
  8
型材断面
  6
CONTINUOUS
 62
    47
 10
-149.97811
 20
60.226147
 11
-149.341715
 21
60.862543
  0
ARC
  8
型材断面
  6
CONTINUOUS
 62
    47
 10
-150.190239
 20
60.438292
 40
0.3
 50
225.0
 51
315.0
  0
LINE
  8
型材断面
  6
CONTINUOUS
 62
    47
 10
-167.302228
 20
70.479192
 11
-167.302228
 21
70.054927
  0
LINE
  8
型材断面
  6
CONTINUOUS
 62
    47
 10
-167.302228
 20
70.054927
 11
-167.726487
 21
70.054935
  0
LINE
  8
型材断面
  6
CONTINUOUS
 62
    47
 10
-168.928575
 20
68.852845
 11
-167.726487
 21
70.054935
  0
LINE
  8
型材断面
  6
CONTINUOUS
 62
    47
 10
-167.302228
 20
70.479192
 11
-165.039485
 21
72.741937
  0
ARC
  8
型材断面
  6
CONTINUOUS
 62
    47
 10
-169.914783
 20
78.041516
 40
0.3
 50
134.0
 51
225.0
  0
LINE
  8
型材断面
  6
CONTINUOUS
 62
    47
 10
-169.140703
 20
76.843155
 11
-170.126915
 21
77.829368
  0
ARC
  8
型材断面
  6
CONTINUOUS
 62
    47
 10
-168.928568
 20
77.055302
 40
0.3
 50
225.0
 51
330.369338
  0
LINE
  8
型材断面
  6
CONTINUOUS
 62
    47
 10
-168.667807
 20
76.906963
 11
-167.77513
 21
78.476395
  0
ARC
  8
型材断面
  6
CONTINUOUS
 62
    47
 10
-167.514355
 20
78.328094
 40
0.3
 50
0.0
 51
150.369338
  0
LINE
  8
型材断面
  6
CONTINUOUS
 62
    47
 10
-167.214358
 20
74.91681
 11
-167.214358
 21
78.328073
  0
LINE
  8
型材断面
  6
CONTINUOUS
 62
    47
 10
-165.039485
 20
72.741937
 11
-167.214358
 21
74.91681
  0
LINE
  8
型材断面
  6
CONTINUOUS
 62
    47
 10
-151.250897
 20
61.78178
 11
-165.214355
 21
75.745238
  0
LINE
  8
型材断面
  6
CONTINUOUS
 62
    47
 10
-165.214355
 20
75.745238
 11
-165.21436
 21
80.217367
  0
ARC
  8
型材断面
  6
CONTINUOUS
 62
    47
 10
-160.663249
 20
83.639225
 40
0.3
 50
184.529049
 51
314.0
  0
LINE
  8
型材断面
  6
CONTINUOUS
 62
    47
 10
-161.07531
 20
86.994737
 11
-170.12318
 21
78.2573
  0
ARC
  8
型材断面
  6
CONTINUOUS
 62
    47
 10
-160.380643
 20
86.275414
 40
1.0
 50
120.465208
 51
134.0
  0
LINE
  8
型材断面
  6
CONTINUOUS
 62
    47
 10
-156.003057
 20
87.722452
 11
-160.454855
 21
83.4234
  0
ARC
  8
型材断面
  6
CONTINUOUS
 62
    47
 10
-156.697713
 20
88.441813
 40
1.0
 50
314.0
 51
480.465208
  0
LINE
  8
型材断面
  6
CONTINUOUS
 62
    47
 10
-157.204727
 20
89.30373
 11
-160.887658
 21
87.137333
  0
LINE
  8
型材断面
  6
CONTINUOUS
 62
    47
 10
-161.014418
 20
84.27321
 11
-165.21436
 21
80.217367
  0
LINE
  8
型材断面
  6
CONTINUOUS
 62
    47
 10
-160.962317
 20
83.615517
 11
-161.014418
 21
84.27321
  0
ENDBLK
  0
BLOCK
  2
*GRP_0059
 70
    65
 10
0.0
 20
0.0
  0
LINE
  8
型材断面
  6
CONTINUOUS
 10
-143.189397
 20
50.893525
 11
-148.068423
 21
55.77255
  0
LINE
  8
型材断面
  6
CONTINUOUS
 10
-148.068423
 20
55.77255
 11
-148.704835
 21
55.13616
  0
LINE
  8
型材断面
  6
CONTINUOUS
 10
-148.704835
 20
55.13616
 11
-148.563412
 21
53.580537
  0
LINE
  8
型材断面
  6
CONTINUOUS
 10
-150.82616
 20
51.31781
 11
-152.381762
 21
51.459232
  0
LINE
  8
型材断面
  6
CONTINUOUS
 10
-153.01818
 20
50.822827
 11
-152.381762
 21
51.459232
  0
LINE
  8
型材断面
  6
CONTINUOUS
 10
-148.563412
 20
53.580537
 11
-144.53292
 21
49.550035
  0
LINE
  8
型材断面
  6
CONTINUOUS
 10
-144.53292
 20
49.550035
 11
-146.795652
 21
47.287303
  0
LINE
  8
型材断面
  6
CONTINUOUS
 10
-150.82616
 20
51.31781
 11
-146.795652
 21
47.287303
  0
ARC
  8
型材断面
  6
CONTINUOUS
 10
-143.189662
 20
41.70136
 40
0.5
 50
225.000002
 51
315.000002
  0
LINE
  8
型材断面
  6
CONTINUOUS
 10
-142.836113
 20
41.347818
 11
-141.421893
 21
42.762038
  0
ARC
  8
型材断面
  6
CONTINUOUS
 10
-141.775446
 20
43.115575
 40
0.5
 50
315.000002
 51
405.000002
  0
LINE
  8
型材断面
  6
CONTINUOUS
 10
-141.421893
 20
43.469138
 11
-141.775447
 21
43.822703
  0
LINE
  8
型材断面
  6
CONTINUOUS
 10
-142.482553
 20
43.822697
 11
-143.189657
 21
43.115582
  0
ARC
  8
型材断面
  6
CONTINUOUS
 10
-142.128997
 20
43.469126
 40
0.5
 50
45.000002
 51
135.000002
  0
LINE
  8
型材断面
  6
CONTINUOUS
 10
-153.01818
 20
50.822827
 11
-143.54623
 21
41.350878
  0
LINE
  8
型材断面
  6
CONTINUOUS
 10
-143.189647
 20
43.115603
 11
-144.815995
 21
44.74194
  0
LINE
  8
型材断面
  6
CONTINUOUS
 10
-144.108863
 20
46.15616
 11
-144.603687
 21
46.650985
  0
LINE
  8
型材断面
  6
CONTINUOUS
 10
-144.815995
 20
44.74194
 11
-144.108872
 21
45.44905
  0
ARC
  8
型材断面
  6
CONTINUOUS
 10
-144.462414
 20
45.802591
 40
0.5
 50
314.99919
 51
405.0
  0
ARC
  8
型材断面
  6
CONTINUOUS
 10
-128.128141
 20
56.762536
 40
0.5
 50
225.0
 51
315.0
  0
LINE
  8
型材断面
  6
CONTINUOUS
 10
-127.774585
 20
56.409005
 11
-127.067433
 21
57.116158
  0
LINE
  8
型材断面
  6
CONTINUOUS
 10
-127.067433
 20
57.116158
 11
-127.067443
 21
58.530357
  0
LINE
  8
型材断面
  6
CONTINUOUS
 10
-128.481695
 20
57.823267
 11
-130.107982
 21
59.449525
  0
LINE
  8
型材断面
  6
CONTINUOUS
 10
-130.107982
 20
59.449525
 11
-130.461575
 21
59.095945
  0
LINE
  8
型材断面
  6
CONTINUOUS
 10
-131.663713
 20
59.59097
 11
-131.168675
 21
59.095945
  0
ARC
  8
型材断面
  6
CONTINUOUS
 10
-130.815125
 20
59.449488
 40
0.5
 50
225.00076
 51
314.999392
  0
LINE
  8
型材断面
  6
CONTINUOUS
 10
-131.663713
 20
59.59097
 11
-134.987105
 21
56.267577
  0
LINE
  8
型材断面
  6
CONTINUOUS
 10
-134.987105
 20
56.267577
 11
-134.987085
 21
54.570552
  0
LINE
  8
型材断面
  6
CONTINUOUS
 10
-144.603687
 20
46.650985
 11
-138.664048
 21
52.590635
  0
LINE
  8
型材断面
  6
CONTINUOUS
 10
-138.664048
 20
52.590635
 11
-136.967108
 21
52.590592
  0
LINE
  8
型材断面
  6
CONTINUOUS
 10
-134.987085
 20
54.570552
 11
-136.967108
 21
52.590592
  0
LINE
  8
型材断面
  6
CONTINUOUS
 10
-128.83527
 20
57.469693
 11
-128.481695
 21
57.823267
  0
LINE
  8
型材断面
  6
CONTINUOUS
 10
-128.83527
 20
56.762582
 11
-128.481695
 21
56.409005
  0
ARC
  8
型材断面
  6
CONTINUOUS
 10
-128.481714
 20
57.116129
 40
0.5
 50
135.0
 51
225.0
  0
LINE
  8
型材断面
  6
CONTINUOUS
 10
-131.028932
 20
65.603125
 11
-131.59284
 21
66.16703
  0
LINE
  8
型材断面
  6
CONTINUOUS
 10
-138.027515
 20
61.853687
 11
-137.178992
 21
61.853693
  0
LINE
  8
型材断面
  6
CONTINUOUS
 10
-137.178992
 20
61.853693
 11
-136.542605
 21
61.217285
  0
LINE
  8
型材断面
  6
CONTINUOUS
 10
-137.956822
 20
59.80307
 11
-136.542605
 21
61.217285
  0
LINE
  8
型材断面
  6
CONTINUOUS
 10
-138.027515
 20
61.853687
 11
-140.07812
 21
59.80307
  0
LINE
  8
型材断面
  6
CONTINUOUS
 10
-131.59284
 20
66.16703
 11
-133.00706
 21
64.752832
  0
LINE
  8
型材断面
  6
CONTINUOUS
 10
-133.00706
 20
64.752832
 11
-133.64345
 21
65.389213
  0
LINE
  8
型材断面
  6
CONTINUOUS
 10
-133.64345
 20
65.389213
 11
-133.64346
 21
66.23775
  0
LINE
  8
型材断面
  6
CONTINUOUS
 10
-133.64346
 20
66.23775
 11
-131.592845
 21
68.288367
  0
LINE
  8
型材断面
  6
CONTINUOUS
 10
-131.592845
 20
68.288367
 11
-129.612943
 21
66.308465
  0
LINE
  8
型材断面
  6
CONTINUOUS
 10
-129.612943
 20
66.308465
 11
-129.04062
 21
62.214105
  0
LINE
  8
型材断面
  6
CONTINUOUS
 10
-129.04062
 20
62.214105
 11
-129.895938
 21
61.358777
  0
LINE
  8
型材断面
  6
CONTINUOUS
 10
-127.067443
 20
58.530357
 11
-129.895938
 21
61.358777
  0
LINE
  8
型材断面
  6
CONTINUOUS
 10
-140.07812
 20
59.80307
 11
-137.17898
 21
56.90393
  0
LINE
  8
型材断面
  6
CONTINUOUS
 10
-143.189397
 20
50.893525
 11
-137.17898
 21
56.90393
  0
LINE
  8
型材断面
  6
CONTINUOUS
 10
-131.028932
 20
65.603125
 11
-130.629585
 21
62.746248
  0
LINE
  8
型材断面
  6
CONTINUOUS
 10
-130.629585
 20
62.746248
 11
-135.764713
 21
57.611045
  0
LINE
  8
型材断面
  6
CONTINUOUS
 10
-137.956822
 20
59.80307
 11
-135.764713
 21
57.611045
  0
ENDBLK
  0
BLOCK
  2
*GRP_0060
 70
    65
 10
0.0
 20
0.0
  0
ARC
  8
ゴム等
  6
CONTINUOUS
 10
-160.663247
 20
83.639227
 40
0.3
 50
184.529049
 51
314.0
  0
LINE
  8
ゴム等
  6
CONTINUOUS
 10
-156.003057
 20
87.722452
 11
-160.454855
 21
83.4234
  0
ARC
  8
ゴム等
  6
CONTINUOUS
 10
-156.697711
 20
88.441815
 40
1.0
 50
314.0
 51
480.465208
  0
LINE
  8
ゴム等
  6
CONTINUOUS
 10
-160.962317
 20
83.615517
 11
-161.014418
 21
84.27321
  0
LINE
  8
ゴム等
  6
CONTINUOUS
 10
-157.204727
 20
89.30373
 11
-160.991158
 21
87.07645
  0
LINE
  8
ゴム等
  6
CONTINUOUS
 10
-161.014418
 20
84.27321
 11
-163.38896
 21
81.980137
  0
LINE
  8
ゴム等
  6
CONTINUOUS
 10
-159.619982
 20
79.576105
 11
-158.912428
 21
80.28366
  0
LINE
  8
ゴム等
  6
CONTINUOUS
 10
-154.31333
 20
84.882735
 11
-153.60579
 21
85.590298
  0
LINE
  8
ゴム等
  6
CONTINUOUS
 10
-167.86851
 20
69.913378
 11
-168.575615
 21
70.620472
  0
LINE
  8
ゴム等
  6
CONTINUOUS
 10
-168.575615
 20
70.620472
 11
-167.302812
 21
71.893275
  0
LINE
  8
ゴム等
  6
CONTINUOUS
 10
-167.302812
 20
71.893275
 11
-172.959667
 21
77.550132
  0
LINE
  8
ゴム等
  6
CONTINUOUS
 10
-172.959667
 20
77.550132
 11
-161.528752
 21
88.981025
  0
ARC
  8
ゴム等
  6
CONTINUOUS
 10
-155.87189
 20
83.32418
 40
8.0
 50
84.71457
 51
134.999983
  0
LINE
  8
ゴム等
  6
CONTINUOUS
 10
-168.78773
 20
76.489473
 11
-168.22206
 21
77.33799
  0
LINE
  8
ゴム等
  6
CONTINUOUS
 10
-167.373515
 20
75.075255
 11
-167.368545
 21
76.990783
  0
ARC
  8
ゴム等
  6
CONTINUOUS
 10
-167.868496
 20
76.984433
 40
0.5
 50
0.726018
 51
134.999983
  0
LINE
  8
ゴム等
  6
CONTINUOUS
 10
-165.040063
 20
72.741803
 11
-167.373515
 21
75.075255
  0
LINE
  8
ゴム等
  6
CONTINUOUS
 10
-168.78773
 20
76.489473
 11
-170.343362
 21
78.045105
  0
LINE
  8
ゴム等
  6
CONTINUOUS
 10
-160.656005
 20
79.247183
 11
-159.98606
 21
79.917128
  0
LINE
  8
ゴム等
  6
CONTINUOUS
 10
-159.644607
 20
80.96569
 11
-155.045515
 21
85.564773
  0
LINE
  8
ゴム等
  6
CONTINUOUS
 10
-152.963598
 20
86.939588
 11
-153.971882
 21
85.931305
  0
LINE
  8
ゴム等
  6
CONTINUOUS
 10
-167.86851
 20
69.913378
 11
-165.040063
 21
72.741803
  0
LINE
  8
ゴム等
  6
CONTINUOUS
 10
-159.644607
 20
80.96569
 11
-158.912428
 21
80.28366
  0
LINE
  8
ゴム等
  6
CONTINUOUS
 10
-159.98606
 20
79.917128
 11
-159.619982
 21
79.576105
  0
LINE
  8
ゴム等
  6
CONTINUOUS
 10
-155.045515
 20
85.564773
 11
-154.31333
 21
84.882735
  0
LINE
  8
ゴム等
  6
CONTINUOUS
 10
-153.971882
 20
85.931305
 11
-153.60579
 21
85.590298
  0
POLYLINE
  8
ゴム等
  6
CONTINUOUS
 66
     1
 70
     4
  0
VERTEX
  8
ゴム等
 10
-152.875
 20
87.025
 70
     8
  0
VERTEX
  8
ゴム等
 10
-152.85
 20
87.05
 70
     8
  0
VERTEX
  8
ゴム等
 10
-152.825
 20
87.05
 70
     8
  0
VERTEX
  8
ゴム等
 10
-152.825
 20
87.075
 70
     8
  0
VERTEX
  8
ゴム等
 10
-152.8
 20
87.1
 70
     8
  0
VERTEX
  8
ゴム等
 10
-152.775
 20
87.125
 70
     8
  0
VERTEX
  8
ゴム等
 10
-152.75
 20
87.15
 70
     8
  0
VERTEX
  8
ゴム等
 10
-152.725
 20
87.15
 70
     8
  0
VERTEX
  8
ゴム等
 10
-152.7
 20
87.175
 70
     8
  0
VERTEX
  8
ゴム等
 10
-152.675
 20
87.2
 70
     8
  0
VERTEX
  8
ゴム等
 10
-152.65
 20
87.225
 70
     8
  0
VERTEX
  8
ゴム等
 10
-152.65
 20
87.25
 70
     8
  0
VERTEX
  8
ゴム等
 10
-152.625
 20
87.25
 70
     8
  0
VERTEX
  8
ゴム等
 10
-152.6
 20
87.275
 70
     8
  0
VERTEX
  8
ゴム等
 10
-152.575
 20
87.3
 70
     8
  0
VERTEX
  8
ゴム等
 10
-152.55
 20
87.325
 70
     8
  0
VERTEX
  8
ゴム等
 10
-152.525
 20
87.35
 70
     8
  0
VERTEX
  8
ゴム等
 10
-152.5
 20
87.35
 70
     8
  0
VERTEX
  8
ゴム等
 10
-152.475
 20
87.375
 70
     8
  0
VERTEX
  8
ゴム等
 10
-152.475
 20
87.4
 70
     8
  0
VERTEX
  8
ゴム等
 10
-152.45
 20
87.425
 70
     8
  0
VERTEX
  8
ゴム等
 10
-152.425
 20
87.45
 70
     8
  0
VERTEX
  8
ゴム等
 10
-152.4
 20
87.45
 70
     8
  0
VERTEX
  8
ゴム等
 10
-152.375
 20
87.475
 70
     8
  0
VERTEX
  8
ゴム等
 10
-152.35
 20
87.5
 70
     8
  0
VERTEX
  8
ゴム等
 10
-152.325
 20
87.525
 70
     8
  0
VERTEX
  8
ゴム等
 10
-152.3
 20
87.55
 70
     8
  0
VERTEX
  8
ゴム等
 10
-152.3
 20
87.55
 70
     8
  0
VERTEX
  8
ゴム等
 10
-152.275
 20
87.575
 70
     8
  0
VERTEX
  8
ゴム等
 10
-152.25
 20
87.6
 70
     8
  0
VERTEX
  8
ゴム等
 10
-152.225
 20
87.625
 70
     8
  0
VERTEX
  8
ゴム等
 10
-152.2
 20
87.65
 70
     8
  0
VERTEX
  8
ゴム等
 10
-152.175
 20
87.65
 70
     8
  0
VERTEX
  8
ゴム等
 10
-152.15
 20
87.675
 70
     8
  0
VERTEX
  8
ゴム等
 10
-152.125
 20
87.7
 70
     8
  0
VERTEX
  8
ゴム等
 10
-152.125
 20
87.725
 70
     8
  0
VERTEX
  8
ゴム等
 10
-152.1
 20
87.75
 70
     8
  0
VERTEX
  8
ゴム等
 10
-152.075
 20
87.75
 70
     8
  0
VERTEX
  8
ゴム等
 10
-152.05
 20
87.775
 70
     8
  0
VERTEX
  8
ゴム等
 10
-152.025
 20
87.8
 70
     8
  0
VERTEX
  8
ゴム等
 10
-152.0
 20
87.825
 70
     8
  0
VERTEX
  8
ゴム等
 10
-151.975
 20
87.85
 70
     8
  0
VERTEX
  8
ゴム等
 10
-151.95
 20
87.85
 70
     8
  0
VERTEX
  8
ゴム等
 10
-151.95
 20
87.875
 70
     8
  0
VERTEX
  8
ゴム等
 10
-151.925
 20
87.9
 70
     8
  0
VERTEX
  8
ゴム等
 10
-151.9
 20
87.925
 70
     8
  0
VERTEX
  8
ゴム等
 10
-151.875
 20
87.95
 70
     8
  0
VERTEX
  8
ゴム等
 10
-151.85
 20
87.95
 70
     8
  0
VERTEX
  8
ゴム等
 10
-151.825
 20
87.975
 70
     8
  0
VERTEX
  8
ゴム等
 10
-151.8
 20
88.0
 70
     8
  0
VERTEX
  8
ゴム等
 10
-151.775
 20
88.025
 70
     8
  0
VERTEX
  8
ゴム等
 10
-151.775
 20
88.05
 70
     8
  0
VERTEX
  8
ゴム等
 10
-151.75
 20
88.05
 70
     8
  0
VERTEX
  8
ゴム等
 10
-151.725
 20
88.075
 70
     8
  0
VERTEX
  8
ゴム等
 10
-151.7
 20
88.1
 70
     8
  0
VERTEX
  8
ゴム等
 10
-151.675
 20
88.125
 70
     8
  0
VERTEX
  8
ゴム等
 10
-151.65
 20
88.15
 70
     8
  0
VERTEX
  8
ゴム等
 10
-151.625
 20
88.15
 70
     8
  0
VERTEX
  8
ゴム等
 10
-151.6
 20
88.175
 70
     8
  0
VERTEX
  8
ゴム等
 10
-151.6
 20
88.2
 70
     8
  0
VERTEX
  8
ゴム等
 10
-151.575
 20
88.225
 70
     8
  0
VERTEX
  8
ゴム等
 10
-151.55
 20
88.225
 70
     8
  0
VERTEX
  8
ゴム等
 10
-151.525
 20
88.25
 70
     8
  0
VERTEX
  8
ゴム等
 10
-151.5
 20
88.275
 70
     8
  0
VERTEX
  8
ゴム等
 10
-151.475
 20
88.3
 70
     8
  0
VERTEX
  8
ゴム等
 10
-151.45
 20
88.325
 70
     8
  0
VERTEX
  8
ゴム等
 10
-151.425
 20
88.325
 70
     8
  0
VERTEX
  8
ゴム等
 10
-151.425
 20
88.35
 70
     8
  0
VERTEX
  8
ゴム等
 10
-151.4
 20
88.375
 70
     8
  0
VERTEX
  8
ゴム等
 10
-151.375
 20
88.4
 70
     8
  0
VERTEX
  8
ゴム等
 10
-151.35
 20
88.425
 70
     8
  0
VERTEX
  8
ゴム等
 10
-151.325
 20
88.425
 70
     8
  0
VERTEX
  8
ゴム等
 10
-151.3
 20
88.45
 70
     8
  0
VERTEX
  8
ゴム等
 10
-151.275
 20
88.475
 70
     8
  0
VERTEX
  8
ゴム等
 10
-151.25
 20
88.5
 70
     8
  0
VERTEX
  8
ゴム等
 10
-151.225
 20
88.5
 70
     8
  0
VERTEX
  8
ゴム等
 10
-151.225
 20
88.525
 70
     8
  0
VERTEX
  8
ゴム等
 10
-151.2
 20
88.55
 70
     8
  0
VERTEX
  8
ゴム等
 10
-151.175
 20
88.575
 70
     8
  0
VERTEX
  8
ゴム等
 10
-151.15
 20
88.6
 70
     8
  0
VERTEX
  8
ゴム等
 10
-151.125
 20
88.6
 70
     8
  0
VERTEX
  8
ゴム等
 10
-151.1
 20
88.625
 70
     8
  0
VERTEX
  8
ゴム等
 10
-151.075
 20
88.65
 70
     8
  0
VERTEX
  8
ゴム等
 10
-151.05
 20
88.675
 70
     8
  0
VERTEX
  8
ゴム等
 10
-151.025
 20
88.7
 70
     8
  0
VERTEX
  8
ゴム等
 10
-151.025
 20
88.7
 70
     8
  0
VERTEX
  8
ゴム等
 10
-151.0
 20
88.725
 70
     8
  0
VERTEX
  8
ゴム等
 10
-150.975
 20
88.75
 70
     8
  0
VERTEX
  8
ゴム等
 10
-150.95
 20
88.775
 70
     8
  0
VERTEX
  8
ゴム等
 10
-150.925
 20
88.775
 70
     8
  0
VERTEX
  8
ゴム等
 10
-150.9
 20
88.8
 70
     8
  0
VERTEX
  8
ゴム等
 10
-150.875
 20
88.825
 70
     8
  0
VERTEX
  8
ゴム等
 10
-150.85
 20
88.85
 70
     8
  0
VERTEX
  8
ゴム等
 10
-150.825
 20
88.875
 70
     8
  0
VERTEX
  8
ゴム等
 10
-150.825
 20
88.875
 70
     8
  0
VERTEX
  8
ゴム等
 10
-150.8
 20
88.9
 70
     8
  0
VERTEX
  8
ゴム等
 10
-150.775
 20
88.925
 70
     8
  0
VERTEX
  8
ゴム等
 10
-150.75
 20
88.95
 70
     8
  0
VERTEX
  8
ゴム等
 10
-150.725
 20
88.95
 70
     8
  0
VERTEX
  8
ゴム等
 10
-150.7
 20
88.975
 70
     8
  0
VERTEX
  8
ゴム等
 10
-150.675
 20
89.0
 70
     8
  0
VERTEX
  8
ゴム等
 10
-150.65
 20
89.025
 70
     8
  0
VERTEX
  8
ゴム等
 10
-150.625
 20
89.025
 70
     8
  0
VERTEX
  8
ゴム等
 10
-150.6
 20
89.05
 70
     8
  0
VERTEX
  8
ゴム等
 10
-150.6
 20
89.075
 70
     8
  0
VERTEX
  8
ゴム等
 10
-150.575
 20
89.1
 70
     8
  0
VERTEX
  8
ゴム等
 10
-150.55
 20
89.125
 70
     8
  0
VERTEX
  8
ゴム等
 10
-150.525
 20
89.125
 70
     8
  0
VERTEX
  8
ゴム等
 10
-150.5
 20
89.15
 70
     8
  0
VERTEX
  8
ゴム等
 10
-150.475
 20
89.175
 70
     8
  0
VERTEX
  8
ゴム等
 10
-150.45
 20
89.2
 70
     8
  0
VERTEX
  8
ゴム等
 10
-150.425
 20
89.2
 70
     8
  0
VERTEX
  8
ゴム等
 10
-150.4
 20
89.225
 70
     8
  0
VERTEX
  8
ゴム等
 10
-150.375
 20
89.25
 70
     8
  0
VERTEX
  8
ゴム等
 10
-150.375
 20
89.275
 70
     8
  0
VERTEX
  8
ゴム等
 10
-150.35
 20
89.275
 70
     8
  0
VERTEX
  8
ゴム等
 10
-150.325
 20
89.3
 70
     8
  0
VERTEX
  8
ゴム等
 10
-150.3
 20
89.325
 70
     8
  0
VERTEX
  8
ゴム等
 10
-150.275
 20
89.35
 70
     8
  0
VERTEX
  8
ゴム等
 10
-150.25
 20
89.35
 70
     8
  0
VERTEX
  8
ゴム等
 10
-150.225
 20
89.375
 70
     8
  0
VERTEX
  8
ゴム等
 10
-150.2
 20
89.4
 70
     8
  0
VERTEX
  8
ゴム等
 10
-150.175
 20
89.425
 70
     8
  0
VERTEX
  8
ゴム等
 10
-150.15
 20
89.425
 70
     8
  0
VERTEX
  8
ゴム等
 10
-150.15
 20
89.45
 70
     8
  0
VERTEX
  8
ゴム等
 10
-150.125
 20
89.475
 70
     8
  0
VERTEX
  8
ゴム等
 10
-150.1
 20
89.5
 70
     8
  0
VERTEX
  8
ゴム等
 10
-150.075
 20
89.5
 70
     8
  0
VERTEX
  8
ゴム等
 10
-150.05
 20
89.525
 70
     8
  0
VERTEX
  8
ゴム等
 10
-150.025
 20
89.55
 70
     8
  0
VERTEX
  8
ゴム等
 10
-150.0
 20
89.575
 70
     8
  0
VERTEX
  8
ゴム等
 10
-149.975
 20
89.6
 70
     8
  0
VERTEX
  8
ゴム等
 10
-149.95
 20
89.6
 70
     8
  0
VERTEX
  8
ゴム等
 10
-149.925
 20
89.625
 70
     8
  0
VERTEX
  8
ゴム等
 10
-149.9
 20
89.65
 70
     8
  0
VERTEX
  8
ゴム等
 10
-149.9
 20
89.675
 70
     8
  0
VERTEX
  8
ゴム等
 10
-149.875
 20
89.675
 70
     8
  0
VERTEX
  8
ゴム等
 10
-149.85
 20
89.7
 70
     8
  0
VERTEX
  8
ゴム等
 10
-149.825
 20
89.725
 70
     8
  0
VERTEX
  8
ゴム等
 10
-149.8
 20
89.725
 70
     8
  0
VERTEX
  8
ゴム等
 10
-149.775
 20
89.75
 70
     8
  0
VERTEX
  8
ゴム等
 10
-149.75
 20
89.775
 70
     8
  0
VERTEX
  8
ゴム等
 10
-149.725
 20
89.8
 70
     8
  0
VERTEX
  8
ゴム等
 10
-149.7
 20
89.8
 70
     8
  0
VERTEX
  8
ゴム等
 10
-149.675
 20
89.825
 70
     8
  0
VERTEX
  8
ゴム等
 10
-149.65
 20
89.85
 70
     8
  0
VERTEX
  8
ゴム等
 10
-149.625
 20
89.875
 70
     8
  0
VERTEX
  8
ゴム等
 10
-149.6
 20
89.875
 70
     8
  0
VERTEX
  8
ゴム等
 10
-149.6
 20
89.9
 70
     8
  0
VERTEX
  8
ゴム等
 10
-149.575
 20
89.925
 70
     8
  0
VERTEX
  8
ゴム等
 10
-149.55
 20
89.95
 70
     8
  0
VERTEX
  8
ゴム等
 10
-149.525
 20
89.95
 70
     8
  0
VERTEX
  8
ゴム等
 10
-149.5
 20
89.975
 70
     8
  0
VERTEX
  8
ゴム等
 10
-149.475
 20
90.0
 70
     8
  0
VERTEX
  8
ゴム等
 10
-149.45
 20
90.025
 70
     8
  0
VERTEX
  8
ゴム等
 10
-149.425
 20
90.025
 70
     8
  0
VERTEX
  8
ゴム等
 10
-149.4
 20
90.05
 70
     8
  0
VERTEX
  8
ゴム等
 10
-149.375
 20
90.075
 70
     8
  0
VERTEX
  8
ゴム等
 10
-149.35
 20
90.075
 70
     8
  0
VERTEX
  8
ゴム等
 10
-149.325
 20
90.1
 70
     8
  0
VERTEX
  8
ゴム等
 10
-149.3
 20
90.125
 70
     8
  0
VERTEX
  8
ゴム等
 10
-149.275
 20
90.15
 70
     8
  0
VERTEX
  8
ゴム等
 10
-149.275
 20
90.15
 70
     8
  0
VERTEX
  8
ゴム等
 10
-149.25
 20
90.175
 70
     8
  0
VERTEX
  8
ゴム等
 10
-149.225
 20
90.2
 70
     8
  0
VERTEX
  8
ゴム等
 10
-149.2
 20
90.225
 70
     8
  0
VERTEX
  8
ゴム等
 10
-149.175
 20
90.225
 70
     8
  0
VERTEX
  8
ゴム等
 10
-149.15
 20
90.25
 70
     8
  0
VERTEX
  8
ゴム等
 10
-149.125
 20
90.275
 70
     8
  0
VERTEX
  8
ゴム等
 10
-149.1
 20
90.275
 70
     8
  0
VERTEX
  8
ゴム等
 10
-149.075
 20
90.3
 70
     8
  0
VERTEX
  8
ゴム等
 10
-149.05
 20
90.325
 70
     8
  0
VERTEX
  8
ゴム等
 10
-149.025
 20
90.35
 70
     8
  0
VERTEX
  8
ゴム等
 10
-149.0
 20
90.35
 70
     8
  0
VERTEX
  8
ゴム等
 10
-148.975
 20
90.375
 70
     8
  0
VERTEX
  8
ゴム等
 10
-148.95
 20
90.4
 70
     8
  0
VERTEX
  8
ゴム等
 10
-148.925
 20
90.4
 70
     8
  0
VERTEX
  8
ゴム等
 10
-148.9
 20
90.425
 70
     8
  0
VERTEX
  8
ゴム等
 10
-148.9
 20
90.45
 70
     8
  0
VERTEX
  8
ゴム等
 10
-148.875
 20
90.475
 70
     8
  0
VERTEX
  8
ゴム等
 10
-148.85
 20
90.475
 70
     8
  0
VERTEX
  8
ゴム等
 10
-148.825
 20
90.5
 70
     8
  0
VERTEX
  8
ゴム等
 10
-148.8
 20
90.525
 70
     8
  0
VERTEX
  8
ゴム等
 10
-148.775
 20
90.525
 70
     8
  0
VERTEX
  8
ゴム等
 10
-148.75
 20
90.55
 70
     8
  0
VERTEX
  8
ゴム等
 10
-148.725
 20
90.575
 70
     8
  0
VERTEX
  8
ゴム等
 10
-148.7
 20
90.575
 70
     8
  0
VERTEX
  8
ゴム等
 10
-148.675
 20
90.6
 70
     8
  0
VERTEX
  8
ゴム等
 10
-148.65
 20
90.625
 70
     8
  0
VERTEX
  8
ゴム等
 10
-148.625
 20
90.65
 70
     8
  0
VERTEX
  8
ゴム等
 10
-148.6
 20
90.65
 70
     8
  0
VERTEX
  8
ゴム等
 10
-148.575
 20
90.675
 70
     8
  0
VERTEX
  8
ゴム等
 10
-148.55
 20
90.7
 70
     8
  0
VERTEX
  8
ゴム等
 10
-148.525
 20
90.7
 70
     8
  0
VERTEX
  8
ゴム等
 10
-148.5
 20
90.725
 70
     8
  0
VERTEX
  8
ゴム等
 10
-148.475
 20
90.75
 70
     8
  0
VERTEX
  8
ゴム等
 10
-148.45
 20
90.75
 70
     8
  0
VERTEX
  8
ゴム等
 10
-148.425
 20
90.775
 70
     8
  0
VERTEX
  8
ゴム等
 10
-148.425
 20
90.8
 70
     8
  0
VERTEX
  8
ゴム等
 10
-148.4
 20
90.825
 70
     8
  0
VERTEX
  8
ゴム等
 10
-148.375
 20
90.825
 70
     8
  0
SEQEND
  0
POLYLINE
  8
ゴム等
  6
CONTINUOUS
 66
     1
 70
     4
  0
VERTEX
  8
ゴム等
 10
-155.15
 20
91.275
 70
     8
  0
VERTEX
  8
ゴム等
 10
-155.125
 20
91.275
 70
     8
  0
VERTEX
  8
ゴム等
 10
-155.075
 20
91.275
 70
     8
  0
VERTEX
  8
ゴム等
 10
-155.05
 20
91.275
 70
     8
  0
VERTEX
  8
ゴム等
 10
-155.025
 20
91.275
 70
     8
  0
VERTEX
  8
ゴム等
 10
-154.975
 20
91.25
 70
     8
  0
VERTEX
  8
ゴム等
 10
-154.95
 20
91.25
 70
     8
  0
VERTEX
  8
ゴム等
 10
-154.925
 20
91.25
 70
     8
  0
VERTEX
  8
ゴム等
 10
-154.875
 20
91.25
 70
     8
  0
VERTEX
  8
ゴム等
 10
-154.85
 20
91.25
 70
     8
  0
VERTEX
  8
ゴム等
 10
-154.825
 20
91.25
 70
     8
  0
VERTEX
  8
ゴム等
 10
-154.775
 20
91.225
 70
     8
  0
VERTEX
  8
ゴム等
 10
-154.75
 20
91.225
 70
     8
  0
VERTEX
  8
ゴム等
 10
-154.725
 20
91.225
 70
     8
  0
VERTEX
  8
ゴム等
 10
-154.7
 20
91.225
 70
     8
  0
VERTEX
  8
ゴム等
 10
-154.65
 20
91.225
 70
     8
  0
VERTEX
  8
ゴム等
 10
-154.625
 20
91.225
 70
     8
  0
VERTEX
  8
ゴム等
 10
-154.6
 20
91.225
 70
     8
  0
VERTEX
  8
ゴム等
 10
-154.55
 20
91.2
 70
     8
  0
VERTEX
  8
ゴム等
 10
-154.525
 20
91.2
 70
     8
  0
VERTEX
  8
ゴム等
 10
-154.5
 20
91.2
 70
     8
  0
VERTEX
  8
ゴム等
 10
-154.45
 20
91.2
 70
     8
  0
VERTEX
  8
ゴム等
 10
-154.425
 20
91.2
 70
     8
  0
VERTEX
  8
ゴム等
 10
-154.4
 20
91.2
 70
     8
  0
VERTEX
  8
ゴム等
 10
-154.35
 20
91.2
 70
     8
  0
VERTEX
  8
ゴム等
 10
-154.325
 20
91.175
 70
     8
  0
VERTEX
  8
ゴム等
 10
-154.3
 20
91.175
 70
     8
  0
VERTEX
  8
ゴム等
 10
-154.275
 20
91.175
 70
     8
  0
VERTEX
  8
ゴム等
 10
-154.225
 20
91.175
 70
     8
  0
VERTEX
  8
ゴム等
 10
-154.2
 20
91.175
 70
     8
  0
VERTEX
  8
ゴム等
 10
-154.175
 20
91.175
 70
     8
  0
VERTEX
  8
ゴム等
 10
-154.125
 20
91.175
 70
     8
  0
VERTEX
  8
ゴム等
 10
-154.1
 20
91.15
 70
     8
  0
VERTEX
  8
ゴム等
 10
-154.075
 20
91.15
 70
     8
  0
VERTEX
  8
ゴム等
 10
-154.025
 20
91.15
 70
     8
  0
VERTEX
  8
ゴム等
 10
-154.0
 20
91.15
 70
     8
  0
VERTEX
  8
ゴム等
 10
-153.975
 20
91.15
 70
     8
  0
VERTEX
  8
ゴム等
 10
-153.925
 20
91.15
 70
     8
  0
VERTEX
  8
ゴム等
 10
-153.9
 20
91.15
 70
     8
  0
VERTEX
  8
ゴム等
 10
-153.875
 20
91.15
 70
     8
  0
VERTEX
  8
ゴム等
 10
-153.825
 20
91.125
 70
     8
  0
VERTEX
  8
ゴム等
 10
-153.8
 20
91.125
 70
     8
  0
VERTEX
  8
ゴム等
 10
-153.775
 20
91.125
 70
     8
  0
VERTEX
  8
ゴム等
 10
-153.75
 20
91.125
 70
     8
  0
VERTEX
  8
ゴム等
 10
-153.7
 20
91.125
 70
     8
  0
VERTEX
  8
ゴム等
 10
-153.675
 20
91.125
 70
     8
  0
VERTEX
  8
ゴム等
 10
-153.65
 20
91.125
 70
     8
  0
VERTEX
  8
ゴム等
 10
-153.6
 20
91.125
 70
     8
  0
VERTEX
  8
ゴム等
 10
-153.575
 20
91.1
 70
     8
  0
VERTEX
  8
ゴム等
 10
-153.55
 20
91.1
 70
     8
  0
VERTEX
  8
ゴム等
 10
-153.5
 20
91.1
 70
     8
  0
VERTEX
  8
ゴム等
 10
-153.475
 20
91.1
 70
     8
  0
VERTEX
  8
ゴム等
 10
-153.45
 20
91.1
 70
     8
  0
VERTEX
  8
ゴム等
 10
-153.4
 20
91.1
 70
     8
  0
VERTEX
  8
ゴム等
 10
-153.375
 20
91.1
 70
     8
  0
VERTEX
  8
ゴム等
 10
-153.35
 20
91.1
 70
     8
  0
VERTEX
  8
ゴム等
 10
-153.325
 20
91.1
 70
     8
  0
VERTEX
  8
ゴム等
 10
-153.275
 20
91.1
 70
     8
  0
VERTEX
  8
ゴム等
 10
-153.25
 20
91.075
 70
     8
  0
VERTEX
  8
ゴム等
 10
-153.225
 20
91.075
 70
     8
  0
VERTEX
  8
ゴム等
 10
-153.175
 20
91.075
 70
     8
  0
VERTEX
  8
ゴム等
 10
-153.15
 20
91.075
 70
     8
  0
VERTEX
  8
ゴム等
 10
-153.125
 20
91.075
 70
     8
  0
VERTEX
  8
ゴム等
 10
-153.075
 20
91.075
 70
     8
  0
VERTEX
  8
ゴム等
 10
-153.05
 20
91.075
 70
     8
  0
VERTEX
  8
ゴム等
 10
-153.025
 20
91.075
 70
     8
  0
VERTEX
  8
ゴム等
 10
-152.975
 20
91.075
 70
     8
  0
VERTEX
  8
ゴム等
 10
-152.95
 20
91.075
 70
     8
  0
VERTEX
  8
ゴム等
 10
-152.925
 20
91.075
 70
     8
  0
VERTEX
  8
ゴム等
 10
-152.9
 20
91.075
 70
     8
  0
VERTEX
  8
ゴム等
 10
-152.85
 20
91.05
 70
     8
  0
VERTEX
  8
ゴム等
 10
-152.825
 20
91.05
 70
     8
  0
VERTEX
  8
ゴム等
 10
-152.8
 20
91.05
 70
     8
  0
VERTEX
  8
ゴム等
 10
-152.75
 20
91.05
 70
     8
  0
VERTEX
  8
ゴム等
 10
-152.725
 20
91.05
 70
     8
  0
VERTEX
  8
ゴム等
 10
-152.7
 20
91.05
 70
     8
  0
VERTEX
  8
ゴム等
 10
-152.65
 20
91.05
 70
     8
  0
VERTEX
  8
ゴム等
 10
-152.625
 20
91.05
 70
     8
  0
VERTEX
  8
ゴム等
 10
-152.6
 20
91.05
 70
     8
  0
VERTEX
  8
ゴム等
 10
-152.575
 20
91.05
 70
     8
  0
VERTEX
  8
ゴム等
 10
-152.525
 20
91.05
 70
     8
  0
VERTEX
  8
ゴム等
 10
-152.5
 20
91.05
 70
     8
  0
VERTEX
  8
ゴム等
 10
-152.475
 20
91.05
 70
     8
  0
VERTEX
  8
ゴム等
 10
-152.425
 20
91.05
 70
     8
  0
VERTEX
  8
ゴム等
 10
-152.4
 20
91.05
 70
     8
  0
VERTEX
  8
ゴム等
 10
-152.375
 20
91.05
 70
     8
  0
VERTEX
  8
ゴム等
 10
-152.325
 20
91.05
 70
     8
  0
VERTEX
  8
ゴム等
 10
-152.3
 20
91.05
 70
     8
  0
VERTEX
  8
ゴム等
 10
-152.275
 20
91.05
 70
     8
  0
VERTEX
  8
ゴム等
 10
-152.25
 20
91.05
 70
     8
  0
VERTEX
  8
ゴム等
 10
-152.2
 20
91.05
 70
     8
  0
VERTEX
  8
ゴム等
 10
-152.175
 20
91.05
 70
     8
  0
VERTEX
  8
ゴム等
 10
-152.15
 20
91.05
 70
     8
  0
VERTEX
  8
ゴム等
 10
-152.1
 20
91.05
 70
     8
  0
VERTEX
  8
ゴム等
 10
-152.075
 20
91.05
 70
     8
  0
VERTEX
  8
ゴム等
 10
-152.05
 20
91.05
 70
     8
  0
VERTEX
  8
ゴム等
 10
-152.0
 20
91.05
 70
     8
  0
VERTEX
  8
ゴム等
 10
-151.975
 20
91.05
 70
     8
  0
VERTEX
  8
ゴム等
 10
-151.95
 20
91.05
 70
     8
  0
VERTEX
  8
ゴム等
 10
-151.9
 20
91.05
 70
     8
  0
VERTEX
  8
ゴム等
 10
-151.875
 20
91.05
 70
     8
  0
VERTEX
  8
ゴム等
 10
-151.85
 20
91.05
 70
     8
  0
VERTEX
  8
ゴム等
 10
-151.825
 20
91.05
 70
     8
  0
VERTEX
  8
ゴム等
 10
-151.775
 20
91.05
 70
     8
  0
VERTEX
  8
ゴム等
 10
-151.75
 20
91.05
 70
     8
  0
VERTEX
  8
ゴム等
 10
-151.725
 20
91.05
 70
     8
  0
VERTEX
  8
ゴム等
 10
-151.675
 20
91.05
 70
     8
  0
VERTEX
  8
ゴム等
 10
-151.65
 20
91.05
 70
     8
  0
VERTEX
  8
ゴム等
 10
-151.625
 20
91.05
 70
     8
  0
VERTEX
  8
ゴム等
 10
-151.6
 20
91.05
 70
     8
  0
VERTEX
  8
ゴム等
 10
-151.55
 20
91.05
 70
     8
  0
VERTEX
  8
ゴム等
 10
-151.525
 20
91.05
 70
     8
  0
VERTEX
  8
ゴム等
 10
-151.5
 20
91.05
 70
     8
  0
VERTEX
  8
ゴム等
 10
-151.45
 20
91.05
 70
     8
  0
VERTEX
  8
ゴム等
 10
-151.425
 20
91.05
 70
     8
  0
VERTEX
  8
ゴム等
 10
-151.4
 20
91.05
 70
     8
  0
VERTEX
  8
ゴム等
 10
-151.35
 20
91.075
 70
     8
  0
VERTEX
  8
ゴム等
 10
-151.325
 20
91.075
 70
     8
  0
VERTEX
  8
ゴム等
 10
-151.3
 20
91.075
 70
     8
  0
VERTEX
  8
ゴム等
 10
-151.275
 20
91.075
 70
     8
  0
VERTEX
  8
ゴム等
 10
-151.225
 20
91.075
 70
     8
  0
VERTEX
  8
ゴム等
 10
-151.2
 20
91.075
 70
     8
  0
VERTEX
  8
ゴム等
 10
-151.175
 20
91.075
 70
     8
  0
VERTEX
  8
ゴム等
 10
-151.125
 20
91.075
 70
     8
  0
VERTEX
  8
ゴム等
 10
-151.1
 20
91.075
 70
     8
  0
VERTEX
  8
ゴム等
 10
-151.075
 20
91.075
 70
     8
  0
VERTEX
  8
ゴム等
 10
-151.025
 20
91.1
 70
     8
  0
VERTEX
  8
ゴム等
 10
-151.0
 20
91.1
 70
     8
  0
VERTEX
  8
ゴム等
 10
-150.975
 20
91.1
 70
     8
  0
VERTEX
  8
ゴム等
 10
-150.95
 20
91.1
 70
     8
  0
VERTEX
  8
ゴム等
 10
-150.9
 20
91.1
 70
     8
  0
VERTEX
  8
ゴム等
 10
-150.875
 20
91.1
 70
     8
  0
VERTEX
  8
ゴム等
 10
-150.85
 20
91.1
 70
     8
  0
VERTEX
  8
ゴム等
 10
-150.8
 20
91.125
 70
     8
  0
VERTEX
  8
ゴム等
 10
-150.775
 20
91.125
 70
     8
  0
VERTEX
  8
ゴム等
 10
-150.75
 20
91.125
 70
     8
  0
VERTEX
  8
ゴム等
 10
-150.725
 20
91.125
 70
     8
  0
VERTEX
  8
ゴム等
 10
-150.675
 20
91.125
 70
     8
  0
VERTEX
  8
ゴム等
 10
-150.65
 20
91.125
 70
     8
  0
VERTEX
  8
ゴム等
 10
-150.625
 20
91.15
 70
     8
  0
VERTEX
  8
ゴム等
 10
-150.575
 20
91.15
 70
     8
  0
VERTEX
  8
ゴム等
 10
-150.55
 20
91.15
 70
     8
  0
VERTEX
  8
ゴム等
 10
-150.525
 20
91.15
 70
     8
  0
VERTEX
  8
ゴム等
 10
-150.5
 20
91.15
 70
     8
  0
VERTEX
  8
ゴム等
 10
-150.45
 20
91.15
 70
     8
  0
VERTEX
  8
ゴム等
 10
-150.425
 20
91.175
 70
     8
  0
VERTEX
  8
ゴム等
 10
-150.4
 20
91.175
 70
     8
  0
VERTEX
  8
ゴム等
 10
-150.35
 20
91.175
 70
     8
  0
VERTEX
  8
ゴム等
 10
-150.325
 20
91.175
 70
     8
  0
VERTEX
  8
ゴム等
 10
-150.3
 20
91.175
 70
     8
  0
VERTEX
  8
ゴム等
 10
-150.275
 20
91.2
 70
     8
  0
VERTEX
  8
ゴム等
 10
-150.225
 20
91.2
 70
     8
  0
VERTEX
  8
ゴム等
 10
-150.2
 20
91.2
 70
     8
  0
VERTEX
  8
ゴム等
 10
-150.175
 20
91.2
 70
     8
  0
VERTEX
  8
ゴム等
 10
-150.125
 20
91.225
 70
     8
  0
VERTEX
  8
ゴム等
 10
-150.1
 20
91.225
 70
     8
  0
VERTEX
  8
ゴム等
 10
-150.075
 20
91.225
 70
     8
  0
VERTEX
  8
ゴム等
 10
-150.05
 20
91.225
 70
     8
  0
VERTEX
  8
ゴム等
 10
-150.0
 20
91.225
 70
     8
  0
VERTEX
  8
ゴム等
 10
-149.975
 20
91.25
 70
     8
  0
VERTEX
  8
ゴム等
 10
-149.95
 20
91.25
 70
     8
  0
VERTEX
  8
ゴム等
 10
-149.9
 20
91.25
 70
     8
  0
VERTEX
  8
ゴム等
 10
-149.875
 20
91.25
 70
     8
  0
VERTEX
  8
ゴム等
 10
-149.85
 20
91.275
 70
     8
  0
VERTEX
  8
ゴム等
 10
-149.825
 20
91.275
 70
     8
  0
VERTEX
  8
ゴム等
 10
-149.775
 20
91.275
 70
     8
  0
VERTEX
  8
ゴム等
 10
-149.75
 20
91.275
 70
     8
  0
VERTEX
  8
ゴム等
 10
-149.725
 20
91.3
 70
     8
  0
VERTEX
  8
ゴム等
 10
-149.675
 20
91.3
 70
     8
  0
VERTEX
  8
ゴム等
 10
-149.65
 20
91.3
 70
     8
  0
VERTEX
  8
ゴム等
 10
-149.625
 20
91.3
 70
     8
  0
VERTEX
  8
ゴム等
 10
-149.6
 20
91.325
 70
     8
  0
VERTEX
  8
ゴム等
 10
-149.55
 20
91.325
 70
     8
  0
VERTEX
  8
ゴム等
 10
-149.525
 20
91.325
 70
     8
  0
VERTEX
  8
ゴム等
 10
-149.5
 20
91.325
 70
     8
  0
VERTEX
  8
ゴム等
 10
-149.45
 20
91.35
 70
     8
  0
VERTEX
  8
ゴム等
 10
-149.425
 20
91.35
 70
     8
  0
VERTEX
  8
ゴム等
 10
-149.4
 20
91.35
 70
     8
  0
VERTEX
  8
ゴム等
 10
-149.375
 20
91.35
 70
     8
  0
VERTEX
  8
ゴム等
 10
-149.325
 20
91.375
 70
     8
  0
VERTEX
  8
ゴム等
 10
-149.3
 20
91.375
 70
     8
  0
VERTEX
  8
ゴム等
 10
-149.275
 20
91.375
 70
     8
  0
VERTEX
  8
ゴム等
 10
-149.225
 20
91.4
 70
     8
  0
VERTEX
  8
ゴム等
 10
-149.2
 20
91.4
 70
     8
  0
VERTEX
  8
ゴム等
 10
-149.175
 20
91.4
 70
     8
  0
VERTEX
  8
ゴム等
 10
-149.15
 20
91.4
 70
     8
  0
VERTEX
  8
ゴム等
 10
-149.1
 20
91.425
 70
     8
  0
VERTEX
  8
ゴム等
 10
-149.075
 20
91.425
 70
     8
  0
VERTEX
  8
ゴム等
 10
-149.05
 20
91.425
 70
     8
  0
VERTEX
  8
ゴム等
 10
-149.0
 20
91.425
 70
     8
  0
VERTEX
  8
ゴム等
 10
-148.975
 20
91.45
 70
     8
  0
VERTEX
  8
ゴム等
 10
-148.95
 20
91.45
 70
     8
  0
VERTEX
  8
ゴム等
 10
-148.925
 20
91.45
 70
     8
  0
VERTEX
  8
ゴム等
 10
-148.875
 20
91.475
 70
     8
  0
VERTEX
  8
ゴム等
 10
-148.85
 20
91.475
 70
     8
  0
VERTEX
  8
ゴム等
 10
-148.825
 20
91.475
 70
     8
  0
VERTEX
  8
ゴム等
 10
-148.775
 20
91.475
 70
     8
  0
VERTEX
  8
ゴム等
 10
-148.75
 20
91.5
 70
     8
  0
VERTEX
  8
ゴム等
 10
-148.725
 20
91.5
 70
     8
  0
VERTEX
  8
ゴム等
 10
-148.7
 20
91.5
 70
     8
  0
VERTEX
  8
ゴム等
 10
-148.65
 20
91.525
 70
     8
  0
SEQEND
  0
ARC
  8
ゴム等
  6
CONTINUOUS
 10
-148.635187
 20
91.126564
 40
0.4
 50
224.999983
 51
224.999983
  0
ARC
  8
ゴム等
  6
CONTINUOUS
 10
-148.635187
 20
91.126564
 40
0.4
 50
314.999983
 51
451.38316
  0
LINE
  8
ゴム等
  6
CONTINUOUS
 10
-170.343362
 20
78.045105
 11
-160.991158
 21
87.07645
  0
LINE
  8
ゴム等
  6
CONTINUOUS
 10
-160.656005
 20
79.247183
 11
-163.38896
 21
81.980137
  0
LINE
  8
ゴム等
  6
CONTINUOUS
 10
-149.16444
 20
91.413443
 11
-149.16444
 21
90.238645
  0
LINE
  8
ゴム等
  6
CONTINUOUS
 10
-150.164443
 20
91.218705
 11
-150.164443
 21
89.436192
  0
LINE
  8
ゴム等
  6
CONTINUOUS
 10
-151.164443
 20
91.09026
 11
-151.164443
 21
88.57624
  0
LINE
  8
ゴム等
  6
CONTINUOUS
 10
-152.164445
 20
91.054823
 11
-152.164445
 21
87.677182
  0
LINE
  8
ゴム等
  6
CONTINUOUS
 10
-153.164445
 20
91.09393
 11
-153.164445
 21
86.738743
  0
LINE
  8
ゴム等
  6
CONTINUOUS
 10
-152.963598
 20
86.939588
 11
-152.867058
 21
87.033978
  0
LINE
  8
ゴム等
  6
CONTINUOUS
 10
-154.164445
 20
91.181827
 11
-154.164445
 21
85.03162
  0
LINE
  8
ゴム等
  6
CONTINUOUS
 10
-155.164447
 20
91.292835
 11
-155.164447
 21
85.44584
  0
LINE
  8
ゴム等
  6
CONTINUOUS
 10
-159.16444
 20
80.518415
 11
-159.16444
 21
80.031647
  0
LINE
  8
ゴム等
  6
CONTINUOUS
 10
-156.164447
 20
91.318832
 11
-156.164447
 21
89.287762
  0
LINE
  8
ゴム等
  6
CONTINUOUS
 10
-156.164447
 20
87.566597
 11
-156.164447
 21
84.445838
  0
LINE
  8
ゴム等
  6
CONTINUOUS
 10
-157.164437
 20
91.219077
 11
-157.164437
 21
89.327433
  0
LINE
  8
ゴム等
  6
CONTINUOUS
 10
-157.164437
 20
86.60092
 11
-157.164437
 21
83.445847
  0
LINE
  8
ゴム等
  6
CONTINUOUS
 10
-158.16444
 20
90.98866
 11
-158.16444
 21
88.7392
  0
LINE
  8
ゴム等
  6
CONTINUOUS
 10
-158.16444
 20
85.63523
 11
-158.16444
 21
82.445858
  0
LINE
  8
ゴム等
  6
CONTINUOUS
 10
-159.16444
 20
90.61521
 11
-159.16444
 21
88.15098
  0
LINE
  8
ゴム等
  6
CONTINUOUS
 10
-159.16444
 20
84.669542
 11
-159.16444
 21
81.445858
  0
LINE
  8
ゴム等
  6
CONTINUOUS
 10
-160.164443
 20
90.075037
 11
-160.164443
 21
87.562747
  0
LINE
  8
ゴム等
  6
CONTINUOUS
 10
-160.164443
 20
83.703855
 11
-160.164443
 21
79.738745
  0
LINE
  8
ゴム等
  6
CONTINUOUS
 10
-161.164443
 20
89.323252
 11
-161.164443
 21
86.909115
  0
LINE
  8
ゴム等
  6
CONTINUOUS
 10
-161.164443
 20
84.12833
 11
-161.164443
 21
79.75562
  0
LINE
  8
ゴム等
  6
CONTINUOUS
 10
-162.164443
 20
88.345335
 11
-162.164443
 21
85.943418
  0
LINE
  8
ゴム等
  6
CONTINUOUS
 10
-162.164443
 20
83.162643
 11
-162.164443
 21
80.755623
  0
LINE
  8
ゴム等
  6
CONTINUOUS
 10
-163.164445
 20
87.345333
 11
-163.164445
 21
84.977728
  0
LINE
  8
ゴム等
  6
CONTINUOUS
 10
-163.164445
 20
82.196953
 11
-163.164445
 21
81.755623
  0
LINE
  8
ゴム等
  6
CONTINUOUS
 10
-164.164445
 20
86.345333
 11
-164.164445
 21
84.012027
  0
LINE
  8
ゴム等
  6
CONTINUOUS
 10
-165.164447
 20
85.345342
 11
-165.164447
 21
83.04634
  0
LINE
  8
ゴム等
  6
CONTINUOUS
 10
-166.164447
 20
82.080652
 11
-166.164447
 21
84.34534
  0
LINE
  8
ゴム等
  6
CONTINUOUS
 10
-167.164437
 20
81.114963
 11
-167.164437
 21
83.34535
  0
LINE
  8
ゴム等
  6
CONTINUOUS
 10
-168.16444
 20
80.149275
 11
-168.16444
 21
82.34535
  0
LINE
  8
ゴム等
  6
CONTINUOUS
 10
-169.16444
 20
79.183585
 11
-169.16444
 21
81.345348
  0
LINE
  8
ゴム等
  6
CONTINUOUS
 10
-170.16444
 20
78.217885
 11
-170.16444
 21
80.345357
  0
LINE
  8
ゴム等
  6
CONTINUOUS
 10
-166.164447
 20
73.866187
 11
-166.164447
 21
71.61743
  0
LINE
  8
ゴム等
  6
CONTINUOUS
 10
-167.164437
 20
74.866178
 11
-167.164437
 21
70.61745
  0
LINE
  8
ゴム等
  6
CONTINUOUS
 10
-168.16444
 20
77.424417
 11
-168.16444
 21
72.754903
  0
LINE
  8
ゴム等
  6
CONTINUOUS
 10
-168.16444
 20
71.031647
 11
-168.16444
 21
70.209308
  0
LINE
  8
ゴム等
  6
CONTINUOUS
 10
-169.16444
 20
76.86618
 11
-169.16444
 21
73.754905
  0
LINE
  8
ゴム等
  6
CONTINUOUS
 10
-170.16444
 20
77.866182
 11
-170.16444
 21
74.754905
  0
LINE
  8
ゴム等
  6
CONTINUOUS
 10
-171.164443
 20
79.345357
 11
-171.164443
 21
75.754905
  0
LINE
  8
ゴム等
  6
CONTINUOUS
 10
-172.164443
 20
78.345355
 11
-172.164443
 21
76.754908
  0
ENDBLK
  0
BLOCK
  2
*GRP_0061
 70
    65
 10
0.0
 20
0.0
  0
LINE
  8
ゴム等
  6
CONTINUOUS
 10
-148.45783
 20
53.33185
 11
-148.846735
 21
54.993537
  0
LINE
  8
ゴム等
  6
CONTINUOUS
 10
-152.240838
 20
51.599438
 11
-150.57915
 21
51.21053
  0
LINE
  8
ゴム等
  6
CONTINUOUS
 10
-148.45783
 20
53.33185
 11
-145.311205
 21
50.185227
  0
LINE
  8
ゴム等
  6
CONTINUOUS
 10
-145.311205
 20
50.185227
 11
-147.432525
 21
48.063905
  0
LINE
  8
ゴム等
  6
CONTINUOUS
 10
-150.57915
 20
51.21053
 11
-147.432525
 21
48.063905
  0
LINE
  8
ゴム等
  6
CONTINUOUS
 10
-143.896985
 20
51.599438
 11
-142.836325
 21
52.660097
  0
LINE
  8
ゴム等
  6
CONTINUOUS
 10
-143.896985
 20
51.599438
 11
-148.068912
 21
55.771363
  0
LINE
  8
ゴム等
  6
CONTINUOUS
 10
-148.068912
 20
55.771363
 11
-148.846735
 21
54.993537
  0
LINE
  8
ゴム等
  6
CONTINUOUS
 10
-152.240838
 20
51.599438
 11
-153.018663
 21
50.821613
  0
LINE
  8
ゴム等
  6
CONTINUOUS
 10
-153.018663
 20
50.821613
 11
-156.554202
 21
54.357152
  0
LINE
  8
ゴム等
  6
CONTINUOUS
 10
-155.847083
 20
55.064263
 11
-155.316758
 21
54.887478
  0
LINE
  8
ゴム等
  6
CONTINUOUS
 10
-152.134778
 20
58.069457
 11
-152.311557
 21
58.599787
  0
LINE
  8
ゴム等
  6
CONTINUOUS
 10
-152.134778
 20
58.069457
 11
-155.316758
 21
54.887478
  0
LINE
  8
ゴム等
  6
CONTINUOUS
 10
-156.554202
 20
54.357152
 11
-155.847083
 21
55.064263
  0
LINE
  8
ゴム等
  6
CONTINUOUS
 10
-152.311557
 20
58.599787
 11
-150.512938
 21
60.33671
  0
LINE
  8
ゴム等
  6
CONTINUOUS
 10
-142.836325
 20
52.660097
 11
-150.512938
 21
60.33671
  0
LINE
  8
ゴム等
  6
CONTINUOUS
 10
-155.554202
 20
54.96663
 11
-155.554198
 21
53.357148
  0
LINE
  8
ゴム等
  6
CONTINUOUS
 10
-154.554202
 20
55.650045
 11
-154.554202
 21
52.35715
  0
LINE
  8
ゴム等
  6
CONTINUOUS
 10
-153.5542
 20
56.650045
 11
-153.554195
 21
51.357145
  0
LINE
  8
ゴム等
  6
CONTINUOUS
 10
-152.5542
 20
57.650048
 11
-152.554187
 21
51.286085
  0
LINE
  8
ゴム等
  6
CONTINUOUS
 10
-151.554202
 20
59.331168
 11
-151.554198
 21
51.438735
  0
LINE
  8
ゴム等
  6
CONTINUOUS
 10
-150.554202
 20
60.296845
 11
-150.554202
 21
51.185583
  0
LINE
  8
ゴム等
  6
CONTINUOUS
 10
-149.554202
 20
59.377973
 11
-149.554208
 21
50.185587
  0
LINE
  8
ゴム等
  6
CONTINUOUS
 10
-143.554195
 20
53.377967
 11
-143.5542
 21
51.94223
  0
LINE
  8
ゴム等
  6
CONTINUOUS
 10
-144.554202
 20
54.377973
 11
-144.554202
 21
52.256653
  0
LINE
  8
ゴム等
  6
CONTINUOUS
 10
-145.554198
 20
55.37797
 11
-145.554198
 21
53.25665
  0
LINE
  8
ゴム等
  6
CONTINUOUS
 10
-145.554198
 20
50.428218
 11
-145.554202
 21
49.94223
  0
LINE
  8
ゴム等
  6
CONTINUOUS
 10
-146.554205
 20
56.377975
 11
-146.554205
 21
54.256655
  0
LINE
  8
ゴム等
  6
CONTINUOUS
 10
-146.554205
 20
51.428225
 11
-146.55421
 21
48.942232
  0
LINE
  8
ゴム等
  6
CONTINUOUS
 10
-147.5542
 20
57.377973
 11
-147.5542
 21
55.25665
  0
LINE
  8
ゴム等
  6
CONTINUOUS
 10
-147.5542
 20
52.42822
 11
-147.554205
 21
48.185585
  0
LINE
  8
ゴム等
  6
CONTINUOUS
 10
-148.554205
 20
58.377978
 11
-148.554205
 21
55.286067
  0
LINE
  8
ゴム等
  6
CONTINUOUS
 10
-148.554205
 20
53.743645
 11
-148.55421
 21
49.18558
  0
ENDBLK
  0
BLOCK
  2
*GRP_0062
 70
    65
 10
0.0
 20
0.0
  0
LINE
  8
ゴム等
  6
CONTINUOUS
 10
-140.078125
 20
59.803085
 11
-137.532543
 21
62.34867
  0
LINE
  8
ゴム等
  6
CONTINUOUS
 10
-134.138428
 20
65.742783
 11
-131.592845
 21
68.288367
  0
LINE
  8
ゴム等
  6
CONTINUOUS
 10
-132.15853
 20
65.177097
 11
-132.865637
 21
64.46999
  0
LINE
  8
ゴム等
  6
CONTINUOUS
 10
-136.25975
 20
61.075878
 11
-136.966855
 21
60.368772
  0
LINE
  8
ゴム等
  6
CONTINUOUS
 10
-134.138428
 20
65.742783
 11
-132.865637
 21
64.46999
  0
LINE
  8
ゴム等
  6
CONTINUOUS
 10
-137.532543
 20
62.34867
 11
-136.25975
 21
61.075878
  0
LINE
  8
ゴム等
  6
CONTINUOUS
 10
-131.804978
 20
64.823545
 11
-131.946397
 21
61.570853
  0
LINE
  8
ゴム等
  6
CONTINUOUS
 10
-136.613303
 20
60.015217
 11
-133.360613
 21
60.15664
  0
LINE
  8
ゴム等
  6
CONTINUOUS
 10
-136.966855
 20
60.368772
 11
-136.613303
 21
60.015217
  0
LINE
  8
ゴム等
  6
CONTINUOUS
 10
-132.15853
 20
65.177097
 11
-131.804978
 21
64.823545
  0
LINE
  8
ゴム等
  6
CONTINUOUS
 10
-131.946397
 20
61.570853
 11
-133.360613
 21
60.15664
  0
ARC
  8
ゴム等
  6
CONTINUOUS
 10
-135.128384
 20
63.33862
 40
1.0
 50
45.0
 51
225.0
  0
ARC
  8
ゴム等
  6
CONTINUOUS
 10
-133.997013
 20
62.207249
 40
1.0
 50
225.0
 51
405.0
  0
LINE
  8
ゴム等
  6
CONTINUOUS
 10
-134.421273
 20
64.045728
 11
-133.2899
 21
62.914355
  0
LINE
  8
ゴム等
  6
CONTINUOUS
 10
-135.835485
 20
62.631512
 11
-134.704115
 21
61.500143
  0
LINE
  8
ゴム等
  6
CONTINUOUS
 10
-141.975912
 20
61.700875
 11
-138.180353
 21
61.700875
  0
LINE
  8
ゴム等
  6
CONTINUOUS
 10
-136.884745
 20
61.700875
 11
-134.904845
 21
61.700875
  0
LINE
  8
ゴム等
  6
CONTINUOUS
 10
-133.134695
 20
61.700875
 11
-131.940745
 21
61.700875
  0
LINE
  8
ゴム等
  6
CONTINUOUS
 10
-134.076418
 20
63.700872
 11
-131.85379
 21
63.700872
  0
LINE
  8
ゴム等
  6
CONTINUOUS
 10
-135.128378
 20
68.288367
 11
-140.078125
 21
63.33862
  0
ARC
  8
ゴム等
  6
CONTINUOUS
 10
-135.481937
 20
68.641921
 40
0.5
 50
315.0
 51
405.0
  0
ARC
  8
ゴム等
  6
CONTINUOUS
 10
-140.431685
 20
63.692173
 40
0.5
 50
225.0
 51
315.0
  0
LINE
  8
ゴム等
  6
CONTINUOUS
 10
-135.128378
 20
68.995475
 11
-133.714165
 21
70.409687
  0
LINE
  8
ゴム等
  6
CONTINUOUS
 10
-140.785232
 20
63.33862
 11
-142.199445
 21
61.924408
  0
LINE
  8
ゴム等
  6
CONTINUOUS
 10
-131.592845
 20
68.288367
 11
-133.714165
 21
70.409687
  0
LINE
  8
ゴム等
  6
CONTINUOUS
 10
-140.078125
 20
59.803085
 11
-142.199445
 21
61.924408
  0
LINE
  8
ゴム等
  6
CONTINUOUS
 10
-136.06046
 20
63.700872
 11
-139.715873
 21
63.700872
  0
LINE
  8
ゴム等
  6
CONTINUOUS
 10
-134.09652
 20
65.700875
 11
-137.71587
 21
65.700875
  0
LINE
  8
ゴム等
  6
CONTINUOUS
 10
-132.180353
 20
67.700872
 11
-135.715873
 21
67.700872
  0
LINE
  8
ゴム等
  6
CONTINUOUS
 10
-133.005353
 20
69.700875
 11
-134.422977
 21
69.700875
  0
ENDBLK
  0
BLOCK
  2
*GRP_0063
 70
    65
 10
0.0
 20
0.0
  0
LINE
  8
ボルト／ビス
  6
CONTINUOUS
 10
-155.634955
 20
55.559235
 11
-152.806525
 21
58.387667
  0
LINE
  8
ボルト／ビス
  6
CONTINUOUS
 10
-157.614858
 20
56.124928
 11
-155.634955
 21
55.559235
  0
LINE
  8
ボルト／ビス
  6
CONTINUOUS
 10
-157.614858
 20
56.124928
 11
-153.372213
 21
60.367565
  0
LINE
  8
ボルト／ビス
  6
CONTINUOUS
 10
-153.372213
 20
60.367565
 11
-152.806525
 21
58.387667
  0
LINE
  8
ボルト／ビス
  6
CONTINUOUS
 10
-156.542548
 20
59.295257
 11
-146.417935
 21
49.170648
  0
LINE
  8
ボルト／ビス
  6
CONTINUOUS
 10
-148.776023
 20
48.700302
 11
-148.068905
 21
48.700308
  0
LINE
  8
ボルト／ビス
  6
CONTINUOUS
 10
-145.94759
 20
51.528732
 11
-145.94759
 21
50.821623
  0
LINE
  8
ボルト／ビス
  6
CONTINUOUS
 10
-148.068905
 20
48.700308
 11
-145.94759
 21
50.821623
  0
LINE
  8
ボルト／ビス
  6
CONTINUOUS
 10
-148.776023
 20
48.700302
 11
-145.94759
 21
51.528732
  0
LINE
  8
ボルト／ビス
  6
CONTINUOUS
 10
-153.160085
 20
58.034117
 11
-145.94759
 21
50.821623
  0
LINE
  8
ボルト／ビス
  6
CONTINUOUS
 10
-155.281405
 20
55.912797
 11
-148.068905
 21
48.700308
  0
LINE
  8
ボルト／ビス
  6
CONTINUOUS
 10
-155.634955
 20
55.559235
 11
-148.776023
 21
48.700302
  0
LINE
  8
ボルト／ビス
  6
CONTINUOUS
 10
-152.806525
 20
58.387667
 11
-145.94759
 21
51.528732
  0
ENDBLK
  0
BLOCK
  2
*DIM_0064
 70
    65
 10
0.0
 20
0.0
  0
LINE
  8
寸法
  6
CONTINUOUS
 10
-129.331642
 20
109.86471
 11
-120.743085
 21
118.453268
  0
LINE
  8
寸法
  6
CONTINUOUS
 10
-111.795392
 20
92.32846
 11
-103.206835
 21
100.917017
  0
LINE
  8
寸法
  6
CONTINUOUS
 10
-120.743085
 20
118.453268
 11
-103.206835
 21
100.917017
  0
POINT
  8
寸法
 10
-120.743085
 20
118.453268
 50
-45.0
  0
POINT
  8
寸法
 10
-103.206835
 20
100.917017
 50
-45.0
  0
TEXT
  7
TextStyle03
  8
寸法
  6
CONTINUOUS
 10
-109.944146
 20
107.090466
  1
24.8
 40
3.0
 50
135.0
 72
     5
 11
-114.584534
 21
111.730854
  0
ENDBLK
  0
BLOCK
  2
*DIM_0065
 70
    65
 10
0.0
 20
0.0
  0
LINE
  8
寸法
  6
CONTINUOUS
 10
-130.885737
 20
68.995475
 11
-101.085515
 21
98.795697
  0
LINE
  8
寸法
  6
CONTINUOUS
 10
-103.206835
 20
100.917017
 11
-101.085515
 21
98.795697
  0
POINT
  8
寸法
 10
-101.085515
 20
98.795697
 50
-45.0
  0
TEXT
  7
TextStyle03
  8
寸法
  6
CONTINUOUS
 10
-101.88401
 20
99.05533
  1
3
 40
3.0
 50
135.0
 72
     5
 11
-102.94467
 21
100.11599
  0
ENDBLK
  0
BLOCK
  2
*DIM_0066
 70
    65
 10
0.0
 20
0.0
  0
LINE
  8
寸法
  6
CONTINUOUS
 10
-126.360325
 20
57.823265
 11
-93.236702
 21
90.946888
  0
LINE
  8
寸法
  6
CONTINUOUS
 10
-101.085515
 20
98.795697
 11
-93.236702
 21
90.946888
  0
POINT
  8
寸法
 10
-93.236702
 20
90.946888
 50
-45.0
  0
TEXT
  7
TextStyle03
  8
寸法
  6
CONTINUOUS
 10
-95.119146
 20
92.265466
  1
11.1
 40
3.0
 50
135.0
 72
     5
 11
-99.759534
 21
96.905854
  0
ENDBLK
  0
BLOCK
  2
*GRP_0067
 70
    65
 10
0.0
 20
0.0
  0
POLYLINE
  8
寸法
  6
CONTINUOUS
 66
     1
  0
VERTEX
  8
寸法
 10
-42.15849
 20
7.369292
  0
VERTEX
  8
寸法
 10
-52.251328
 20
17.46213
  0
VERTEX
  8
寸法
 10
-84.967152
 20
17.46213
  0
SEQEND
  0
ENDBLK
  0
BLOCK
  2
*GRP_0068
 70
    65
 10
0.0
 20
0.0
  0
POLYLINE
  8
寸法
  6
CONTINUOUS
 66
     1
  0
VERTEX
  8
寸法
 10
-57.81393
 20
-6.987022
  0
VERTEX
  8
寸法
 10
-67.228265
 20
2.427312
  0
VERTEX
  8
寸法
 10
-84.911295
 20
2.427312
  0
SEQEND
  0
ENDBLK
  0
BLOCK
  2
*GRP_0069
 70
    65
 10
0.0
 20
0.0
  0
POLYLINE
  8
寸法
  6
CONTINUOUS
 66
     1
  0
VERTEX
  8
寸法
 10
-24.115197
 20
-21.47653
  0
VERTEX
  8
寸法
 10
-1.058637
 20
-22.555985
  0
VERTEX
  8
寸法
 10
1.161093
 20
-22.555985
  0
SEQEND
  0
ENDBLK
  0
BLOCK
  2
*GRP_0070
 70
    65
 10
0.0
 20
0.0
  0
LINE
  8
寸法
  6
CONTINUOUS
 10
-18.18485
 20
-73.191635
 11
-24.80674
 21
-70.416972
  0
ENDBLK
  0
BLOCK
  2
*GRP_0071
 70
    65
 10
0.0
 20
0.0
  0
POLYLINE
  8
寸法
  6
CONTINUOUS
 66
     1
  0
VERTEX
  8
寸法
 10
-36.751055
 20
-45.366003
  0
VERTEX
  8
寸法
 10
-36.447322
 20
-57.84668
  0
VERTEX
  8
寸法
 10
-40.220865
 20
-57.84668
  0
SEQEND
  0
ENDBLK
  0
BLOCK
  2
*GRP_0072
 70
    65
 10
0.0
 20
0.0
  0
POLYLINE
  8
寸法
  6
CONTINUOUS
 66
     1
  0
VERTEX
  8
寸法
 10
-13.384605
 20
-34.302835
  0
VERTEX
  8
寸法
 10
-11.539213
 20
-36.148228
  0
VERTEX
  8
寸法
 10
32.574282
 20
-36.148228
  0
SEQEND
  0
ENDBLK
  0
BLOCK
  2
*GRP_0073
 70
    65
 10
0.0
 20
0.0
  0
LINE
  8
型材断面
  6
CONTINUOUS
 10
-39.70088
 20
-45.48721
 11
-41.822203
 21
-46.901425
  0
LINE
  8
型材断面
  6
CONTINUOUS
 10
-45.357733
 20
-43.365888
 11
-43.94354
 21
-41.244603
  0
LINE
  8
型材断面
  6
CONTINUOUS
 10
-42.65393
 20
-48.898128
 11
-39.853783
 21
-47.031362
  0
LINE
  8
型材断面
  6
CONTINUOUS
 10
-39.853783
 20
-47.031362
 11
-39.135192
 21
-47.749953
  0
LINE
  8
型材断面
  6
CONTINUOUS
 10
-39.135192
 20
-47.749953
 11
-38.286665
 21
-46.901425
  0
LINE
  8
型材断面
  6
CONTINUOUS
 10
-39.70088
 20
-45.48721
 11
-38.286665
 21
-46.901425
  0
LINE
  8
型材断面
  6
CONTINUOUS
 10
-43.802105
 20
-45.34579
 11
-43.802105
 21
-44.921522
  0
LINE
  8
型材断面
  6
CONTINUOUS
 10
-43.802105
 20
-45.34579
 11
-43.377837
 21
-45.34579
  0
LINE
  8
型材断面
  6
CONTINUOUS
 10
-45.357733
 20
-43.365888
 11
-43.802105
 21
-44.921522
  0
LINE
  8
型材断面
  6
CONTINUOUS
 10
-43.377837
 20
-45.34579
 11
-41.822203
 21
-46.901425
  0
LINE
  8
型材断面
  6
CONTINUOUS
 10
-42.65393
 20
-48.898128
 11
-47.931328
 21
-43.620723
  0
LINE
  8
型材断面
  6
CONTINUOUS
 10
-47.931328
 20
-43.620723
 11
-46.51712
 21
-41.499415
  0
LINE
  8
型材断面
  6
CONTINUOUS
 10
-68.404782
 20
-18.193083
 11
-66.990567
 21
-16.778867
  0
LINE
  8
型材断面
  6
CONTINUOUS
 10
-66.63701
 20
-17.132425
 11
-66.990567
 21
-16.778867
  0
LINE
  8
型材断面
  6
CONTINUOUS
 10
-58.151735
 20
-17.132425
 11
-57.798178
 21
-16.778867
  0
LINE
  8
型材断面
  6
CONTINUOUS
 10
-60.980158
 20
-19.960848
 11
-59.212392
 21
-18.193083
  0
LINE
  8
型材断面
  6
CONTINUOUS
 10
-59.9195
 20
-17.485975
 11
-59.9195
 21
-16.778867
  0
LINE
  8
型材断面
  6
CONTINUOUS
 10
-59.9195
 20
-16.778867
 11
-60.626607
 21
-16.778867
  0
LINE
  8
型材断面
  6
CONTINUOUS
 10
-60.980158
 20
-16.425317
 11
-60.980158
 21
-15.71821
  0
LINE
  8
型材断面
  6
CONTINUOUS
 10
-60.980158
 20
-15.71821
 11
-61.687265
 21
-15.71821
  0
LINE
  8
型材断面
  6
CONTINUOUS
 10
-59.212392
 20
-18.193083
 11
-59.9195
 21
-17.485975
  0
LINE
  8
型材断面
  6
CONTINUOUS
 10
-60.626607
 20
-16.778867
 11
-60.980158
 21
-16.425317
  0
LINE
  8
型材断面
  6
CONTINUOUS
 10
-46.625893
 20
-14.798973
 11
-46.130915
 21
-14.303995
  0
LINE
  8
型材断面
  6
CONTINUOUS
 10
-46.272335
 20
-15.152523
 11
-46.625893
 21
-14.798973
  0
LINE
  8
型材断面
  6
CONTINUOUS
 10
-53.343402
 20
-22.22359
 11
-53.69696
 21
-21.87004
  0
LINE
  8
型材断面
  6
CONTINUOUS
 10
-54.191938
 20
-22.36501
 11
-53.69696
 21
-21.87004
  0
LINE
  8
型材断面
  6
CONTINUOUS
 10
-53.83838
 20
-22.718567
 11
-54.191938
 21
-22.36501
  0
LINE
  8
型材断面
  6
CONTINUOUS
 10
-56.030412
 20
-24.9106
 11
-53.83838
 21
-22.718567
  0
LINE
  8
型材断面
  6
CONTINUOUS
 10
-49.100765
 20
-17.980952
 11
-49.100765
 21
-18.405213
  0
LINE
  8
型材断面
  6
CONTINUOUS
 10
-49.100765
 20
-18.405213
 11
-49.525032
 21
-18.405213
  0
LINE
  8
型材断面
  6
CONTINUOUS
 10
-53.343402
 20
-22.22359
 11
-49.525032
 21
-18.405213
  0
LINE
  8
型材断面
  6
CONTINUOUS
 10
-49.100765
 20
-17.980952
 11
-46.272335
 21
-15.152523
  0
LINE
  8
型材断面
  6
CONTINUOUS
 10
-60.27305
 20
-15.011103
 11
-60.27305
 21
-14.303995
  0
LINE
  8
型材断面
  6
CONTINUOUS
 10
-57.798178
 20
-16.778867
 11
-59.565942
 21
-15.011103
  0
LINE
  8
型材断面
  6
CONTINUOUS
 10
-59.565942
 20
-15.011103
 11
-60.27305
 21
-15.011103
  0
LINE
  8
型材断面
  6
CONTINUOUS
 10
-64.162137
 20
-16.778867
 11
-64.515695
 21
-16.425317
  0
LINE
  8
型材断面
  6
CONTINUOUS
 10
-64.162137
 20
-17.485975
 11
-64.162137
 21
-16.778867
  0
LINE
  8
型材断面
  6
CONTINUOUS
 10
-63.45503
 20
-17.485975
 11
-64.162137
 21
-17.485975
  0
LINE
  8
型材断面
  6
CONTINUOUS
 10
-63.10148
 20
-17.839533
 11
-63.45503
 21
-17.485975
  0
LINE
  8
型材断面
  6
CONTINUOUS
 10
-63.10148
 20
-18.546633
 11
-63.10148
 21
-17.839533
  0
LINE
  8
型材断面
  6
CONTINUOUS
 10
-66.63701
 20
-17.132425
 11
-65.364222
 21
-15.85963
  0
ARC
  8
型材断面
  6
CONTINUOUS
 10
-65.222795
 20
-16.001049
 40
0.2
 50
331.874494
 51
495.0
  0
LINE
  8
型材断面
  6
CONTINUOUS
 10
-65.046418
 20
-16.095333
 11
-65.222803
 21
-16.425317
  0
LINE
  8
型材断面
  6
CONTINUOUS
 10
-64.515695
 20
-16.425317
 11
-65.222803
 21
-16.425317
  0
LINE
  8
型材断面
  6
CONTINUOUS
 10
-60.980158
 20
-19.960848
 11
-62.394373
 21
-18.546633
  0
LINE
  8
型材断面
  6
CONTINUOUS
 10
-62.394373
 20
-18.546633
 11
-63.10148
 21
-18.546633
  0
LINE
  8
型材断面
  6
CONTINUOUS
 10
-59.565942
 20
-21.375062
 11
-56.030412
 21
-24.9106
  0
LINE
  8
型材断面
  6
CONTINUOUS
 10
-43.94354
 20
-41.244603
 11
-48.893217
 21
-36.29476
  0
ARC
  8
型材断面
  6
CONTINUOUS
 10
-47.478977
 20
-34.880572
 40
2.0
 50
134.999863
 51
224.999045
  0
LINE
  8
型材断面
  6
CONTINUOUS
 10
-73.080253
 20
-21.030077
 11
-73.080253
 21
-87.37363
  0
LINE
  8
型材断面
  6
CONTINUOUS
 10
-69.080255
 20
-21.696985
 11
-71.580253
 21
-24.196983
  0
LINE
  8
型材断面
  6
CONTINUOUS
 10
-71.580253
 20
-85.87363
 11
-71.580253
 21
-24.196983
  0
LINE
  8
型材断面
  6
CONTINUOUS
 10
-69.080255
 20
-21.696985
 11
-69.080255
 21
-26.196985
  0
LINE
  8
型材断面
  6
CONTINUOUS
 10
-67.580255
 20
-20.196985
 11
-67.580255
 21
-26.196985
  0
LINE
  8
型材断面
  6
CONTINUOUS
 10
-69.080255
 20
-26.196985
 11
-67.580255
 21
-26.196985
  0
LINE
  8
型材断面
  6
CONTINUOUS
 10
-46.080253
 20
-101.373632
 11
-48.080255
 21
-101.373632
  0
LINE
  8
型材断面
  6
CONTINUOUS
 10
-48.080255
 20
-101.373632
 11
-48.080255
 21
-87.37363
  0
LINE
  8
型材断面
  6
CONTINUOUS
 10
-73.080253
 20
-87.37363
 11
-48.080255
 21
-87.37363
  0
LINE
  8
型材断面
  6
CONTINUOUS
 10
-46.080253
 20
-101.373632
 11
-46.080253
 21
-87.37363
  0
LINE
  8
型材断面
  6
CONTINUOUS
 10
-71.580253
 20
-85.87363
 11
-20.084832
 21
-85.87363
  0
LINE
  8
型材断面
  6
CONTINUOUS
 10
-46.080253
 20
-87.37363
 11
-20.084832
 21
-87.37363
  0
ARC
  8
型材断面
  6
CONTINUOUS
 10
-17.584814
 20
-94.773732
 40
0.5
 50
270.0
 51
360.0
  0
LINE
  8
型材断面
  6
CONTINUOUS
 10
-17.084832
 20
-94.773715
 11
-17.084832
 21
-94.273712
  0
ARC
  8
型材断面
  6
CONTINUOUS
 10
-17.584814
 20
-94.273732
 40
0.5
 50
0.0
 51
90.0
  0
LINE
  8
型材断面
  6
CONTINUOUS
 10
-20.084832
 20
-94.773715
 11
-20.084832
 21
-91.373718
  0
LINE
  8
型材断面
  6
CONTINUOUS
 10
-19.584837
 20
-95.273718
 11
-17.584835
 21
-95.273718
  0
ARC
  8
型材断面
  6
CONTINUOUS
 10
-19.584814
 20
-94.773732
 40
0.5
 50
180.0
 51
270.0
  0
LINE
  8
型材断面
  6
CONTINUOUS
 10
-17.584835
 20
-93.773718
 11
-18.584832
 21
-93.773718
  0
LINE
  8
型材断面
  6
CONTINUOUS
 10
-20.084832
 20
-89.873718
 11
-22.584837
 21
-89.873718
  0
LINE
  8
型材断面
  6
CONTINUOUS
 10
-22.584837
 20
-89.873718
 11
-22.584837
 21
-91.373718
  0
LINE
  8
型材断面
  6
CONTINUOUS
 10
-20.084832
 20
-91.373718
 11
-22.584837
 21
-91.373718
  0
LINE
  8
型材断面
  6
CONTINUOUS
 10
-12.884832
 20
-77.973715
 11
-13.184832
 21
-77.673715
  0
LINE
  8
型材断面
  6
CONTINUOUS
 10
-13.184832
 20
-77.673715
 11
-13.484832
 21
-77.973715
  0
LINE
  8
型材断面
  6
CONTINUOUS
 10
-9.684837
 20
-76.473715
 11
-9.684837
 21
-77.973715
  0
LINE
  8
型材断面
  6
CONTINUOUS
 10
-12.884832
 20
-77.973715
 11
-9.684837
 21
-77.973715
  0
LINE
  8
型材断面
  6
CONTINUOUS
 10
-23.584835
 20
-78.473718
 11
-23.584835
 21
-75.473718
  0
LINE
  8
型材断面
  6
CONTINUOUS
 10
-22.584837
 20
-76.973718
 11
-22.584837
 21
-78.473718
  0
LINE
  8
型材断面
  6
CONTINUOUS
 10
-23.584835
 20
-78.473718
 11
-22.584837
 21
-78.473718
  0
LINE
  8
型材断面
  6
CONTINUOUS
 10
-18.584832
 20
-93.773718
 11
-18.584832
 21
-77.973715
  0
LINE
  8
型材断面
  6
CONTINUOUS
 10
-13.484832
 20
-77.973715
 11
-18.584832
 21
-77.973715
  0
LINE
  8
型材断面
  6
CONTINUOUS
 10
-22.584837
 20
-76.973718
 11
-20.084832
 21
-76.973718
  0
LINE
  8
型材断面
  6
CONTINUOUS
 10
-9.684837
 20
-76.473715
 11
-18.884832
 21
-76.473715
  0
LINE
  8
型材断面
  6
CONTINUOUS
 10
-18.884832
 20
-76.473715
 11
-18.884832
 21
-75.473718
  0
LINE
  8
型材断面
  6
CONTINUOUS
 10
-23.584835
 20
-75.473718
 11
-18.884832
 21
-75.473718
  0
LINE
  8
型材断面
  6
CONTINUOUS
 10
-20.084832
 20
-76.973718
 11
-20.084832
 21
-85.87363
  0
LINE
  8
型材断面
  6
CONTINUOUS
 10
-20.084832
 20
-89.873718
 11
-20.084832
 21
-87.37363
  0
LINE
  8
型材断面
  6
CONTINUOUS
 10
-60.803383
 20
-12.713005
 11
-59.742725
 21
-13.773662
  0
LINE
  8
型材断面
  6
CONTINUOUS
 10
-60.27305
 20
-14.303995
 11
-59.742725
 21
-13.773662
  0
LINE
  8
型材断面
  6
CONTINUOUS
 10
-60.803383
 20
-12.713005
 11
-62.74793
 21
-14.657545
  0
LINE
  8
型材断面
  6
CONTINUOUS
 10
-61.687265
 20
-15.71821
 11
-62.74793
 21
-14.657545
  0
LINE
  8
型材断面
  6
CONTINUOUS
 10
-58.151735
 20
-17.132425
 11
-56.737512
 21
-18.546633
  0
LINE
  8
型材断面
  6
CONTINUOUS
 10
-59.565942
 20
-21.375062
 11
-56.737512
 21
-18.546633
  0
LINE
  8
型材断面
  6
CONTINUOUS
 10
-68.404782
 20
-18.193083
 11
-69.32402
 21
-17.273845
  0
LINE
  8
型材断面
  6
CONTINUOUS
 10
-73.080253
 20
-21.030077
 11
-69.32402
 21
-17.273845
  0
LINE
  8
型材断面
  6
CONTINUOUS
 10
-48.893195
 20
-33.466352
 11
-48.183935
 21
-32.7571
  0
LINE
  8
型材断面
  6
CONTINUOUS
 10
-46.130915
 20
-14.303995
 11
-37.93085
 21
-22.50406
  0
LINE
  8
型材断面
  6
CONTINUOUS
 10
-37.93085
 20
-22.50406
 11
-38.991507
 21
-23.56471
  0
LINE
  8
型材断面
  6
CONTINUOUS
 10
-66.990567
 20
-19.607298
 11
-67.580255
 21
-20.196985
  0
ARC
  8
型材断面
  6
CONTINUOUS
 10
-65.576346
 20
-21.021514
 40
2.0
 50
45.0
 51
135.0
  0
LINE
  8
型材断面
  6
CONTINUOUS
 10
-46.51712
 20
-41.499415
 11
-53.13578
 21
-34.880508
  0
LINE
  8
型材断面
  6
CONTINUOUS
 10
-64.162137
 20
-19.607298
 11
-51.719458
 21
-32.049978
  0
LINE
  8
型材断面
  6
CONTINUOUS
 10
-53.13578
 20
-34.880508
 11
-51.719465
 21
-33.464192
  0
ARC
  8
型材断面
  6
CONTINUOUS
 10
-52.426561
 20
-32.757086
 40
1.0
 50
314.999899
 51
405.0
  0
LINE
  8
型材断面
  6
CONTINUOUS
 10
-38.991507
 20
-23.56471
 11
-45.4238
 21
-17.132417
  0
LINE
  8
型材断面
  6
CONTINUOUS
 10
-45.4238
 20
-17.132417
 11
-54.616197
 21
-26.324815
  0
LINE
  8
型材断面
  6
CONTINUOUS
 10
-48.183935
 20
-32.7571
 11
-54.616197
 21
-26.324815
  0
ENDBLK
  0
ENDSEC
  0
SECTION
  2
ENTITIES
  0
POLYLINE
  8
通り芯
  6
CONTINUOUS
 66
     1
 70
     1
  0
VERTEX
  8
通り芯
 10
-210.0
 20
-148.5
  0
VERTEX
  8
通り芯
 10
210.0
 20
-148.5
  0
VERTEX
  8
通り芯
 10
210.0
 20
148.5
  0
VERTEX
  8
通り芯
 10
-210.0
 20
148.5
  0
SEQEND
  0
INSERT
  2
*GRP_0045
  8
通り芯
  6
CONTINUOUS
 10
0.0
 20
0.0
  0
INSERT
  2
*GRP_0001
  8
型材断面
  6
CONTINUOUS
 10
0.0
 20
0.0
  0
LINE
  8
型材断面
  6
CONTINUOUS
 10
5.919737
 20
77.605938
 11
10.9824
 21
78.861235
  0
LINE
  8
型材断面
  6
CONTINUOUS
 10
5.919737
 20
77.605938
 11
10.9824
 21
76.35064
  0
LINE
  8
型材断面
  6
CONTINUOUS
 10
10.9824
 20
78.861235
 11
10.9824
 21
76.35064
  0
LINE
  8
型材断面
  6
CONTINUOUS
 10
5.919737
 20
77.605938
 11
116.775545
 21
77.605938
  0
LINE
  8
型材断面
  6
CONTINUOUS
 10
116.775545
 20
77.605938
 11
111.712882
 21
78.861235
  0
LINE
  8
型材断面
  6
CONTINUOUS
 10
116.775545
 20
77.605938
 11
111.712882
 21
76.35064
  0
LINE
  8
型材断面
  6
CONTINUOUS
 10
111.712882
 20
78.861235
 11
111.712882
 21
76.35064
  0
LINE
  8
型材断面
  6
CONTINUOUS
 10
114.729055
 20
77.605938
 11
109.666393
 21
78.861235
  0
LINE
  8
型材断面
  6
CONTINUOUS
 10
114.729055
 20
77.605938
 11
109.666393
 21
76.35064
  0
LINE
  8
型材断面
  6
CONTINUOUS
 10
109.666393
 20
78.861235
 11
109.666393
 21
76.35064
  0
LINE
  8
型材断面
  6
DASHDOT
 10
5.919737
 20
-65.429447
 11
5.919737
 21
77.605938
  0
INSERT
  2
*GRP_0012
  8
型材断面
  6
DOT
 10
0.0
 20
0.0
  0
INSERT
  2
*GRP_0013
  8
型材断面
  6
DOT
 10
0.0
 20
0.0
  0
LINE
  8
型材断面
  6
CONTINUOUS
 10
-9.790265
 20
-18.829382
 11
17.85577
 21
-46.47541
  0
INSERT
  2
*GRP_0026
  8
型材断面
  6
DOT
 10
0.0
 20
0.0
  0
INSERT
  2
*GRP_0027
  8
型材断面
  6
CONTINUOUS
 10
0.0
 20
0.0
  0
INSERT
  2
*GRP_0028
  8
型材断面
  6
CONTINUOUS
 62
    47
 10
0.0
 20
0.0
  0
LINE
  8
型材断面
  6
DOT
 10
-20.75039
 20
-26.96098
 11
-22.09391
 21
-28.304478
  0
LINE
  8
型材断面
  6
DOT
 10
-24.356645
 20
-30.567205
 11
-25.70015
 21
-31.910703
  0
LINE
  8
型材断面
  6
DOT
 10
-21.08627
 20
-27.296853
 11
-25.965297
 21
-22.417825
  0
LINE
  8
型材断面
  6
DOT
 10
-21.42215
 20
-27.632733
 11
-26.25875
 21
-22.796125
  0
LINE
  8
型材断面
  6
DOT
 10
-21.75803
 20
-27.968605
 11
-26.19158
 21
-23.535048
  0
LINE
  8
型材断面
  6
DOT
 10
-29.126075
 20
-26.46952
 11
-24.692525
 21
-30.903078
  0
LINE
  8
型材断面
  6
DOT
 10
-29.865013
 20
-26.402343
 11
-25.028398
 21
-31.238958
  0
LINE
  8
型材断面
  6
DOT
 10
-30.24329
 20
-26.695817
 11
-25.364278
 21
-31.57483
  0
LINE
  8
型材断面
  6
DOT
 10
-71.580253
 20
-85.87363
 11
-73.080253
 21
-85.87363
  0
LINE
  8
型材断面
  6
DOT
 10
-71.580253
 20
-77.873628
 11
-73.080253
 21
-77.873628
  0
LINE
  8
型材断面
  6
DOT
 10
-71.955253
 20
-85.87363
 11
-71.955253
 21
-77.873628
  0
LINE
  8
型材断面
  6
DOT
 10
-72.330253
 20
-85.87363
 11
-72.330253
 21
-77.873628
  0
LINE
  8
型材断面
  6
DOT
 10
-72.705253
 20
-85.87363
 11
-72.705253
 21
-77.873628
  0
INSERT
  2
*GRP_0029
  8
型材断面
  6
CONTINUOUS
 10
0.0
 20
0.0
  0
LINE
  8
型材断面
  6
CONTINUOUS
 10
17.856115
 20
-46.475162
 11
66.629545
 21
2.298267
  0
LINE
  8
型材断面
  6
CONTINUOUS
 10
10.077865
 20
-38.697085
 11
58.851377
 21
10.076435
  0
LINE
  8
型材断面
  6
CONTINUOUS
 10
-9.15206
 20
-14.800645
 11
37.288195
 21
31.639617
  0
LINE
  8
型材断面
  6
CONTINUOUS
 10
-10.002358
 20
-8.71762
 11
33.821537
 21
35.106275
  0
LINE
  8
型材断面
  6
CONTINUOUS
 10
-74.14091
 20
-18.554732
 11
6.670817
 21
62.256995
  0
LINE
  8
型材断面
  6
CONTINUOUS
 10
-73.080253
 20
-19.61539
 11
7.731475
 21
61.196337
  0
LINE
  8
型材断面
  6
CONTINUOUS
 10
-11.98226
 20
-6.737717
 11
31.841635
 21
37.086177
  0
LINE
  8
型材断面
  6
CONTINUOUS
 10
-4.62842
 20
-20.738357
 11
42.518875
 21
26.408937
  0
LINE
  8
型材断面
  6
CONTINUOUS
 10
-74.14091
 20
-18.554732
 11
-73.080253
 21
-19.61539
  0
INSERT
  2
*GRP_0058
  8
型材断面
  6
CONTINUOUS
 10
0.0
 20
0.0
  0
INSERT
  2
*GRP_0059
  8
型材断面
  6
CONTINUOUS
 10
0.0
 20
0.0
  0
POLYLINE
  8
型材断面
  6
CONTINUOUS
 66
     1
 70
     1
  0
VERTEX
  8
型材断面
 10
-88.659772
 20
122.763275
  0
VERTEX
  8
型材断面
 10
-175.710393
 20
122.763275
  0
VERTEX
  8
型材断面
 10
-175.710393
 20
35.418565
  0
VERTEX
  8
型材断面
 10
-88.659772
 20
35.418565
  0
SEQEND
  0
INSERT
  2
*GRP_0073
  8
型材断面
  6
CONTINUOUS
 10
0.0
 20
0.0
  0
INSERT
  2
*GRP_0014
  8
ガラス
  6
CONTINUOUS
 10
0.0
 20
0.0
  0
INSERT
  2
*GRP_0015
  8
ガラス
  6
CONTINUOUS
 10
0.0
 20
0.0
  0
INSERT
  2
*GRP_0016
  8
ガラス
  6
CONTINUOUS
 10
0.0
 20
0.0
  0
INSERT
  2
*GRP_0017
  8
ガラス
  6
CONTINUOUS
 10
0.0
 20
0.0
  0
INSERT
  2
*GRP_0018
  8
ガラス
  6
CONTINUOUS
 10
0.0
 20
0.0
  0
INSERT
  2
*GRP_0019
  8
ガラス
  6
CONTINUOUS
 10
0.0
 20
0.0
  0
INSERT
  2
*GRP_0020
  8
ガラス
  6
CONTINUOUS
 10
0.0
 20
0.0
  0
INSERT
  2
*GRP_0021
  8
ガラス
  6
CONTINUOUS
 10
0.0
 20
0.0
  0
INSERT
  2
*GRP_0022
  8
ガラス
  6
CONTINUOUS
 10
0.0
 20
0.0
  0
INSERT
  2
*GRP_0023
  8
ガラス
  6
CONTINUOUS
 10
0.0
 20
0.0
  0
INSERT
  2
*GRP_0024
  8
ガラス
  6
CONTINUOUS
 10
0.0
 20
0.0
  0
LINE
  8
ガラス
  6
CONTINUOUS
 10
-27.185908
 20
-13.456067
 11
-39.772408
 21
-0.869567
  0
LINE
  8
ガラス
  6
CONTINUOUS
 10
-31.99424
 20
-0.16246
 11
-27.751595
 21
-4.405105
  0
LINE
  8
ガラス
  6
CONTINUOUS
 10
-27.751595
 20
-4.405105
 11
-36.236877
 21
-4.405098
  0
LINE
  8
ガラス
  6
CONTINUOUS
 10
-31.99424
 20
-0.16246
 11
-31.99424
 21
-8.64775
  0
LINE
  8
ガラス
  6
CONTINUOUS
 10
-27.539458
 20
-13.102517
 11
27.245433
 21
41.68238
  0
LINE
  8
ガラス
  6
CONTINUOUS
 10
-27.185908
 20
-13.456067
 11
27.598983
 21
41.32883
  0
LINE
  8
ガラス
  6
CONTINUOUS
 10
-31.994232
 20
-8.647743
 11
22.790665
 21
46.137155
  0
LINE
  8
ガラス
  6
CONTINUOUS
 10
-39.772408
 20
-0.869567
 11
15.012483
 21
53.91533
  0
LINE
  8
ガラス
  6
CONTINUOUS
 10
-39.418858
 20
-1.223117
 11
15.366033
 21
53.56178
  0
LINE
  8
ガラス
  6
CONTINUOUS
 10
-36.590427
 20
-4.051548
 11
18.19447
 21
50.73335
  0
LINE
  8
ガラス
  6
CONTINUOUS
 10
-36.236877
 20
-4.405098
 11
18.548013
 21
50.3798
  0
LINE
  8
ガラス
  6
CONTINUOUS
 10
-31.640683
 20
-9.001292
 11
23.144215
 21
45.783605
  0
INSERT
  2
*GRP_0042
  8
ガラス
  6
CONTINUOUS
 10
0.0
 20
0.0
  0
INSERT
  2
*GRP_0043
  8
ガラス
  6
CONTINUOUS
 10
0.0
 20
0.0
  0
INSERT
  2
*GRP_0044
  8
ガラス
  6
CONTINUOUS
 10
0.0
 20
0.0
  0
LINE
  8
ガラス
  6
CONTINUOUS
 10
-159.735707
 20
79.460645
 11
-130.03875
 21
109.157603
  0
LINE
  8
ガラス
  6
CONTINUOUS
 10
-159.382162
 20
79.1071
 11
-129.685205
 21
108.804058
  0
LINE
  8
ガラス
  6
CONTINUOUS
 10
-142.199453
 20
61.9244
 11
-112.5025
 21
91.621352
  0
LINE
  8
ガラス
  6
CONTINUOUS
 10
-155.493065
 20
75.218005
 11
-125.796108
 21
104.914963
  0
LINE
  8
ガラス
  6
CONTINUOUS
 10
-147.007785
 20
66.732723
 11
-117.310827
 21
96.42968
  0
LINE
  8
ガラス
  6
CONTINUOUS
 10
-159.735707
 20
79.460645
 11
-142.19945
 21
61.924402
  0
LINE
  8
ガラス
  6
CONTINUOUS
 10
-147.007783
 20
83.703288
 11
-138.522498
 21
75.21801
  0
LINE
  8
ガラス
  6
CONTINUOUS
 10
-155.84662
 20
75.571558
 11
-126.149662
 21
105.268515
  0
LINE
  8
ガラス
  6
CONTINUOUS
 10
-146.65423
 20
66.37917
 11
-116.957273
 21
96.076128
  0
LINE
  8
ガラス
  6
CONTINUOUS
 10
-142.553005
 20
62.277955
 11
-112.856052
 21
91.974907
  0
LINE
  8
ガラス
  6
CONTINUOUS
 10
-147.007785
 20
66.732723
 11
-147.007783
 21
83.703288
  0
LINE
  8
ガラス
  6
CONTINUOUS
 10
-155.493065
 20
75.218005
 11
-138.522498
 21
75.21801
  0
INSERT
  2
*GRP_0030
  8
ゴム等
  6
CONTINUOUS
 10
0.0
 20
0.0
  0
INSERT
  2
*GRP_0031
  8
ゴム等
  6
CONTINUOUS
 10
0.0
 20
0.0
  0
INSERT
  2
*GRP_0032
  8
ゴム等
  6
CONTINUOUS
 10
0.0
 20
0.0
  0
INSERT
  2
*GRP_0033
  8
ゴム等
  6
CONTINUOUS
 10
0.0
 20
0.0
  0
INSERT
  2
*GRP_0034
  8
ゴム等
  6
CONTINUOUS
 10
0.0
 20
0.0
  0
INSERT
  2
*GRP_0035
  8
ゴム等
  6
CONTINUOUS
 10
0.0
 20
0.0
  0
LINE
  8
ゴム等
  6
CONTINUOUS
 10
-45.429125
 20
4.78715
 11
9.355773
 21
59.572048
  0
LINE
  8
ゴム等
  6
CONTINUOUS
 10
-50.944197
 20
1.817045
 11
8.083285
 21
60.844528
  0
INSERT
  2
*GRP_0040
  8
ゴム等
  6
CONTINUOUS
 10
0.0
 20
0.0
  0
INSERT
  2
*GRP_0046
  8
ゴム等
  6
CONTINUOUS
 10
0.0
 20
0.0
  0
INSERT
  2
*GRP_0060
  8
ゴム等
  6
CONTINUOUS
 10
0.0
 20
0.0
  0
INSERT
  2
*GRP_0061
  8
ゴム等
  6
CONTINUOUS
 10
0.0
 20
0.0
  0
INSERT
  2
*GRP_0062
  8
ゴム等
  6
CONTINUOUS
 10
0.0
 20
0.0
  0
INSERT
  2
*GRP_0002
  8
ボルト／ビス
  6
CONTINUOUS
 62
    64
 10
0.0
 20
0.0
  0
INSERT
  2
*GRP_0036
  8
ボルト／ビス
  6
CONTINUOUS
 10
0.0
 20
0.0
  0
INSERT
  2
*GRP_0037
  8
ボルト／ビス
  6
CONTINUOUS
 10
0.0
 20
0.0
  0
INSERT
  2
*GRP_0041
  8
ボルト／ビス
  6
CONTINUOUS
 10
0.0
 20
0.0
  0
INSERT
  2
*GRP_0047
  8
ボルト／ビス
  6
CONTINUOUS
 10
0.0
 20
0.0
  0
INSERT
  2
*GRP_0048
  8
ボルト／ビス
  6
CONTINUOUS
 10
0.0
 20
0.0
  0
INSERT
  2
*GRP_0050
  8
ボルト／ビス
  6
CONTINUOUS
 62
    64
 10
0.0
 20
0.0
  0
INSERT
  2
*GRP_0063
  8
ボルト／ビス
  6
CONTINUOUS
 10
0.0
 20
0.0
  0
TEXT
  7
TextStyle03
  8
文字
  6
CONTINUOUS
 10
95.425
 20
90.3
  1
ＮＳコード：ＮＳ４ＹＫ
 40
5.0
 72
     5
 11
156.675
 21
90.3
  0
TEXT
  7
TextStyle03
  8
文字
  6
CONTINUOUS
 10
95.425
 20
84.675
  1
　　　　　　ＮＳ４ＧＫ
 40
5.0
 72
     5
 11
156.675
 21
84.675
  0
TEXT
  7
TextStyle03
  8
文字
  6
CONTINUOUS
 10
95.8
 20
117.5
  1
シリーズ：ＤＦＹＫ・ＤＦ４Ｋ
 40
5.0
 72
     5
 11
173.925
 21
117.5
  0
TEXT
  7
TextStyle03
  8
文字
  6
CONTINUOUS
 10
95.8
 20
111.875
  1
　　　　　Ｖ型四角錘・四角錘
 40
5.0
 72
     5
 11
173.925
 21
111.875
  0
TEXT
  7
TextStyle03
  8
文字
  6
CONTINUOUS
 10
95.8
 20
106.25
  1
　　　　　（固定）
 40
5.0
 72
     5
 11
145.8
 21
106.25
  0
TEXT
  7
TextStyle03
  8
文字
  6
CONTINUOUS
 10
95.8
 20
100.625
  1
図面名　：下枠断面詳細図
 40
5.0
 72
     5
 11
162.675
 21
100.625
  0
TEXT
  7
TextStyle03
  8
文字
  6
CONTINUOUS
 10
67.7
 20
78.625
  1
呼称寸法
 40
3.5
 72
     5
 11
83.05
 21
78.625
  0
TEXT
  7
TextStyle03
  8
文字
  6
CONTINUOUS
 10
28.2
 20
-118.775
  1
コーナー部工場シール
 40
4.0
 72
     5
 11
72.7
 21
-118.775
  0
TEXT
  7
TextStyle03
  8
文字
  6
CONTINUOUS
 10
23.65
 20
-94.475
  1
全周シール
 40
4.0
 72
     5
 11
45.65
 21
-94.475
  0
TEXT
  7
TextStyle03
  8
文字
  6
CONTINUOUS
 10
44.975
 20
-85.425
  1
アンカー　St-3.2t
 40
4.0
 72
     5
 11
82.975
 21
-85.425
  0
TEXT
  7
TextStyle03
  8
文字
  6
CONTINUOUS
 10
-129.8
 20
41.3
  1
特ガラスタイプ
 40
3.5
 72
     5
 11
-102.6
 21
41.3
  0
TEXT
  7
TextStyle03
  8
文字
  6
CONTINUOUS
 10
-111.875
 20
0.65
  1
カバーガスケット
 40
3.0
 72
     5
 11
-85.425
 21
0.65
  0
TEXT
  7
TextStyle03
  8
文字
  6
CONTINUOUS
 10
-111.875
 20
-2.7
  1
(シリコン)
 40
3.0
 72
     5
 11
-95.3
 21
-2.7
  0
TEXT
  7
TextStyle03
  8
文字
  6
CONTINUOUS
 10
-110.925
 20
15.975
  1
リップガスケット
 40
3.0
 72
     5
 11
-84.475
 21
15.975
  0
TEXT
  7
TextStyle03
  8
文字
  6
CONTINUOUS
 10
-110.925
 20
12.625
  1
(シリコン)
 40
3.0
 72
     5
 11
-94.35
 21
12.625
  0
TEXT
  7
TextStyle03
  8
文字
  6
CONTINUOUS
 10
2.775
 20
-22.925
  1
断熱材
 40
3.0
 72
     5
 11
12.475
 21
-22.925
  0
TEXT
  7
TextStyle03
  8
文字
  6
CONTINUOUS
 10
2.775
 20
-26.275
  1
PVC
 40
3.0
 72
     5
 11
7.625
 21
-26.275
  0
TEXT
  7
TextStyle03
  8
文字
  6
CONTINUOUS
 10
-34.825
 20
-71.075
  1
断熱材
 40
3.0
 72
     5
 11
-25.125
 21
-71.075
  0
TEXT
  7
TextStyle03
  8
文字
  6
CONTINUOUS
 10
-34.825
 20
-74.425
  1
PVC
 40
3.0
 72
     5
 11
-29.975
 21
-74.425
  0
TEXT
  7
TextStyle03
  8
文字
  6
CONTINUOUS
 10
-50.35
 20
-58.775
  1
断熱材
 40
3.0
 72
     5
 11
-40.65
 21
-58.775
  0
TEXT
  7
TextStyle03
  8
文字
  6
CONTINUOUS
 10
-50.35
 20
-62.125
  1
PVC
 40
3.0
 72
     5
 11
-45.5
 21
-62.125
  0
TEXT
  7
TextStyle03
  8
文字
  6
CONTINUOUS
 10
33.625
 20
-37.375
  1
耐火材：St-1.6t
 40
3.0
 72
     5
 11
58.75
 21
-37.375
  0
TEXT
  7
TextStyle03
  8
文字
  6
CONTINUOUS
 10
33.625
 20
-40.75
  1
(溶融亜鉛メッキ鋼板)
 40
3.0
 72
     5
 11
67.1875
 21
-40.75
  0
INSERT
  2
*GRP_0003
  8
寸法
  6
CONTINUOUS
 10
0.0
 20
0.0
  0
INSERT
  2
*DIM_0005
  8
寸法
  6
CONTINUOUS
 10
0.0
 20
0.0
  0
INSERT
  2
*DIM_0006
  8
寸法
  6
CONTINUOUS
 10
0.0
 20
0.0
  0
INSERT
  2
*DIM_0007
  8
寸法
  6
CONTINUOUS
 10
0.0
 20
0.0
  0
INSERT
  2
*DIM_0008
  8
寸法
  6
CONTINUOUS
 10
0.0
 20
0.0
  0
INSERT
  2
*GRP_0009
  8
寸法
  6
CONTINUOUS
 10
0.0
 20
0.0
  0
INSERT
  2
*GRP_0010
  8
寸法
  6
CONTINUOUS
 10
0.0
 20
0.0
  0
INSERT
  2
*GRP_0011
  8
寸法
  6
CONTINUOUS
 10
0.0
 20
0.0
  0
INSERT
  2
*GRP_0025
  8
寸法
  6
CONTINUOUS
 10
0.0
 20
0.0
  0
INSERT
  2
*DIM_0052
  8
寸法
  6
CONTINUOUS
 10
0.0
 20
0.0
  0
INSERT
  2
*DIM_0053
  8
寸法
  6
CONTINUOUS
 10
0.0
 20
0.0
  0
INSERT
  2
*DIM_0054
  8
寸法
  6
CONTINUOUS
 10
0.0
 20
0.0
  0
INSERT
  2
*DIM_0055
  8
寸法
  6
CONTINUOUS
 10
0.0
 20
0.0
  0
INSERT
  2
*DIM_0056
  8
寸法
  6
CONTINUOUS
 10
0.0
 20
0.0
  0
INSERT
  2
*DIM_0064
  8
寸法
  6
CONTINUOUS
 10
0.0
 20
0.0
  0
INSERT
  2
*DIM_0065
  8
寸法
  6
CONTINUOUS
 10
0.0
 20
0.0
  0
INSERT
  2
*DIM_0066
  8
寸法
  6
CONTINUOUS
 10
0.0
 20
0.0
  0
INSERT
  2
*GRP_0067
  8
寸法
  6
CONTINUOUS
 10
0.0
 20
0.0
  0
INSERT
  2
*GRP_0068
  8
寸法
  6
CONTINUOUS
 10
0.0
 20
0.0
  0
INSERT
  2
*GRP_0069
  8
寸法
  6
CONTINUOUS
 10
0.0
 20
0.0
  0
INSERT
  2
*GRP_0070
  8
寸法
  6
CONTINUOUS
 10
0.0
 20
0.0
  0
INSERT
  2
*GRP_0071
  8
寸法
  6
CONTINUOUS
 10
0.0
 20
0.0
  0
INSERT
  2
*GRP_0072
  8
寸法
  6
CONTINUOUS
 10
0.0
 20
0.0
  0
INSERT
  2
*HAT_0002
  8
ﾊｯﾁﾝｸﾞ
 10
0.0
 20
0.0
  0
INSERT
  2
*HAT_0003
  8
ﾊｯﾁﾝｸﾞ
 10
0.0
 20
0.0
  0
INSERT
  2
*HAT_0004
  8
ﾊｯﾁﾝｸﾞ
 10
0.0
 20
0.0
  0
INSERT
  2
*GRP_0038
  8
別途部材
  6
DOT
 10
0.0
 20
0.0
  0
INSERT
  2
*GRP_0049
  8
曲げ物
  6
CONTINUOUS
 10
0.0
 20
0.0
  0
INSERT
  2
*GRP_0004
  8
St
  6
DOT
 10
0.0
 20
0.0
  0
INSERT
  2
*GRP_0051
  8
St
  6
CONTINUOUS
 10
0.0
 20
0.0
  0
INSERT
  2
*GRP_0057
  8
St
  6
CONTINUOUS
 10
0.0
 20
0.0
  0
LINE
  8
その他部品等
  6
CONTINUOUS
 10
-2.77706
 20
-72.429445
 11
-9.684815
 21
-77.97364
  0
LINE
  8
その他部品等
  6
CONTINUOUS
 10
-17.195907
 20
-95.08786
 11
-9.684815
 21
-77.97364
  0
LINE
  8
その他部品等
  6
CONTINUOUS
 10
-46.080253
 20
-101.373632
 11
-19.584837
 21
-95.273718
  0
ENDSEC
  0
EOF
