  0
SECTION
  2
HEADER
  9
$EXTMIN
 10
-210.0
 20
-148.5
  9
$EXTMAX
 10
210.0
 20
148.5
  9
$PDMODE
 70
    32
  9
$PDSIZE
 40
1.5
  9
$LTSCALE
 40
10.0
  0
ENDSEC
  0
SECTION
  2
TABLES
  0
TABLE
  2
LTYPE
 70
    15
  0
LTYPE
  2
CONTINUOUS
 70
    64
  3
実線
 72
    65
 73
     0
 40
0.0
  0
LTYPE
  2
DASHED
 70
    64
  3
破線A
 72
    65
 73
     2
 40
0.6
 49
0.4
 49
-0.2
  0
LTYPE
  2
DASHEDX2
 70
    64
  3
破線B
 72
    65
 73
     2
 40
1.3
 49
0.9
 49
-0.4
  0
LTYPE
  2
DASHDOT
 70
    64
  3
１点鎖線A
 72
    65
 73
     4
 40
0.5375
 49
0.375
 49
-0.05
 49
0.0625
 49
-0.05
  0
LTYPE
  2
DASHDOTX2
 70
    64
  3
１点鎖線B
 72
    65
 73
     4
 40
1.075
 49
0.75
 49
-0.1
 49
0.125
 49
-0.1
  0
LTYPE
  2
DIVIDE2
 70
    64
  3
２点鎖線A
 72
    65
 73
     6
 40
0.5125
 49
0.3
 49
-0.0375
 49
0.05
 49
-0.0375
 49
0.05
 49
-0.0375
  0
LTYPE
  2
DIVIDE
 70
    64
  3
２点鎖線B
 72
    65
 73
     6
 40
1.05
 49
0.55
 49
-0.1
 49
0.1
 49
-0.1
 49
0.1
 49
-0.1
  0
LTYPE
  2
DOT
 70
    64
  3
点線A
 72
    65
 73
     2
 40
0.1125
 49
0.0625
 49
-0.05
  0
LTYPE
  2
DOTX2
 70
    64
  3
点線B
 72
    65
 73
     2
 40
0.275
 49
0.15
 49
-0.125
  0
LTYPE
  2
CONTINUOUS
 70
    64
  3
実線
 72
    65
 73
     0
 40
0.0
  0
LTYPE
  2
CONTINUOUS
 70
    64
  3
実線
 72
    65
 73
     0
 40
0.0
  0
LTYPE
  2
CONTINUOUS
 70
    64
  3
実線
 72
    65
 73
     0
 40
0.0
  0
LTYPE
  2
CONTINUOUS
 70
    64
  3
実線
 72
    65
 73
     0
 40
0.0
  0
LTYPE
  2
CONTINUOUS
 70
    64
  3
実線
 72
    65
 73
     0
 40
0.0
  0
LTYPE
  2
CONTINUOUS
 70
    64
  3
実線
 72
    65
 73
     0
 40
0.0
  0
ENDTAB
  0
TABLE
  2
LAYER
 70
    34
  0
LAYER
  2
通り芯
 70
     0
 62
    15
  6
CONTINUOUS
  0
LAYER
  2
補助線
 70
     0
 62
    16
  6
DOT
  0
LAYER
  2
躯体
 70
     0
 62
    31
  6
CONTINUOUS
  0
LAYER
  2
型材
 70
     0
 62
    32
  6
CONTINUOUS
  0
LAYER
  2
型材断面
 70
     0
 62
    47
  6
CONTINUOUS
  0
LAYER
  2
ガラス
 70
     0
 62
    48
  6
CONTINUOUS
  0
LAYER
  2
ゴム等
 70
     0
 62
    63
  6
CONTINUOUS
  0
LAYER
  2
ボルト／ビス
 70
     0
 62
    64
  6
CONTINUOUS
  0
LAYER
  2
文字
 70
     0
 62
    79
  6
CONTINUOUS
  0
LAYER
  2
寸法
 70
     0
 62
    80
  6
CONTINUOUS
  0
LAYER
  2
ﾊｯﾁﾝｸﾞ
 70
     0
 62
    95
  6
CONTINUOUS
  0
LAYER
  2
別途部材
 70
     0
 62
    96
  6
CONTINUOUS
  0
LAYER
  2
曲げ物
 70
     0
 62
   111
  6
CONTINUOUS
  0
LAYER
  2
鉄骨等
 70
     0
 62
   112
  6
CONTINUOUS
  0
LAYER
  2
St
 70
     0
 62
   127
  6
CONTINUOUS
  0
LAYER
  2
その他部品等
 70
     0
 62
   128
  6
CONTINUOUS
  0
LAYER
  2
ｶﾞｽｹｯﾄ
 70
     0
 62
   143
  6
CONTINUOUS
  0
LAYER
  2
ｽｹｯﾁ
 70
     0
 62
    14
  6
CONTINUOUS
  0
LAYER
  2
0
 70
     0
 62
    17
  6
CONTINUOUS
  0
LAYER
  2
1
 70
     0
 62
    30
  6
CONTINUOUS
  0
LAYER
  2
4
 70
     0
 62
    33
  6
CONTINUOUS
  0
LAYER
  2
ﾚｲﾔ3
 70
     0
 62
    46
  6
CONTINUOUS
  0
LAYER
  2
外形線
 70
     0
 62
    49
  6
CONTINUOUS
  0
LAYER
  2
部品
 70
     0
 62
    14
  6
CONTINUOUS
  0
LAYER
  2
サッシ芯
 70
     0
 62
    17
  6
DASHDOTX2
  0
LAYER
  2
寸法線
 70
     0
 62
    62
  6
CONTINUOUS
  0
LAYER
  2
姿図外形線
 70
     0
 62
    65
  6
CONTINUOUS
  0
LAYER
  2
姿補助線
 70
     0
 62
    30
  6
CONTINUOUS
  0
LAYER
  2
透視線
 70
     0
 62
    78
  6
DOT
  0
LAYER
  2
用紙
 70
     0
 62
    81
  6
CONTINUOUS
  0
LAYER
  2
実線図枠
 70
     0
 62
    94
  6
CONTINUOUS
  0
LAYER
  2
補助図枠
 70
     0
 62
    97
  6
CONTINUOUS
  0
LAYER
  2
建具記号
 70
     0
 62
   110
  6
CONTINUOUS
  0
LAYER
  2
補助文字
 70
     0
 62
   113
  6
CONTINUOUS
  0
ENDTAB
  0
TABLE
  2
STYLE
 70
    10
  0
STYLE
  2
STANDARD
 70
     0
 40
1.0
 41
1.0
 42
1.0
 50
0.0
 71
     0
  3
TXT
  4
BIGFONT
  0
STYLE
  2
TATE
 70
     4
 40
1.0
 41
1.0
 42
1.0
 50
0.0
 71
     0
  3
TXT
  4
BIGFONT
  0
STYLE
  2
TextStyle03
 70
     0
 40
1.0
 41
1.0
 42
1.0
 50
0.0
 71
     0
  3
MONOTXT
  4
BIGFONT
  0
STYLE
  2
TextStyle04
 70
     0
 40
1.0
 41
1.0
 42
1.0
 50
0.0
 71
     0
  3
MONOTXT
  4
BIGFONT
  0
STYLE
  2
TextStyle05
 70
     0
 40
1.0
 41
1.0
 42
1.0
 50
0.0
 71
     0
  3
MONOTXT
  4
BIGFONT
  0
STYLE
  2
TextStyle06
 70
     0
 40
1.0
 41
1.0
 42
1.0
 50
0.0
 71
     0
  3
MONOTXT
  4
BIGFONT
  0
STYLE
  2
TextStyle07
 70
     0
 40
1.0
 41
1.0
 42
1.0
 50
0.0
 71
     0
  3
MONOTXT
  4
BIGFONT
  0
STYLE
  2
TextStyle08
 70
     0
 40
1.0
 41
1.0
 42
1.0
 50
0.0
 71
     0
  3
MONOTXT
  4
BIGFONT
  0
STYLE
  2
TextStyle09
 70
     0
 40
1.0
 41
1.0
 42
1.0
 50
0.0
 71
     0
  3
MONOTXT
  4
BIGFONT
  0
STYLE
  2
TextStyle10
 70
     0
 40
1.0
 41
1.0
 42
1.0
 50
0.0
 71
     0
  3
MONOTXT
  4
BIGFONT
  0
ENDTAB
  0
ENDSEC
  0
SECTION
  2
BLOCKS
  0
BLOCK
  2
*GRP_0001
 70
    65
 10
0.0
 20
0.0
  0
LINE
  8
型材断面
  6
CONTINUOUS
 10
195.0
 20
133.5
 11
195.0
 21
-133.5
  0
LINE
  8
型材断面
  6
CONTINUOUS
 10
195.0
 20
-133.5
 11
-185.0
 21
-133.5
  0
LINE
  8
型材断面
  6
CONTINUOUS
 10
-185.0
 20
-133.5
 11
-185.0
 21
133.5
  0
LINE
  8
型材断面
  6
CONTINUOUS
 10
195.0
 20
133.5
 11
-185.0
 21
133.5
  0
LINE
  8
型材断面
  6
CONTINUOUS
 10
145.0
 20
-133.5
 11
145.0
 21
-118.5
  0
LINE
  8
型材断面
  6
CONTINUOUS
 10
195.0
 20
-118.5
 11
145.0
 21
-118.5
  0
ENDBLK
  0
BLOCK
  2
*DIM_0002
 70
    65
 10
0.0
 20
0.0
  0
LINE
  8
寸法
  6
BYBLOCK
 62
     0
 10
-85.245135
 20
-44.812283
 11
14.754865
 21
-44.812283
  0
POINT
  8
寸法
 62
     0
 10
-85.245135
 20
-44.812283
  0
POINT
  8
寸法
 62
     0
 10
14.754865
 20
-44.812283
  0
TEXT
  7
TextStyle03
  8
寸法
  6
CONTINUOUS
 62
     0
 10
-46.99375
 20
-44.45
  1
呼称寸法　2000
 40
3.0
 72
     5
 11
-23.55625
 21
-44.45
  0
ENDBLK
  0
BLOCK
  2
*DIM_0003
 70
    65
 10
0.0
 20
0.0
  0
LINE
  8
寸法
  6
BYBLOCK
 62
     0
 10
18.665083
 20
-82.341017
 11
18.665083
 21
-44.812283
  0
LINE
  8
寸法
  6
BYBLOCK
 62
     0
 10
14.754865
 20
-44.812283
 11
18.665083
 21
-44.812283
  0
POINT
  8
寸法
 62
     0
 10
14.754865
 20
-44.812283
  0
POINT
  8
寸法
 62
     0
 10
18.665083
 20
-44.812283
  0
TEXT
  7
TextStyle03
  8
寸法
  6
CONTINUOUS
 62
     0
 10
20.16875
 20
-44.45
  1
78.2
 40
3.0
 72
     5
 11
26.73125
 21
-44.45
  0
ENDBLK
  0
BLOCK
  2
*DIM_0004
 70
    65
 10
0.0
 20
0.0
  0
LINE
  8
寸法
  6
BYBLOCK
 62
     0
 10
-89.155353
 20
-82.341017
 11
-89.155353
 21
-44.812283
  0
LINE
  8
寸法
  6
BYBLOCK
 62
     0
 10
-85.245135
 20
-44.812283
 11
-89.155353
 21
-44.812283
  0
POINT
  8
寸法
 62
     0
 10
-85.245135
 20
-44.812283
  0
POINT
  8
寸法
 62
     0
 10
-89.155353
 20
-44.812283
  0
TEXT
  7
TextStyle03
  8
寸法
  6
CONTINUOUS
 62
     0
 10
-97.25625
 20
-44.45
  1
78.2
 40
3.0
 72
     5
 11
-90.69375
 21
-44.45
  0
ENDBLK
  0
BLOCK
  2
*DIM_0005
 70
    65
 10
0.0
 20
0.0
  0
LINE
  8
寸法
  6
BYBLOCK
 62
     0
 10
18.254865
 20
-80.96609
 11
39.149582
 21
-80.96609
  0
LINE
  8
寸法
  6
BYBLOCK
 62
     0
 10
19.665083
 20
-84.091017
 11
39.149582
 21
-84.091017
  0
LINE
  8
寸法
  6
BYBLOCK
 62
     0
 10
39.149582
 20
-80.96609
 11
39.149582
 21
-84.091017
  0
POINT
  8
寸法
 62
     0
 10
39.149582
 20
-80.96609
  0
POINT
  8
寸法
 62
     0
 10
39.149582
 20
-84.091017
  0
TEXT
  7
TextStyle03
  8
寸法
  6
CONTINUOUS
 62
     0
 10
42.125
 20
-85.83125
  1
62.5
 40
3.0
 50
90.0
 72
     5
 11
42.125
 21
-79.26875
  0
ENDBLK
  0
BLOCK
  2
*DIM_0006
 70
    65
 10
0.0
 20
0.0
  0
LINE
  8
寸法
  6
BYBLOCK
 62
     0
 10
-72.745135
 20
83.974165
 11
-72.745135
 21
104.616995
  0
LINE
  8
寸法
  6
BYBLOCK
 62
     0
 10
-47.745135
 20
83.974165
 11
-47.745135
 21
104.616995
  0
LINE
  8
寸法
  6
BYBLOCK
 62
     0
 10
-72.745135
 20
104.616995
 11
-47.745135
 21
104.616995
  0
POINT
  8
寸法
 62
     0
 10
-72.745135
 20
104.616995
  0
POINT
  8
寸法
 62
     0
 10
-47.745135
 20
104.616995
  0
TEXT
  7
TextStyle03
  8
寸法
  6
CONTINUOUS
 62
     0
 10
-62.7125
 20
105.0
  1
500
 40
3.0
 72
     5
 11
-57.8375
 21
105.0
  0
ENDBLK
  0
BLOCK
  2
*DIM_0007
 70
    65
 10
0.0
 20
0.0
  0
LINE
  8
寸法
  6
BYBLOCK
 62
     0
 10
-22.745135
 20
83.974165
 11
-22.745135
 21
104.616995
  0
LINE
  8
寸法
  6
BYBLOCK
 62
     0
 10
-47.745135
 20
104.616995
 11
-22.745135
 21
104.616995
  0
POINT
  8
寸法
 62
     0
 10
-22.745135
 20
104.616995
  0
TEXT
  7
TextStyle03
  8
寸法
  6
CONTINUOUS
 62
     0
 10
-37.7125
 20
105.0
  1
500
 40
3.0
 72
     5
 11
-32.8375
 21
105.0
  0
ENDBLK
  0
BLOCK
  2
*DIM_0008
 70
    65
 10
0.0
 20
0.0
  0
LINE
  8
寸法
  6
BYBLOCK
 62
     0
 10
2.254865
 20
83.974165
 11
2.254865
 21
104.616995
  0
LINE
  8
寸法
  6
BYBLOCK
 62
     0
 10
-22.745135
 20
104.616995
 11
2.254865
 21
104.616995
  0
POINT
  8
寸法
 62
     0
 10
2.254865
 20
104.616995
  0
TEXT
  7
TextStyle03
  8
寸法
  6
CONTINUOUS
 62
     0
 10
-12.7125
 20
105.0
  1
500
 40
3.0
 72
     5
 11
-7.8375
 21
105.0
  0
ENDBLK
  0
BLOCK
  2
*DIM_0009
 70
    65
 10
0.0
 20
0.0
  0
LINE
  8
寸法
  6
BYBLOCK
 62
     0
 10
-86.245135
 20
62.974165
 11
-107.54495
 21
62.974165
  0
LINE
  8
寸法
  6
BYBLOCK
 62
     0
 10
-86.245135
 20
32.974165
 11
-107.54495
 21
32.974165
  0
LINE
  8
寸法
  6
BYBLOCK
 62
     0
 10
-107.54495
 20
62.974165
 11
-107.54495
 21
32.974165
  0
POINT
  8
寸法
 62
     0
 10
-107.54495
 20
62.974165
  0
POINT
  8
寸法
 62
     0
 10
-107.54495
 20
32.974165
  0
TEXT
  7
TextStyle03
  8
寸法
  6
CONTINUOUS
 62
     0
 10
-107.925
 20
45.5375
  1
600
 40
3.0
 50
90.0
 72
     5
 11
-107.925
 21
50.4125
  0
ENDBLK
  0
BLOCK
  2
*DIM_0010
 70
    65
 10
0.0
 20
0.0
  0
LINE
  8
寸法
  6
BYBLOCK
 62
     0
 10
-86.245135
 20
2.974165
 11
-107.54495
 21
2.974165
  0
LINE
  8
寸法
  6
BYBLOCK
 62
     0
 10
-107.54495
 20
32.974165
 11
-107.54495
 21
2.974165
  0
POINT
  8
寸法
 62
     0
 10
-107.54495
 20
2.974165
  0
TEXT
  7
TextStyle03
  8
寸法
  6
CONTINUOUS
 62
     0
 10
-107.925
 20
15.5375
  1
600
 40
3.0
 50
90.0
 72
     5
 11
-107.925
 21
20.4125
  0
ENDBLK
  0
BLOCK
  2
*DIM_0011
 70
    65
 10
0.0
 20
0.0
  0
LINE
  8
寸法
  6
CONTINUOUS
 10
163.401275
 20
24.976468
 11
176.43879
 21
24.976468
  0
LINE
  8
寸法
  6
CONTINUOUS
 10
163.401275
 20
73.651468
 11
176.43879
 21
73.651468
  0
LINE
  8
寸法
  6
CONTINUOUS
 10
176.43879
 20
24.976468
 11
176.43879
 21
73.651468
  0
POINT
  8
寸法
 10
176.43879
 20
24.976468
  0
POINT
  8
寸法
 10
176.43879
 20
73.651468
  0
TEXT
  7
TextStyle03
  8
寸法
  6
CONTINUOUS
 10
176.05
 20
45.2
  1
973.5
 40
3.0
 50
90.0
 72
     5
 11
176.05
 21
53.45
  0
ENDBLK
  0
BLOCK
  2
*DIM_0012
 70
    65
 10
0.0
 20
0.0
  0
LINE
  8
寸法
  6
CONTINUOUS
 10
111.944238
 20
75.383545
 11
111.944238
 21
87.342733
  0
LINE
  8
寸法
  6
CONTINUOUS
 10
160.619238
 20
75.383545
 11
160.619238
 21
87.342733
  0
LINE
  8
寸法
  6
CONTINUOUS
 10
111.944238
 20
87.342733
 11
160.619238
 21
87.342733
  0
POINT
  8
寸法
 10
111.944238
 20
87.342733
  0
POINT
  8
寸法
 10
160.619238
 20
87.342733
  0
TEXT
  7
TextStyle03
  8
寸法
  6
CONTINUOUS
 10
132.15
 20
87.725
  1
973.5
 40
3.0
 72
     5
 11
140.4
 21
87.725
  0
ENDBLK
  0
BLOCK
  2
*GRP_0013
 70
    65
 10
0.0
 20
0.0
  0
LINE
  8
ボルト／ビス
  6
CONTINUOUS
 10
-86.245135
 20
-80.966093
 11
-86.245135
 21
-80.266093
  0
LINE
  8
ボルト／ビス
  6
CONTINUOUS
 10
-86.795135
 20
-80.966093
 11
-86.795135
 21
-80.866093
  0
LINE
  8
ボルト／ビス
  6
CONTINUOUS
 10
-86.795135
 20
-80.866093
 11
-85.695135
 21
-80.866093
  0
LINE
  8
ボルト／ビス
  6
CONTINUOUS
 10
-85.695135
 20
-80.866093
 11
-85.695135
 21
-80.966093
  0
LINE
  8
ボルト／ビス
  6
CONTINUOUS
 10
-86.795135
 20
-80.966093
 11
-85.695135
 21
-80.966093
  0
LINE
  8
ボルト／ビス
  6
CONTINUOUS
 10
-86.695135
 20
-80.816093
 11
-86.695135
 21
-80.866093
  0
LINE
  8
ボルト／ビス
  6
CONTINUOUS
 10
-86.695135
 20
-80.816093
 11
-85.795135
 21
-80.816093
  0
LINE
  8
ボルト／ビス
  6
CONTINUOUS
 10
-85.795135
 20
-80.816093
 11
-85.795135
 21
-80.866093
  0
LINE
  8
ボルト／ビス
  6
CONTINUOUS
 62
    64
 10
-86.485697
 20
-80.516093
 11
-86.53381
 21
-80.533605
  0
ARC
  8
ボルト／ビス
  6
CONTINUOUS
 62
    64
 10
-86.46164
 20
-80.67356
 40
0.157468
 50
62.721967
 51
90.0
  0
ARC
  8
ボルト／ビス
  6
CONTINUOUS
 62
    64
 10
-86.245133
 20
-81.119696
 40
0.603603
 50
76.165002
 51
103.834985
  0
LINE
  8
ボルト／ビス
  6
CONTINUOUS
 62
    64
 10
-86.004572
 20
-80.516093
 11
-85.95646
 21
-80.533605
  0
ARC
  8
ボルト／ビス
  6
CONTINUOUS
 62
    64
 10
-86.028627
 20
-80.67356
 40
0.157468
 50
90.0
 51
117.278033
  0
LINE
  8
ボルト／ビス
  6
CONTINUOUS
 62
    64
 10
-86.485697
 20
-80.516093
 11
-86.004572
 21
-80.516093
  0
LINE
  8
ボルト／ビス
  6
CONTINUOUS
 62
    64
 10
-85.95646
 20
-80.533605
 11
-85.95646
 21
-80.716093
  0
LINE
  8
ボルト／ビス
  6
CONTINUOUS
 62
    64
 10
-86.100798
 20
-80.533605
 11
-86.100798
 21
-80.716093
  0
LINE
  8
ボルト／ビス
  6
CONTINUOUS
 62
    64
 10
-86.53381
 20
-80.533605
 11
-86.53381
 21
-80.716093
  0
LINE
  8
ボルト／ビス
  6
CONTINUOUS
 62
    64
 10
-86.389473
 20
-80.533605
 11
-86.389473
 21
-80.716093
  0
LINE
  8
ボルト／ビス
  6
CONTINUOUS
 10
-86.53381
 20
-80.716093
 11
-85.95646
 21
-80.716093
  0
LINE
  8
ボルト／ビス
  6
CONTINUOUS
 10
-86.545135
 20
-80.716093
 11
-86.545135
 21
-80.816093
  0
LINE
  8
ボルト／ビス
  6
CONTINUOUS
 10
-86.545135
 20
-80.716093
 11
-85.945135
 21
-80.716093
  0
LINE
  8
ボルト／ビス
  6
CONTINUOUS
 10
-85.945135
 20
-80.716093
 11
-85.945135
 21
-80.816093
  0
ENDBLK
  0
BLOCK
  2
*GRP_0014
 70
    65
 10
0.0
 20
0.0
  0
LINE
  8
ボルト／ビス
  6
CONTINUOUS
 10
15.754865
 20
-80.966093
 11
15.754865
 21
-80.266093
  0
LINE
  8
ボルト／ビス
  6
CONTINUOUS
 10
15.204865
 20
-80.966093
 11
15.204865
 21
-80.866093
  0
LINE
  8
ボルト／ビス
  6
CONTINUOUS
 10
15.204865
 20
-80.866093
 11
16.304865
 21
-80.866093
  0
LINE
  8
ボルト／ビス
  6
CONTINUOUS
 10
16.304865
 20
-80.866093
 11
16.304865
 21
-80.966093
  0
LINE
  8
ボルト／ビス
  6
CONTINUOUS
 10
15.204865
 20
-80.966093
 11
16.304865
 21
-80.966093
  0
LINE
  8
ボルト／ビス
  6
CONTINUOUS
 10
15.304865
 20
-80.816093
 11
15.304865
 21
-80.866093
  0
LINE
  8
ボルト／ビス
  6
CONTINUOUS
 10
15.304865
 20
-80.816093
 11
16.204865
 21
-80.816093
  0
LINE
  8
ボルト／ビス
  6
CONTINUOUS
 10
16.204865
 20
-80.816093
 11
16.204865
 21
-80.866093
  0
LINE
  8
ボルト／ビス
  6
CONTINUOUS
 62
    64
 10
15.514302
 20
-80.516093
 11
15.46619
 21
-80.533605
  0
ARC
  8
ボルト／ビス
  6
CONTINUOUS
 62
    64
 10
15.53836
 20
-80.67356
 40
0.157468
 50
62.721967
 51
90.0
  0
ARC
  8
ボルト／ビス
  6
CONTINUOUS
 62
    64
 10
15.754867
 20
-81.119696
 40
0.603603
 50
76.165002
 51
103.834985
  0
LINE
  8
ボルト／ビス
  6
CONTINUOUS
 62
    64
 10
15.995428
 20
-80.516093
 11
16.04354
 21
-80.533605
  0
ARC
  8
ボルト／ビス
  6
CONTINUOUS
 62
    64
 10
15.971373
 20
-80.67356
 40
0.157468
 50
90.0
 51
117.278033
  0
LINE
  8
ボルト／ビス
  6
CONTINUOUS
 62
    64
 10
15.514302
 20
-80.516093
 11
15.995428
 21
-80.516093
  0
LINE
  8
ボルト／ビス
  6
CONTINUOUS
 62
    64
 10
16.04354
 20
-80.533605
 11
16.04354
 21
-80.716093
  0
LINE
  8
ボルト／ビス
  6
CONTINUOUS
 62
    64
 10
15.899202
 20
-80.533605
 11
15.899202
 21
-80.716093
  0
LINE
  8
ボルト／ビス
  6
CONTINUOUS
 62
    64
 10
15.46619
 20
-80.533605
 11
15.46619
 21
-80.716093
  0
LINE
  8
ボルト／ビス
  6
CONTINUOUS
 62
    64
 10
15.610527
 20
-80.533605
 11
15.610527
 21
-80.716093
  0
LINE
  8
ボルト／ビス
  6
CONTINUOUS
 10
15.46619
 20
-80.716093
 11
16.04354
 21
-80.716093
  0
LINE
  8
ボルト／ビス
  6
CONTINUOUS
 10
15.454865
 20
-80.716093
 11
15.454865
 21
-80.816093
  0
LINE
  8
ボルト／ビス
  6
CONTINUOUS
 10
15.454865
 20
-80.716093
 11
16.054865
 21
-80.716093
  0
LINE
  8
ボルト／ビス
  6
CONTINUOUS
 10
16.054865
 20
-80.716093
 11
16.054865
 21
-80.816093
  0
ENDBLK
  0
BLOCK
  2
*DIM_0015
 70
    65
 10
0.0
 20
0.0
  0
LINE
  8
寸法
  6
CONTINUOUS
 10
22.254865
 20
-80.96609
 11
39.149582
 21
-80.96609
  0
LINE
  8
寸法
  6
CONTINUOUS
 10
-30.245135
 20
-58.46609
 11
39.149582
 21
-58.46609
  0
LINE
  8
寸法
  6
CONTINUOUS
 10
39.149582
 20
-80.96609
 11
39.149582
 21
-58.46609
  0
POINT
  8
寸法
 10
39.149582
 20
-80.96609
  0
POINT
  8
寸法
 10
39.149582
 20
-58.46609
  0
TEXT
  7
TextStyle03
  8
寸法
  6
CONTINUOUS
 10
38.75
 20
-72.1625
  1
450
 40
3.0
 50
90.0
 72
     5
 11
38.75
 21
-67.2875
  0
ENDBLK
  0
BLOCK
  2
*GRP_0016
 70
    65
 10
0.0
 20
0.0
  0
INSERT
  2
*GRP_0022
  8
補助線
  6
CONTINUOUS
 10
0.0
 20
0.0
  0
LINE
  8
ボルト／ビス
  6
CONTINUOUS
 10
16.04354
 20
-4.525835
 11
15.899202
 21
-4.275835
  0
LINE
  8
ボルト／ビス
  6
CONTINUOUS
 10
16.04354
 20
-4.525835
 11
15.899202
 21
-4.775835
  0
LINE
  8
ボルト／ビス
  6
CONTINUOUS
 10
15.610527
 20
-4.275835
 11
15.46619
 21
-4.525835
  0
LINE
  8
ボルト／ビス
  6
CONTINUOUS
 10
15.610527
 20
-4.775835
 11
15.46619
 21
-4.525835
  0
CIRCLE
  8
ボルト／ビス
  6
CONTINUOUS
 10
15.754865
 20
-4.525835
 40
0.25
  0
LINE
  8
ボルト／ビス
  6
CONTINUOUS
 10
15.899202
 20
-4.775835
 11
15.610527
 21
-4.775835
  0
LINE
  8
ボルト／ビス
  6
CONTINUOUS
 10
15.610527
 20
-4.275835
 11
15.899202
 21
-4.275835
  0
ENDBLK
  0
BLOCK
  2
*GRP_0017
 70
    65
 10
0.0
 20
0.0
  0
INSERT
  2
*GRP_0023
  8
補助線
  6
CONTINUOUS
 10
0.0
 20
0.0
  0
LINE
  8
ボルト／ビス
  6
CONTINUOUS
 10
16.04354
 20
10.474165
 11
15.899202
 21
10.724165
  0
LINE
  8
ボルト／ビス
  6
CONTINUOUS
 10
16.04354
 20
10.474165
 11
15.899202
 21
10.224165
  0
LINE
  8
ボルト／ビス
  6
CONTINUOUS
 10
15.610527
 20
10.724165
 11
15.46619
 21
10.474165
  0
LINE
  8
ボルト／ビス
  6
CONTINUOUS
 10
15.610527
 20
10.224165
 11
15.46619
 21
10.474165
  0
CIRCLE
  8
ボルト／ビス
  6
CONTINUOUS
 10
15.754865
 20
10.474165
 40
0.25
  0
LINE
  8
ボルト／ビス
  6
CONTINUOUS
 10
15.899202
 20
10.224165
 11
15.610527
 21
10.224165
  0
LINE
  8
ボルト／ビス
  6
CONTINUOUS
 10
15.610527
 20
10.724165
 11
15.899202
 21
10.724165
  0
ENDBLK
  0
BLOCK
  2
*GRP_0018
 70
    65
 10
0.0
 20
0.0
  0
INSERT
  2
*GRP_0024
  8
補助線
  6
CONTINUOUS
 10
0.0
 20
0.0
  0
LINE
  8
ボルト／ビス
  6
CONTINUOUS
 10
16.04354
 20
25.474165
 11
15.899202
 21
25.724165
  0
LINE
  8
ボルト／ビス
  6
CONTINUOUS
 10
16.04354
 20
25.474165
 11
15.899202
 21
25.224165
  0
LINE
  8
ボルト／ビス
  6
CONTINUOUS
 10
15.610527
 20
25.724165
 11
15.46619
 21
25.474165
  0
LINE
  8
ボルト／ビス
  6
CONTINUOUS
 10
15.610527
 20
25.224165
 11
15.46619
 21
25.474165
  0
CIRCLE
  8
ボルト／ビス
  6
CONTINUOUS
 10
15.754865
 20
25.474165
 40
0.25
  0
LINE
  8
ボルト／ビス
  6
CONTINUOUS
 10
15.899202
 20
25.224165
 11
15.610527
 21
25.224165
  0
LINE
  8
ボルト／ビス
  6
CONTINUOUS
 10
15.610527
 20
25.724165
 11
15.899202
 21
25.724165
  0
ENDBLK
  0
BLOCK
  2
*GRP_0019
 70
    65
 10
0.0
 20
0.0
  0
INSERT
  2
*GRP_0025
  8
補助線
  6
CONTINUOUS
 10
0.0
 20
0.0
  0
LINE
  8
ボルト／ビス
  6
CONTINUOUS
 10
16.04354
 20
40.474165
 11
15.899202
 21
40.724165
  0
LINE
  8
ボルト／ビス
  6
CONTINUOUS
 10
16.04354
 20
40.474165
 11
15.899202
 21
40.224165
  0
LINE
  8
ボルト／ビス
  6
CONTINUOUS
 10
15.610527
 20
40.724165
 11
15.46619
 21
40.474165
  0
LINE
  8
ボルト／ビス
  6
CONTINUOUS
 10
15.610527
 20
40.224165
 11
15.46619
 21
40.474165
  0
CIRCLE
  8
ボルト／ビス
  6
CONTINUOUS
 10
15.754865
 20
40.474165
 40
0.25
  0
LINE
  8
ボルト／ビス
  6
CONTINUOUS
 10
15.899202
 20
40.224165
 11
15.610527
 21
40.224165
  0
LINE
  8
ボルト／ビス
  6
CONTINUOUS
 10
15.610527
 20
40.724165
 11
15.899202
 21
40.724165
  0
ENDBLK
  0
BLOCK
  2
*GRP_0020
 70
    65
 10
0.0
 20
0.0
  0
INSERT
  2
*GRP_0026
  8
補助線
  6
CONTINUOUS
 10
0.0
 20
0.0
  0
LINE
  8
ボルト／ビス
  6
CONTINUOUS
 10
16.04354
 20
70.474165
 11
15.899202
 21
70.224165
  0
LINE
  8
ボルト／ビス
  6
CONTINUOUS
 10
16.04354
 20
70.474165
 11
15.899202
 21
70.724165
  0
LINE
  8
ボルト／ビス
  6
CONTINUOUS
 10
15.610527
 20
70.224165
 11
15.46619
 21
70.474165
  0
LINE
  8
ボルト／ビス
  6
CONTINUOUS
 10
15.610527
 20
70.724165
 11
15.46619
 21
70.474165
  0
CIRCLE
  8
ボルト／ビス
  6
CONTINUOUS
 10
15.754865
 20
70.474165
 40
0.25
  0
LINE
  8
ボルト／ビス
  6
CONTINUOUS
 10
15.899202
 20
70.724165
 11
15.610527
 21
70.724165
  0
LINE
  8
ボルト／ビス
  6
CONTINUOUS
 10
15.610527
 20
70.224165
 11
15.899202
 21
70.224165
  0
ENDBLK
  0
BLOCK
  2
*GRP_0021
 70
    65
 10
0.0
 20
0.0
  0
INSERT
  2
*GRP_0027
  8
補助線
  6
CONTINUOUS
 10
0.0
 20
0.0
  0
LINE
  8
ボルト／ビス
  6
CONTINUOUS
 10
16.04354
 20
55.474165
 11
15.899202
 21
55.224165
  0
LINE
  8
ボルト／ビス
  6
CONTINUOUS
 10
16.04354
 20
55.474165
 11
15.899202
 21
55.724165
  0
LINE
  8
ボルト／ビス
  6
CONTINUOUS
 10
15.610527
 20
55.224165
 11
15.46619
 21
55.474165
  0
LINE
  8
ボルト／ビス
  6
CONTINUOUS
 10
15.610527
 20
55.724165
 11
15.46619
 21
55.474165
  0
CIRCLE
  8
ボルト／ビス
  6
CONTINUOUS
 10
15.754865
 20
55.474165
 40
0.25
  0
LINE
  8
ボルト／ビス
  6
CONTINUOUS
 10
15.899202
 20
55.724165
 11
15.610527
 21
55.724165
  0
LINE
  8
ボルト／ビス
  6
CONTINUOUS
 10
15.610527
 20
55.224165
 11
15.899202
 21
55.224165
  0
ENDBLK
  0
BLOCK
  2
*GRP_0022
 70
    65
 10
0.0
 20
0.0
  0
LINE
  8
補助線
  6
BYBLOCK
 62
     0
 10
15.754865
 20
-4.650835
 11
15.754865
 21
-4.400835
  0
LINE
  8
補助線
  6
BYBLOCK
 62
     0
 10
15.879865
 20
-4.525835
 11
15.629865
 21
-4.525835
  0
ENDBLK
  0
BLOCK
  2
*GRP_0023
 70
    65
 10
0.0
 20
0.0
  0
LINE
  8
補助線
  6
BYBLOCK
 62
     0
 10
15.754865
 20
10.349165
 11
15.754865
 21
10.599165
  0
LINE
  8
補助線
  6
BYBLOCK
 62
     0
 10
15.879865
 20
10.474165
 11
15.629865
 21
10.474165
  0
ENDBLK
  0
BLOCK
  2
*GRP_0024
 70
    65
 10
0.0
 20
0.0
  0
LINE
  8
補助線
  6
BYBLOCK
 62
     0
 10
15.754865
 20
25.349165
 11
15.754865
 21
25.599165
  0
LINE
  8
補助線
  6
BYBLOCK
 62
     0
 10
15.879865
 20
25.474165
 11
15.629865
 21
25.474165
  0
ENDBLK
  0
BLOCK
  2
*GRP_0025
 70
    65
 10
0.0
 20
0.0
  0
LINE
  8
補助線
  6
BYBLOCK
 62
     0
 10
15.754865
 20
40.349165
 11
15.754865
 21
40.599165
  0
LINE
  8
補助線
  6
BYBLOCK
 62
     0
 10
15.879865
 20
40.474165
 11
15.629865
 21
40.474165
  0
ENDBLK
  0
BLOCK
  2
*GRP_0026
 70
    65
 10
0.0
 20
0.0
  0
LINE
  8
補助線
  6
BYBLOCK
 62
     0
 10
15.754865
 20
70.599165
 11
15.754865
 21
70.349165
  0
LINE
  8
補助線
  6
BYBLOCK
 62
     0
 10
15.879865
 20
70.474165
 11
15.629865
 21
70.474165
  0
ENDBLK
  0
BLOCK
  2
*GRP_0027
 70
    65
 10
0.0
 20
0.0
  0
LINE
  8
補助線
  6
BYBLOCK
 62
     0
 10
15.754865
 20
55.599165
 11
15.754865
 21
55.349165
  0
LINE
  8
補助線
  6
BYBLOCK
 62
     0
 10
15.879865
 20
55.474165
 11
15.629865
 21
55.474165
  0
ENDBLK
  0
BLOCK
  2
*GRP_0028
 70
    65
 10
0.0
 20
0.0
  0
INSERT
  2
*GRP_0034
  8
補助線
  6
CONTINUOUS
 10
0.0
 20
0.0
  0
LINE
  8
ボルト／ビス
  6
CONTINUOUS
 10
-72.745135
 20
84.26284
 11
-72.495135
 21
84.118503
  0
LINE
  8
ボルト／ビス
  6
CONTINUOUS
 10
-72.745135
 20
84.26284
 11
-72.995135
 21
84.118503
  0
LINE
  8
ボルト／ビス
  6
CONTINUOUS
 10
-72.495135
 20
83.829827
 11
-72.745135
 21
83.68549
  0
LINE
  8
ボルト／ビス
  6
CONTINUOUS
 10
-72.995135
 20
83.829827
 11
-72.745135
 21
83.68549
  0
CIRCLE
  8
ボルト／ビス
  6
CONTINUOUS
 10
-72.745135
 20
83.974165
 40
0.25
  0
LINE
  8
ボルト／ビス
  6
CONTINUOUS
 10
-72.995135
 20
84.118503
 11
-72.995135
 21
83.829827
  0
LINE
  8
ボルト／ビス
  6
CONTINUOUS
 10
-72.495135
 20
83.829827
 11
-72.495135
 21
84.118503
  0
ENDBLK
  0
BLOCK
  2
*GRP_0029
 70
    65
 10
0.0
 20
0.0
  0
INSERT
  2
*GRP_0035
  8
補助線
  6
CONTINUOUS
 10
0.0
 20
0.0
  0
LINE
  8
ボルト／ビス
  6
CONTINUOUS
 10
-57.745135
 20
84.26284
 11
-57.495135
 21
84.118503
  0
LINE
  8
ボルト／ビス
  6
CONTINUOUS
 10
-57.745135
 20
84.26284
 11
-57.995135
 21
84.118503
  0
LINE
  8
ボルト／ビス
  6
CONTINUOUS
 10
-57.495135
 20
83.829827
 11
-57.745135
 21
83.68549
  0
LINE
  8
ボルト／ビス
  6
CONTINUOUS
 10
-57.995135
 20
83.829827
 11
-57.745135
 21
83.68549
  0
CIRCLE
  8
ボルト／ビス
  6
CONTINUOUS
 10
-57.745135
 20
83.974165
 40
0.25
  0
LINE
  8
ボルト／ビス
  6
CONTINUOUS
 10
-57.995135
 20
84.118503
 11
-57.995135
 21
83.829827
  0
LINE
  8
ボルト／ビス
  6
CONTINUOUS
 10
-57.495135
 20
83.829827
 11
-57.495135
 21
84.118503
  0
ENDBLK
  0
BLOCK
  2
*GRP_0030
 70
    65
 10
0.0
 20
0.0
  0
INSERT
  2
*GRP_0036
  8
補助線
  6
CONTINUOUS
 10
0.0
 20
0.0
  0
LINE
  8
ボルト／ビス
  6
CONTINUOUS
 10
-42.745135
 20
84.26284
 11
-42.495135
 21
84.118503
  0
LINE
  8
ボルト／ビス
  6
CONTINUOUS
 10
-42.745135
 20
84.26284
 11
-42.995135
 21
84.118503
  0
LINE
  8
ボルト／ビス
  6
CONTINUOUS
 10
-42.495135
 20
83.829827
 11
-42.745135
 21
83.68549
  0
LINE
  8
ボルト／ビス
  6
CONTINUOUS
 10
-42.995135
 20
83.829827
 11
-42.745135
 21
83.68549
  0
CIRCLE
  8
ボルト／ビス
  6
CONTINUOUS
 10
-42.745135
 20
83.974165
 40
0.25
  0
LINE
  8
ボルト／ビス
  6
CONTINUOUS
 10
-42.995135
 20
84.118503
 11
-42.995135
 21
83.829827
  0
LINE
  8
ボルト／ビス
  6
CONTINUOUS
 10
-42.495135
 20
83.829827
 11
-42.495135
 21
84.118503
  0
ENDBLK
  0
BLOCK
  2
*GRP_0031
 70
    65
 10
0.0
 20
0.0
  0
INSERT
  2
*GRP_0037
  8
補助線
  6
CONTINUOUS
 10
0.0
 20
0.0
  0
LINE
  8
ボルト／ビス
  6
CONTINUOUS
 10
-27.745135
 20
84.26284
 11
-27.495135
 21
84.118503
  0
LINE
  8
ボルト／ビス
  6
CONTINUOUS
 10
-27.745135
 20
84.26284
 11
-27.995135
 21
84.118503
  0
LINE
  8
ボルト／ビス
  6
CONTINUOUS
 10
-27.495135
 20
83.829827
 11
-27.745135
 21
83.68549
  0
LINE
  8
ボルト／ビス
  6
CONTINUOUS
 10
-27.995135
 20
83.829827
 11
-27.745135
 21
83.68549
  0
CIRCLE
  8
ボルト／ビス
  6
CONTINUOUS
 10
-27.745135
 20
83.974165
 40
0.25
  0
LINE
  8
ボルト／ビス
  6
CONTINUOUS
 10
-27.995135
 20
84.118503
 11
-27.995135
 21
83.829827
  0
LINE
  8
ボルト／ビス
  6
CONTINUOUS
 10
-27.495135
 20
83.829827
 11
-27.495135
 21
84.118503
  0
ENDBLK
  0
BLOCK
  2
*GRP_0032
 70
    65
 10
0.0
 20
0.0
  0
INSERT
  2
*GRP_0038
  8
補助線
  6
CONTINUOUS
 10
0.0
 20
0.0
  0
LINE
  8
ボルト／ビス
  6
CONTINUOUS
 10
2.254865
 20
84.26284
 11
2.004865
 21
84.118503
  0
LINE
  8
ボルト／ビス
  6
CONTINUOUS
 10
2.254865
 20
84.26284
 11
2.504865
 21
84.118503
  0
LINE
  8
ボルト／ビス
  6
CONTINUOUS
 10
2.004865
 20
83.829827
 11
2.254865
 21
83.68549
  0
LINE
  8
ボルト／ビス
  6
CONTINUOUS
 10
2.504865
 20
83.829827
 11
2.254865
 21
83.68549
  0
CIRCLE
  8
ボルト／ビス
  6
CONTINUOUS
 10
2.254865
 20
83.974165
 40
0.25
  0
LINE
  8
ボルト／ビス
  6
CONTINUOUS
 10
2.504865
 20
84.118503
 11
2.504865
 21
83.829827
  0
LINE
  8
ボルト／ビス
  6
CONTINUOUS
 10
2.004865
 20
83.829827
 11
2.004865
 21
84.118503
  0
ENDBLK
  0
BLOCK
  2
*GRP_0033
 70
    65
 10
0.0
 20
0.0
  0
INSERT
  2
*GRP_0039
  8
補助線
  6
CONTINUOUS
 10
0.0
 20
0.0
  0
LINE
  8
ボルト／ビス
  6
CONTINUOUS
 10
-12.745135
 20
84.26284
 11
-12.995135
 21
84.118503
  0
LINE
  8
ボルト／ビス
  6
CONTINUOUS
 10
-12.745135
 20
84.26284
 11
-12.495135
 21
84.118503
  0
LINE
  8
ボルト／ビス
  6
CONTINUOUS
 10
-12.995135
 20
83.829827
 11
-12.745135
 21
83.68549
  0
LINE
  8
ボルト／ビス
  6
CONTINUOUS
 10
-12.495135
 20
83.829827
 11
-12.745135
 21
83.68549
  0
CIRCLE
  8
ボルト／ビス
  6
CONTINUOUS
 10
-12.745135
 20
83.974165
 40
0.25
  0
LINE
  8
ボルト／ビス
  6
CONTINUOUS
 10
-12.495135
 20
84.118503
 11
-12.495135
 21
83.829827
  0
LINE
  8
ボルト／ビス
  6
CONTINUOUS
 10
-12.995135
 20
83.829827
 11
-12.995135
 21
84.118503
  0
ENDBLK
  0
BLOCK
  2
*GRP_0034
 70
    65
 10
0.0
 20
0.0
  0
LINE
  8
補助線
  6
BYBLOCK
 62
     0
 10
-72.870135
 20
83.974165
 11
-72.620135
 21
83.974165
  0
LINE
  8
補助線
  6
BYBLOCK
 62
     0
 10
-72.745135
 20
84.099165
 11
-72.745135
 21
83.849165
  0
ENDBLK
  0
BLOCK
  2
*GRP_0035
 70
    65
 10
0.0
 20
0.0
  0
LINE
  8
補助線
  6
BYBLOCK
 62
     0
 10
-57.870135
 20
83.974165
 11
-57.620135
 21
83.974165
  0
LINE
  8
補助線
  6
BYBLOCK
 62
     0
 10
-57.745135
 20
84.099165
 11
-57.745135
 21
83.849165
  0
ENDBLK
  0
BLOCK
  2
*GRP_0036
 70
    65
 10
0.0
 20
0.0
  0
LINE
  8
補助線
  6
BYBLOCK
 62
     0
 10
-42.870135
 20
83.974165
 11
-42.620135
 21
83.974165
  0
LINE
  8
補助線
  6
BYBLOCK
 62
     0
 10
-42.745135
 20
84.099165
 11
-42.745135
 21
83.849165
  0
ENDBLK
  0
BLOCK
  2
*GRP_0037
 70
    65
 10
0.0
 20
0.0
  0
LINE
  8
補助線
  6
BYBLOCK
 62
     0
 10
-27.870135
 20
83.974165
 11
-27.620135
 21
83.974165
  0
LINE
  8
補助線
  6
BYBLOCK
 62
     0
 10
-27.745135
 20
84.099165
 11
-27.745135
 21
83.849165
  0
ENDBLK
  0
BLOCK
  2
*GRP_0038
 70
    65
 10
0.0
 20
0.0
  0
LINE
  8
補助線
  6
BYBLOCK
 62
     0
 10
2.379865
 20
83.974165
 11
2.129865
 21
83.974165
  0
LINE
  8
補助線
  6
BYBLOCK
 62
     0
 10
2.254865
 20
84.099165
 11
2.254865
 21
83.849165
  0
ENDBLK
  0
BLOCK
  2
*GRP_0039
 70
    65
 10
0.0
 20
0.0
  0
LINE
  8
補助線
  6
BYBLOCK
 62
     0
 10
-12.620135
 20
83.974165
 11
-12.870135
 21
83.974165
  0
LINE
  8
補助線
  6
BYBLOCK
 62
     0
 10
-12.745135
 20
84.099165
 11
-12.745135
 21
83.849165
  0
ENDBLK
  0
BLOCK
  2
*GRP_0040
 70
    65
 10
0.0
 20
0.0
  0
INSERT
  2
*GRP_0046
  8
補助線
  6
CONTINUOUS
 10
0.0
 20
0.0
  0
LINE
  8
ボルト／ビス
  6
CONTINUOUS
 10
-86.53381
 20
70.474165
 11
-86.389473
 21
70.224165
  0
LINE
  8
ボルト／ビス
  6
CONTINUOUS
 10
-86.53381
 20
70.474165
 11
-86.389473
 21
70.724165
  0
LINE
  8
ボルト／ビス
  6
CONTINUOUS
 10
-86.100798
 20
70.224165
 11
-85.95646
 21
70.474165
  0
LINE
  8
ボルト／ビス
  6
CONTINUOUS
 10
-86.100798
 20
70.724165
 11
-85.95646
 21
70.474165
  0
CIRCLE
  8
ボルト／ビス
  6
CONTINUOUS
 10
-86.245135
 20
70.474165
 40
0.25
  0
LINE
  8
ボルト／ビス
  6
CONTINUOUS
 10
-86.389473
 20
70.724165
 11
-86.100798
 21
70.724165
  0
LINE
  8
ボルト／ビス
  6
CONTINUOUS
 10
-86.100798
 20
70.224165
 11
-86.389473
 21
70.224165
  0
ENDBLK
  0
BLOCK
  2
*GRP_0041
 70
    65
 10
0.0
 20
0.0
  0
INSERT
  2
*GRP_0047
  8
補助線
  6
CONTINUOUS
 10
0.0
 20
0.0
  0
LINE
  8
ボルト／ビス
  6
CONTINUOUS
 10
-86.53381
 20
55.474165
 11
-86.389473
 21
55.224165
  0
LINE
  8
ボルト／ビス
  6
CONTINUOUS
 10
-86.53381
 20
55.474165
 11
-86.389473
 21
55.724165
  0
LINE
  8
ボルト／ビス
  6
CONTINUOUS
 10
-86.100798
 20
55.224165
 11
-85.95646
 21
55.474165
  0
LINE
  8
ボルト／ビス
  6
CONTINUOUS
 10
-86.100798
 20
55.724165
 11
-85.95646
 21
55.474165
  0
CIRCLE
  8
ボルト／ビス
  6
CONTINUOUS
 10
-86.245135
 20
55.474165
 40
0.25
  0
LINE
  8
ボルト／ビス
  6
CONTINUOUS
 10
-86.389473
 20
55.724165
 11
-86.100798
 21
55.724165
  0
LINE
  8
ボルト／ビス
  6
CONTINUOUS
 10
-86.100798
 20
55.224165
 11
-86.389473
 21
55.224165
  0
ENDBLK
  0
BLOCK
  2
*GRP_0042
 70
    65
 10
0.0
 20
0.0
  0
INSERT
  2
*GRP_0048
  8
補助線
  6
CONTINUOUS
 10
0.0
 20
0.0
  0
LINE
  8
ボルト／ビス
  6
CONTINUOUS
 10
-86.53381
 20
40.474165
 11
-86.389473
 21
40.224165
  0
LINE
  8
ボルト／ビス
  6
CONTINUOUS
 10
-86.53381
 20
40.474165
 11
-86.389473
 21
40.724165
  0
LINE
  8
ボルト／ビス
  6
CONTINUOUS
 10
-86.100798
 20
40.224165
 11
-85.95646
 21
40.474165
  0
LINE
  8
ボルト／ビス
  6
CONTINUOUS
 10
-86.100798
 20
40.724165
 11
-85.95646
 21
40.474165
  0
CIRCLE
  8
ボルト／ビス
  6
CONTINUOUS
 10
-86.245135
 20
40.474165
 40
0.25
  0
LINE
  8
ボルト／ビス
  6
CONTINUOUS
 10
-86.389473
 20
40.724165
 11
-86.100798
 21
40.724165
  0
LINE
  8
ボルト／ビス
  6
CONTINUOUS
 10
-86.100798
 20
40.224165
 11
-86.389473
 21
40.224165
  0
ENDBLK
  0
BLOCK
  2
*GRP_0043
 70
    65
 10
0.0
 20
0.0
  0
INSERT
  2
*GRP_0049
  8
補助線
  6
CONTINUOUS
 10
0.0
 20
0.0
  0
LINE
  8
ボルト／ビス
  6
CONTINUOUS
 10
-86.53381
 20
25.474165
 11
-86.389473
 21
25.224165
  0
LINE
  8
ボルト／ビス
  6
CONTINUOUS
 10
-86.53381
 20
25.474165
 11
-86.389473
 21
25.724165
  0
LINE
  8
ボルト／ビス
  6
CONTINUOUS
 10
-86.100798
 20
25.224165
 11
-85.95646
 21
25.474165
  0
LINE
  8
ボルト／ビス
  6
CONTINUOUS
 10
-86.100798
 20
25.724165
 11
-85.95646
 21
25.474165
  0
CIRCLE
  8
ボルト／ビス
  6
CONTINUOUS
 10
-86.245135
 20
25.474165
 40
0.25
  0
LINE
  8
ボルト／ビス
  6
CONTINUOUS
 10
-86.389473
 20
25.724165
 11
-86.100798
 21
25.724165
  0
LINE
  8
ボルト／ビス
  6
CONTINUOUS
 10
-86.100798
 20
25.224165
 11
-86.389473
 21
25.224165
  0
ENDBLK
  0
BLOCK
  2
*GRP_0044
 70
    65
 10
0.0
 20
0.0
  0
INSERT
  2
*GRP_0050
  8
補助線
  6
CONTINUOUS
 10
0.0
 20
0.0
  0
LINE
  8
ボルト／ビス
  6
CONTINUOUS
 10
-86.53381
 20
-4.525835
 11
-86.389473
 21
-4.275835
  0
LINE
  8
ボルト／ビス
  6
CONTINUOUS
 10
-86.53381
 20
-4.525835
 11
-86.389473
 21
-4.775835
  0
LINE
  8
ボルト／ビス
  6
CONTINUOUS
 10
-86.100798
 20
-4.275835
 11
-85.95646
 21
-4.525835
  0
LINE
  8
ボルト／ビス
  6
CONTINUOUS
 10
-86.100798
 20
-4.775835
 11
-85.95646
 21
-4.525835
  0
CIRCLE
  8
ボルト／ビス
  6
CONTINUOUS
 10
-86.245135
 20
-4.525835
 40
0.25
  0
LINE
  8
ボルト／ビス
  6
CONTINUOUS
 10
-86.389473
 20
-4.775835
 11
-86.100798
 21
-4.775835
  0
LINE
  8
ボルト／ビス
  6
CONTINUOUS
 10
-86.100798
 20
-4.275835
 11
-86.389473
 21
-4.275835
  0
ENDBLK
  0
BLOCK
  2
*GRP_0045
 70
    65
 10
0.0
 20
0.0
  0
INSERT
  2
*GRP_0051
  8
補助線
  6
CONTINUOUS
 10
0.0
 20
0.0
  0
LINE
  8
ボルト／ビス
  6
CONTINUOUS
 10
-86.53381
 20
10.474165
 11
-86.389473
 21
10.724165
  0
LINE
  8
ボルト／ビス
  6
CONTINUOUS
 10
-86.53381
 20
10.474165
 11
-86.389473
 21
10.224165
  0
LINE
  8
ボルト／ビス
  6
CONTINUOUS
 10
-86.100798
 20
10.724165
 11
-85.95646
 21
10.474165
  0
LINE
  8
ボルト／ビス
  6
CONTINUOUS
 10
-86.100798
 20
10.224165
 11
-85.95646
 21
10.474165
  0
CIRCLE
  8
ボルト／ビス
  6
CONTINUOUS
 10
-86.245135
 20
10.474165
 40
0.25
  0
LINE
  8
ボルト／ビス
  6
CONTINUOUS
 10
-86.389473
 20
10.224165
 11
-86.100798
 21
10.224165
  0
LINE
  8
ボルト／ビス
  6
CONTINUOUS
 10
-86.100798
 20
10.724165
 11
-86.389473
 21
10.724165
  0
ENDBLK
  0
BLOCK
  2
*GRP_0046
 70
    65
 10
0.0
 20
0.0
  0
LINE
  8
補助線
  6
BYBLOCK
 62
     0
 10
-86.245135
 20
70.599165
 11
-86.245135
 21
70.349165
  0
LINE
  8
補助線
  6
BYBLOCK
 62
     0
 10
-86.370135
 20
70.474165
 11
-86.120135
 21
70.474165
  0
ENDBLK
  0
BLOCK
  2
*GRP_0047
 70
    65
 10
0.0
 20
0.0
  0
LINE
  8
補助線
  6
BYBLOCK
 62
     0
 10
-86.245135
 20
55.599165
 11
-86.245135
 21
55.349165
  0
LINE
  8
補助線
  6
BYBLOCK
 62
     0
 10
-86.370135
 20
55.474165
 11
-86.120135
 21
55.474165
  0
ENDBLK
  0
BLOCK
  2
*GRP_0048
 70
    65
 10
0.0
 20
0.0
  0
LINE
  8
補助線
  6
BYBLOCK
 62
     0
 10
-86.245135
 20
40.599165
 11
-86.245135
 21
40.349165
  0
LINE
  8
補助線
  6
BYBLOCK
 62
     0
 10
-86.370135
 20
40.474165
 11
-86.120135
 21
40.474165
  0
ENDBLK
  0
BLOCK
  2
*GRP_0049
 70
    65
 10
0.0
 20
0.0
  0
LINE
  8
補助線
  6
BYBLOCK
 62
     0
 10
-86.245135
 20
25.599165
 11
-86.245135
 21
25.349165
  0
LINE
  8
補助線
  6
BYBLOCK
 62
     0
 10
-86.370135
 20
25.474165
 11
-86.120135
 21
25.474165
  0
ENDBLK
  0
BLOCK
  2
*GRP_0050
 70
    65
 10
0.0
 20
0.0
  0
LINE
  8
補助線
  6
BYBLOCK
 62
     0
 10
-86.245135
 20
-4.650835
 11
-86.245135
 21
-4.400835
  0
LINE
  8
補助線
  6
BYBLOCK
 62
     0
 10
-86.370135
 20
-4.525835
 11
-86.120135
 21
-4.525835
  0
ENDBLK
  0
BLOCK
  2
*GRP_0051
 70
    65
 10
0.0
 20
0.0
  0
LINE
  8
補助線
  6
BYBLOCK
 62
     0
 10
-86.245135
 20
10.349165
 11
-86.245135
 21
10.599165
  0
LINE
  8
補助線
  6
BYBLOCK
 62
     0
 10
-86.370135
 20
10.474165
 11
-86.120135
 21
10.474165
  0
ENDBLK
  0
BLOCK
  2
*GRP_0052
 70
    65
 10
0.0
 20
0.0
  0
INSERT
  2
*GRP_0058
  8
補助線
  6
CONTINUOUS
 10
0.0
 20
0.0
  0
LINE
  8
ボルト／ビス
  6
CONTINUOUS
 10
2.254865
 20
-18.31451
 11
2.004865
 21
-18.170172
  0
LINE
  8
ボルト／ビス
  6
CONTINUOUS
 10
2.254865
 20
-18.31451
 11
2.504865
 21
-18.170172
  0
LINE
  8
ボルト／ビス
  6
CONTINUOUS
 10
2.004865
 20
-17.881498
 11
2.254865
 21
-17.73716
  0
LINE
  8
ボルト／ビス
  6
CONTINUOUS
 10
2.504865
 20
-17.881498
 11
2.254865
 21
-17.73716
  0
CIRCLE
  8
ボルト／ビス
  6
CONTINUOUS
 10
2.254865
 20
-18.025835
 40
0.25
  0
LINE
  8
ボルト／ビス
  6
CONTINUOUS
 10
2.504865
 20
-18.170172
 11
2.504865
 21
-17.881498
  0
LINE
  8
ボルト／ビス
  6
CONTINUOUS
 10
2.004865
 20
-17.881498
 11
2.004865
 21
-18.170172
  0
ENDBLK
  0
BLOCK
  2
*GRP_0053
 70
    65
 10
0.0
 20
0.0
  0
INSERT
  2
*GRP_0059
  8
補助線
  6
CONTINUOUS
 10
0.0
 20
0.0
  0
LINE
  8
ボルト／ビス
  6
CONTINUOUS
 10
-12.745135
 20
-18.31451
 11
-12.995135
 21
-18.170172
  0
LINE
  8
ボルト／ビス
  6
CONTINUOUS
 10
-12.745135
 20
-18.31451
 11
-12.495135
 21
-18.170172
  0
LINE
  8
ボルト／ビス
  6
CONTINUOUS
 10
-12.995135
 20
-17.881498
 11
-12.745135
 21
-17.73716
  0
LINE
  8
ボルト／ビス
  6
CONTINUOUS
 10
-12.495135
 20
-17.881498
 11
-12.745135
 21
-17.73716
  0
CIRCLE
  8
ボルト／ビス
  6
CONTINUOUS
 10
-12.745135
 20
-18.025835
 40
0.25
  0
LINE
  8
ボルト／ビス
  6
CONTINUOUS
 10
-12.495135
 20
-18.170172
 11
-12.495135
 21
-17.881498
  0
LINE
  8
ボルト／ビス
  6
CONTINUOUS
 10
-12.995135
 20
-17.881498
 11
-12.995135
 21
-18.170172
  0
ENDBLK
  0
BLOCK
  2
*GRP_0054
 70
    65
 10
0.0
 20
0.0
  0
INSERT
  2
*GRP_0060
  8
補助線
  6
CONTINUOUS
 10
0.0
 20
0.0
  0
LINE
  8
ボルト／ビス
  6
CONTINUOUS
 10
-27.745135
 20
-18.31451
 11
-27.995135
 21
-18.170172
  0
LINE
  8
ボルト／ビス
  6
CONTINUOUS
 10
-27.745135
 20
-18.31451
 11
-27.495135
 21
-18.170172
  0
LINE
  8
ボルト／ビス
  6
CONTINUOUS
 10
-27.995135
 20
-17.881498
 11
-27.745135
 21
-17.73716
  0
LINE
  8
ボルト／ビス
  6
CONTINUOUS
 10
-27.495135
 20
-17.881498
 11
-27.745135
 21
-17.73716
  0
CIRCLE
  8
ボルト／ビス
  6
CONTINUOUS
 10
-27.745135
 20
-18.025835
 40
0.25
  0
LINE
  8
ボルト／ビス
  6
CONTINUOUS
 10
-27.495135
 20
-18.170172
 11
-27.495135
 21
-17.881498
  0
LINE
  8
ボルト／ビス
  6
CONTINUOUS
 10
-27.995135
 20
-17.881498
 11
-27.995135
 21
-18.170172
  0
ENDBLK
  0
BLOCK
  2
*GRP_0055
 70
    65
 10
0.0
 20
0.0
  0
INSERT
  2
*GRP_0061
  8
補助線
  6
CONTINUOUS
 10
0.0
 20
0.0
  0
LINE
  8
ボルト／ビス
  6
CONTINUOUS
 10
-42.745135
 20
-18.31451
 11
-42.995135
 21
-18.170172
  0
LINE
  8
ボルト／ビス
  6
CONTINUOUS
 10
-42.745135
 20
-18.31451
 11
-42.495135
 21
-18.170172
  0
LINE
  8
ボルト／ビス
  6
CONTINUOUS
 10
-42.995135
 20
-17.881498
 11
-42.745135
 21
-17.73716
  0
LINE
  8
ボルト／ビス
  6
CONTINUOUS
 10
-42.495135
 20
-17.881498
 11
-42.745135
 21
-17.73716
  0
CIRCLE
  8
ボルト／ビス
  6
CONTINUOUS
 10
-42.745135
 20
-18.025835
 40
0.25
  0
LINE
  8
ボルト／ビス
  6
CONTINUOUS
 10
-42.495135
 20
-18.170172
 11
-42.495135
 21
-17.881498
  0
LINE
  8
ボルト／ビス
  6
CONTINUOUS
 10
-42.995135
 20
-17.881498
 11
-42.995135
 21
-18.170172
  0
ENDBLK
  0
BLOCK
  2
*GRP_0056
 70
    65
 10
0.0
 20
0.0
  0
INSERT
  2
*GRP_0062
  8
補助線
  6
CONTINUOUS
 10
0.0
 20
0.0
  0
LINE
  8
ボルト／ビス
  6
CONTINUOUS
 10
-72.745135
 20
-18.31451
 11
-72.495135
 21
-18.170172
  0
LINE
  8
ボルト／ビス
  6
CONTINUOUS
 10
-72.745135
 20
-18.31451
 11
-72.995135
 21
-18.170172
  0
LINE
  8
ボルト／ビス
  6
CONTINUOUS
 10
-72.495135
 20
-17.881498
 11
-72.745135
 21
-17.73716
  0
LINE
  8
ボルト／ビス
  6
CONTINUOUS
 10
-72.995135
 20
-17.881498
 11
-72.745135
 21
-17.73716
  0
CIRCLE
  8
ボルト／ビス
  6
CONTINUOUS
 10
-72.745135
 20
-18.025835
 40
0.25
  0
LINE
  8
ボルト／ビス
  6
CONTINUOUS
 10
-72.995135
 20
-18.170172
 11
-72.995135
 21
-17.881498
  0
LINE
  8
ボルト／ビス
  6
CONTINUOUS
 10
-72.495135
 20
-17.881498
 11
-72.495135
 21
-18.170172
  0
ENDBLK
  0
BLOCK
  2
*GRP_0057
 70
    65
 10
0.0
 20
0.0
  0
INSERT
  2
*GRP_0063
  8
補助線
  6
CONTINUOUS
 10
0.0
 20
0.0
  0
LINE
  8
ボルト／ビス
  6
CONTINUOUS
 10
-57.745135
 20
-18.31451
 11
-57.495135
 21
-18.170172
  0
LINE
  8
ボルト／ビス
  6
CONTINUOUS
 10
-57.745135
 20
-18.31451
 11
-57.995135
 21
-18.170172
  0
LINE
  8
ボルト／ビス
  6
CONTINUOUS
 10
-57.495135
 20
-17.881498
 11
-57.745135
 21
-17.73716
  0
LINE
  8
ボルト／ビス
  6
CONTINUOUS
 10
-57.995135
 20
-17.881498
 11
-57.745135
 21
-17.73716
  0
CIRCLE
  8
ボルト／ビス
  6
CONTINUOUS
 10
-57.745135
 20
-18.025835
 40
0.25
  0
LINE
  8
ボルト／ビス
  6
CONTINUOUS
 10
-57.995135
 20
-18.170172
 11
-57.995135
 21
-17.881498
  0
LINE
  8
ボルト／ビス
  6
CONTINUOUS
 10
-57.495135
 20
-17.881498
 11
-57.495135
 21
-18.170172
  0
ENDBLK
  0
BLOCK
  2
*GRP_0058
 70
    65
 10
0.0
 20
0.0
  0
LINE
  8
補助線
  6
BYBLOCK
 62
     0
 10
2.379865
 20
-18.025835
 11
2.129865
 21
-18.025835
  0
LINE
  8
補助線
  6
BYBLOCK
 62
     0
 10
2.254865
 20
-18.150835
 11
2.254865
 21
-17.900835
  0
ENDBLK
  0
BLOCK
  2
*GRP_0059
 70
    65
 10
0.0
 20
0.0
  0
LINE
  8
補助線
  6
BYBLOCK
 62
     0
 10
-12.620135
 20
-18.025835
 11
-12.870135
 21
-18.025835
  0
LINE
  8
補助線
  6
BYBLOCK
 62
     0
 10
-12.745135
 20
-18.150835
 11
-12.745135
 21
-17.900835
  0
ENDBLK
  0
BLOCK
  2
*GRP_0060
 70
    65
 10
0.0
 20
0.0
  0
LINE
  8
補助線
  6
BYBLOCK
 62
     0
 10
-27.620135
 20
-18.025835
 11
-27.870135
 21
-18.025835
  0
LINE
  8
補助線
  6
BYBLOCK
 62
     0
 10
-27.745135
 20
-18.150835
 11
-27.745135
 21
-17.900835
  0
ENDBLK
  0
BLOCK
  2
*GRP_0061
 70
    65
 10
0.0
 20
0.0
  0
LINE
  8
補助線
  6
BYBLOCK
 62
     0
 10
-42.620135
 20
-18.025835
 11
-42.870135
 21
-18.025835
  0
LINE
  8
補助線
  6
BYBLOCK
 62
     0
 10
-42.745135
 20
-18.150835
 11
-42.745135
 21
-17.900835
  0
ENDBLK
  0
BLOCK
  2
*GRP_0062
 70
    65
 10
0.0
 20
0.0
  0
LINE
  8
補助線
  6
BYBLOCK
 62
     0
 10
-72.870135
 20
-18.025835
 11
-72.620135
 21
-18.025835
  0
LINE
  8
補助線
  6
BYBLOCK
 62
     0
 10
-72.745135
 20
-18.150835
 11
-72.745135
 21
-17.900835
  0
ENDBLK
  0
BLOCK
  2
*GRP_0063
 70
    65
 10
0.0
 20
0.0
  0
LINE
  8
補助線
  6
BYBLOCK
 62
     0
 10
-57.870135
 20
-18.025835
 11
-57.620135
 21
-18.025835
  0
LINE
  8
補助線
  6
BYBLOCK
 62
     0
 10
-57.745135
 20
-18.150835
 11
-57.745135
 21
-17.900835
  0
ENDBLK
  0
ENDSEC
  0
SECTION
  2
ENTITIES
  0
POLYLINE
  8
通り芯
  6
CONTINUOUS
 66
     1
 70
     1
  0
VERTEX
  8
通り芯
 10
-210.0
 20
-148.5
  0
VERTEX
  8
通り芯
 10
210.0
 20
-148.5
  0
VERTEX
  8
通り芯
 10
210.0
 20
148.5
  0
VERTEX
  8
通り芯
 10
-210.0
 20
148.5
  0
SEQEND
  0
INSERT
  2
*GRP_0001
  8
型材断面
  6
CONTINUOUS
 10
0.0
 20
0.0
  0
LINE
  8
型材断面
  6
DASHDOT
 10
-85.245135
 20
-17.025835
 11
14.754865
 21
-17.025835
  0
LINE
  8
型材断面
  6
DASHDOT
 10
-85.245135
 20
-96.480105
 11
-85.245135
 21
82.974165
  0
LINE
  8
型材断面
  6
DASHDOT
 10
-35.245135
 20
-96.480105
 11
-35.245135
 21
82.974165
  0
LINE
  8
型材断面
  6
DASHDOT
 10
14.754865
 20
-96.480105
 11
14.754865
 21
82.974165
  0
LINE
  8
型材断面
  6
DASHDOT
 10
-85.245135
 20
32.974165
 11
14.754865
 21
32.974165
  0
LINE
  8
型材断面
  6
DASHDOT
 10
-85.245135
 20
82.974165
 11
14.754865
 21
82.974165
  0
LINE
  8
型材断面
  6
CONTINUOUS
 10
53.021398
 20
-11.256877
 11
50.777952
 21
-15.142638
  0
LINE
  8
型材断面
  6
CONTINUOUS
 10
53.021398
 20
-11.256877
 11
55.264842
 21
-15.142638
  0
LINE
  8
型材断面
  6
CONTINUOUS
 10
55.264842
 20
-15.142638
 11
50.777952
 21
-15.142638
  0
LINE
  8
型材断面
  6
CONTINUOUS
 10
43.987517
 20
-16.55053
 11
96.644197
 21
-16.55053
  0
LINE
  8
型材断面
  6
CONTINUOUS
 10
43.987517
 20
-23.606318
 11
96.644197
 21
-23.606318
  0
LINE
  8
型材断面
  6
DOT
 10
-85.245135
 20
34.849165
 11
14.754865
 21
34.849165
  0
LINE
  8
型材断面
  6
DOT
 10
-85.245135
 20
31.099165
 11
14.754865
 21
31.099165
  0
LINE
  8
型材断面
  6
DOT
 10
-37.120135
 20
82.974165
 11
-37.120135
 21
34.849165
  0
LINE
  8
型材断面
  6
DOT
 10
-33.370135
 20
82.974165
 11
-33.370135
 21
34.849165
  0
LINE
  8
型材断面
  6
DOT
 10
-37.120135
 20
-17.025835
 11
-37.120135
 21
31.099165
  0
LINE
  8
型材断面
  6
DOT
 10
-33.370135
 20
-17.025835
 11
-33.370135
 21
31.099165
  0
LINE
  8
型材断面
  6
CONTINUOUS
 10
-88.480353
 20
-84.766018
 11
-88.480353
 21
-84.091017
  0
LINE
  8
型材断面
  6
CONTINUOUS
 62
    47
 10
-89.155353
 20
-84.091017
 11
-89.155353
 21
-83.341017
  0
LINE
  8
型材断面
  6
CONTINUOUS
 62
    47
 10
-89.155353
 20
-83.341017
 11
-86.343665
 21
-82.46609
  0
LINE
  8
型材断面
  6
CONTINUOUS
 10
-89.155353
 20
-83.341017
 11
-35.245135
 21
-83.341017
  0
LINE
  8
型材断面
  6
CONTINUOUS
 10
-88.480353
 20
-84.766018
 11
-35.245135
 21
-84.766018
  0
LINE
  8
型材断面
  6
CONTINUOUS
 10
17.990083
 20
-84.766018
 11
17.990083
 21
-84.091017
  0
LINE
  8
型材断面
  6
CONTINUOUS
 62
    47
 10
18.665083
 20
-84.091017
 11
18.665083
 21
-83.341017
  0
LINE
  8
型材断面
  6
CONTINUOUS
 62
    47
 10
18.665083
 20
-83.341017
 11
15.853395
 21
-82.46609
  0
LINE
  8
型材断面
  6
CONTINUOUS
 10
18.665083
 20
-83.341017
 11
-35.245135
 21
-83.341017
  0
LINE
  8
型材断面
  6
CONTINUOUS
 10
17.990083
 20
-84.766018
 11
-35.245135
 21
-84.766018
  0
LINE
  8
型材断面
  6
CONTINUOUS
 10
17.854865
 20
-20.125835
 11
18.665083
 21
-20.936053
  0
LINE
  8
型材断面
  6
CONTINUOUS
 10
18.665083
 20
-20.936053
 11
18.665083
 21
32.974165
  0
LINE
  8
型材断面
  6
CONTINUOUS
 10
18.665083
 20
-20.936053
 11
-35.245135
 21
-20.936053
  0
LINE
  8
型材断面
  6
CONTINUOUS
 10
-88.345135
 20
-20.125835
 11
-89.155353
 21
-20.936053
  0
LINE
  8
型材断面
  6
CONTINUOUS
 10
-89.155353
 20
-20.936053
 11
-89.155353
 21
32.974165
  0
LINE
  8
型材断面
  6
CONTINUOUS
 10
-89.155353
 20
-20.936053
 11
-35.245135
 21
-20.936053
  0
LINE
  8
型材断面
  6
CONTINUOUS
 10
-88.345135
 20
86.074165
 11
-89.155353
 21
86.884382
  0
LINE
  8
型材断面
  6
CONTINUOUS
 10
-89.155353
 20
86.884382
 11
-89.155353
 21
32.974165
  0
LINE
  8
型材断面
  6
CONTINUOUS
 10
-89.155353
 20
86.884382
 11
-35.245135
 21
86.884382
  0
LINE
  8
型材断面
  6
CONTINUOUS
 10
17.854865
 20
86.074165
 11
18.665083
 21
86.884382
  0
LINE
  8
型材断面
  6
CONTINUOUS
 10
18.665083
 20
86.884382
 11
18.665083
 21
32.974165
  0
LINE
  8
型材断面
  6
CONTINUOUS
 10
18.665083
 20
86.884382
 11
-35.245135
 21
86.884382
  0
LINE
  8
型材断面
  6
CONTINUOUS
 10
-35.245135
 20
-25.04971
 11
-37.48858
 21
-28.93547
  0
LINE
  8
型材断面
  6
CONTINUOUS
 10
-35.245135
 20
-25.04971
 11
-33.00169
 21
-28.93547
  0
LINE
  8
型材断面
  6
CONTINUOUS
 10
-33.00169
 20
-28.93547
 11
-37.48858
 21
-28.93547
  0
LINE
  8
型材断面
  6
CONTINUOUS
 10
-35.245135
 20
90.99804
 11
-37.48858
 21
94.8838
  0
LINE
  8
型材断面
  6
CONTINUOUS
 10
-35.245135
 20
90.99804
 11
-33.00169
 21
94.8838
  0
LINE
  8
型材断面
  6
CONTINUOUS
 10
-33.00169
 20
94.8838
 11
-37.48858
 21
94.8838
  0
LINE
  8
型材断面
  6
CONTINUOUS
 10
22.778743
 20
32.974165
 11
26.664502
 21
30.73072
  0
LINE
  8
型材断面
  6
CONTINUOUS
 10
22.778743
 20
32.974165
 11
26.664502
 21
35.21761
  0
LINE
  8
型材断面
  6
CONTINUOUS
 10
26.664502
 20
35.21761
 11
26.664502
 21
30.73072
  0
LINE
  8
型材断面
  6
CONTINUOUS
 10
-93.269013
 20
32.974165
 11
-97.154773
 21
30.73072
  0
LINE
  8
型材断面
  6
CONTINUOUS
 10
-93.269013
 20
32.974165
 11
-97.154773
 21
35.21761
  0
LINE
  8
型材断面
  6
CONTINUOUS
 10
-97.154773
 20
35.21761
 11
-97.154773
 21
30.73072
  0
LINE
  8
ガラス
  6
CONTINUOUS
 10
160.619238
 20
73.651468
 11
160.619238
 21
24.976468
  0
LINE
  8
ガラス
  6
CONTINUOUS
 10
160.619238
 20
24.976468
 11
111.944238
 21
24.976468
  0
LINE
  8
ガラス
  6
CONTINUOUS
 10
111.944238
 20
24.976468
 11
111.944238
 21
73.651468
  0
LINE
  8
ガラス
  6
CONTINUOUS
 10
160.619238
 20
73.651468
 11
111.944238
 21
73.651468
  0
CIRCLE
  8
ボルト／ビス
  6
CONTINUOUS
 10
15.754865
 20
-4.525835
 40
0.288675
  0
CIRCLE
  8
ボルト／ビス
  6
CONTINUOUS
 10
15.754865
 20
-4.525835
 40
0.455885
  0
CIRCLE
  8
ボルト／ビス
  6
CONTINUOUS
 10
15.754865
 20
10.474165
 40
0.288675
  0
CIRCLE
  8
ボルト／ビス
  6
CONTINUOUS
 10
15.754865
 20
10.474165
 40
0.455885
  0
CIRCLE
  8
ボルト／ビス
  6
CONTINUOUS
 10
15.754865
 20
25.474165
 40
0.288675
  0
CIRCLE
  8
ボルト／ビス
  6
CONTINUOUS
 10
15.754865
 20
25.474165
 40
0.455885
  0
CIRCLE
  8
ボルト／ビス
  6
CONTINUOUS
 10
15.754865
 20
40.474165
 40
0.288675
  0
CIRCLE
  8
ボルト／ビス
  6
CONTINUOUS
 10
15.754865
 20
40.474165
 40
0.455885
  0
CIRCLE
  8
ボルト／ビス
  6
CONTINUOUS
 10
15.754865
 20
70.474165
 40
0.288675
  0
CIRCLE
  8
ボルト／ビス
  6
CONTINUOUS
 10
15.754865
 20
70.474165
 40
0.455885
  0
CIRCLE
  8
ボルト／ビス
  6
CONTINUOUS
 10
15.754865
 20
55.474165
 40
0.288675
  0
CIRCLE
  8
ボルト／ビス
  6
CONTINUOUS
 10
15.754865
 20
55.474165
 40
0.455885
  0
CIRCLE
  8
ボルト／ビス
  6
CONTINUOUS
 10
-72.745135
 20
83.974165
 40
0.288675
  0
CIRCLE
  8
ボルト／ビス
  6
CONTINUOUS
 10
-72.745135
 20
83.974165
 40
0.455885
  0
CIRCLE
  8
ボルト／ビス
  6
CONTINUOUS
 10
-57.745135
 20
83.974165
 40
0.288675
  0
CIRCLE
  8
ボルト／ビス
  6
CONTINUOUS
 10
-57.745135
 20
83.974165
 40
0.455885
  0
CIRCLE
  8
ボルト／ビス
  6
CONTINUOUS
 10
-42.745135
 20
83.974165
 40
0.288675
  0
CIRCLE
  8
ボルト／ビス
  6
CONTINUOUS
 10
-42.745135
 20
83.974165
 40
0.455885
  0
CIRCLE
  8
ボルト／ビス
  6
CONTINUOUS
 10
-27.745135
 20
83.974165
 40
0.288675
  0
CIRCLE
  8
ボルト／ビス
  6
CONTINUOUS
 10
-27.745135
 20
83.974165
 40
0.455885
  0
CIRCLE
  8
ボルト／ビス
  6
CONTINUOUS
 10
2.254865
 20
83.974165
 40
0.288675
  0
CIRCLE
  8
ボルト／ビス
  6
CONTINUOUS
 10
2.254865
 20
83.974165
 40
0.455885
  0
CIRCLE
  8
ボルト／ビス
  6
CONTINUOUS
 10
-12.745135
 20
83.974165
 40
0.288675
  0
CIRCLE
  8
ボルト／ビス
  6
CONTINUOUS
 10
-12.745135
 20
83.974165
 40
0.455885
  0
CIRCLE
  8
ボルト／ビス
  6
CONTINUOUS
 10
-86.245135
 20
70.474165
 40
0.288675
  0
CIRCLE
  8
ボルト／ビス
  6
CONTINUOUS
 10
-86.245135
 20
70.474165
 40
0.455885
  0
CIRCLE
  8
ボルト／ビス
  6
CONTINUOUS
 10
-86.245135
 20
55.474165
 40
0.288675
  0
CIRCLE
  8
ボルト／ビス
  6
CONTINUOUS
 10
-86.245135
 20
55.474165
 40
0.455885
  0
CIRCLE
  8
ボルト／ビス
  6
CONTINUOUS
 10
-86.245135
 20
40.474165
 40
0.288675
  0
CIRCLE
  8
ボルト／ビス
  6
CONTINUOUS
 10
-86.245135
 20
40.474165
 40
0.455885
  0
CIRCLE
  8
ボルト／ビス
  6
CONTINUOUS
 10
-86.245135
 20
25.474165
 40
0.288675
  0
CIRCLE
  8
ボルト／ビス
  6
CONTINUOUS
 10
-86.245135
 20
25.474165
 40
0.455885
  0
CIRCLE
  8
ボルト／ビス
  6
CONTINUOUS
 10
-86.245135
 20
-4.525835
 40
0.288675
  0
CIRCLE
  8
ボルト／ビス
  6
CONTINUOUS
 10
-86.245135
 20
-4.525835
 40
0.455885
  0
CIRCLE
  8
ボルト／ビス
  6
CONTINUOUS
 10
-86.245135
 20
10.474165
 40
0.288675
  0
CIRCLE
  8
ボルト／ビス
  6
CONTINUOUS
 10
-86.245135
 20
10.474165
 40
0.455885
  0
CIRCLE
  8
ボルト／ビス
  6
CONTINUOUS
 10
2.254865
 20
-18.025835
 40
0.288675
  0
CIRCLE
  8
ボルト／ビス
  6
CONTINUOUS
 10
2.254865
 20
-18.025835
 40
0.455885
  0
CIRCLE
  8
ボルト／ビス
  6
CONTINUOUS
 10
-12.745135
 20
-18.025835
 40
0.288675
  0
CIRCLE
  8
ボルト／ビス
  6
CONTINUOUS
 10
-12.745135
 20
-18.025835
 40
0.455885
  0
CIRCLE
  8
ボルト／ビス
  6
CONTINUOUS
 10
-27.745135
 20
-18.025835
 40
0.288675
  0
CIRCLE
  8
ボルト／ビス
  6
CONTINUOUS
 10
-27.745135
 20
-18.025835
 40
0.455885
  0
CIRCLE
  8
ボルト／ビス
  6
CONTINUOUS
 10
-42.745135
 20
-18.025835
 40
0.288675
  0
CIRCLE
  8
ボルト／ビス
  6
CONTINUOUS
 10
-42.745135
 20
-18.025835
 40
0.455885
  0
CIRCLE
  8
ボルト／ビス
  6
CONTINUOUS
 10
-72.745135
 20
-18.025835
 40
0.288675
  0
CIRCLE
  8
ボルト／ビス
  6
CONTINUOUS
 10
-72.745135
 20
-18.025835
 40
0.455885
  0
CIRCLE
  8
ボルト／ビス
  6
CONTINUOUS
 10
-57.745135
 20
-18.025835
 40
0.288675
  0
CIRCLE
  8
ボルト／ビス
  6
CONTINUOUS
 10
-57.745135
 20
-18.025835
 40
0.455885
  0
TEXT
  7
TextStyle03
  8
文字
  6
CONTINUOUS
 10
57.325
 20
-14.8
  1
は排水穴位置を示す
 40
3.0
 72
     5
 11
87.325
 21
-14.8
  0
TEXT
  7
TextStyle03
  8
文字
  6
CONTINUOUS
 10
-71.425
 20
35.55
  1
中桟
 40
3.0
 72
     5
 11
-65.05
 21
35.55
  0
TEXT
  7
TextStyle03
  8
文字
  6
CONTINUOUS
 10
-32.7
 20
70.7
  1
中桟
 40
3.0
 50
270.0
 72
     5
 11
-32.7
 21
64.325
  0
TEXT
  7
TextStyle03
  8
文字
  6
CONTINUOUS
 10
-91.975
 20
108.425
  1
アンカーピッチ
 40
3.0
 72
     5
 11
-68.725
 21
108.425
  0
TEXT
  7
TextStyle03
  8
文字
  6
CONTINUOUS
 10
-110.675
 20
66.475
  1
アンカーピッチ
 40
3.0
 50
90.0
 72
     5
 11
-110.675
 21
89.725
  0
TEXT
  7
TextStyle03
  8
文字
  6
CONTINUOUS
 10
51.725
 20
-22.2
  1
アンカー数量　１４ヶ所
 40
3.0
 72
     5
 11
88.475
 21
-22.2
  0
TEXT
  7
TextStyle03
  8
文字
  6
CONTINUOUS
 10
82.375
 20
101.15
  1
ＮＳコード：ＮＳＫＳ
 40
5.0
 72
     5
 11
138.0
 21
101.15
  0
TEXT
  7
TextStyle03
  8
文字
  6
CONTINUOUS
 10
134.45
 20
35.875
  1
網入り6.8t
 40
3.0
 72
     5
 11
151.1375
 21
35.875
  0
TEXT
  7
TextStyle03
  8
文字
  6
CONTINUOUS
 10
141.6
 20
31.85
  1
×４枚
 40
3.0
 72
     5
 11
151.35
 21
31.85
  0
TEXT
  7
TextStyle03
  8
文字
  6
CONTINUOUS
 10
82.425
 20
120.7
  1
シリーズ：ＳＴＤＫ
 40
5.0
 72
     5
 11
132.425
 21
120.7
  0
TEXT
  7
TextStyle03
  8
文字
  6
CONTINUOUS
 10
82.425
 20
115.075
  1
　　　　　（固定）2000×2000タイプ
 40
5.0
 72
     5
 11
177.425
 21
115.075
  0
TEXT
  7
TextStyle03
  8
文字
  6
CONTINUOUS
 10
82.425
 20
109.45
  1
図面名　：外観姿図
 40
5.0
 72
     5
 11
132.425
 21
109.45
  0
TEXT
  7
TextStyle03
  8
文字
  6
CONTINUOUS
 10
82.425
 20
103.825
  1
　　　　　　
 40
5.0
 72
     5
 11
115.55
 21
103.825
  0
INSERT
  2
*GRP_0016
  8
文字
  6
CONTINUOUS
 10
0.0
 20
0.0
  0
INSERT
  2
*GRP_0017
  8
文字
  6
CONTINUOUS
 10
0.0
 20
0.0
  0
INSERT
  2
*GRP_0018
  8
文字
  6
CONTINUOUS
 10
0.0
 20
0.0
  0
INSERT
  2
*GRP_0019
  8
文字
  6
CONTINUOUS
 10
0.0
 20
0.0
  0
INSERT
  2
*GRP_0020
  8
文字
  6
CONTINUOUS
 10
0.0
 20
0.0
  0
INSERT
  2
*GRP_0021
  8
文字
  6
CONTINUOUS
 10
0.0
 20
0.0
  0
INSERT
  2
*GRP_0028
  8
文字
  6
CONTINUOUS
 10
0.0
 20
0.0
  0
INSERT
  2
*GRP_0029
  8
文字
  6
CONTINUOUS
 10
0.0
 20
0.0
  0
INSERT
  2
*GRP_0030
  8
文字
  6
CONTINUOUS
 10
0.0
 20
0.0
  0
INSERT
  2
*GRP_0031
  8
文字
  6
CONTINUOUS
 10
0.0
 20
0.0
  0
INSERT
  2
*GRP_0032
  8
文字
  6
CONTINUOUS
 10
0.0
 20
0.0
  0
INSERT
  2
*GRP_0033
  8
文字
  6
CONTINUOUS
 10
0.0
 20
0.0
  0
INSERT
  2
*GRP_0040
  8
文字
  6
CONTINUOUS
 10
0.0
 20
0.0
  0
INSERT
  2
*GRP_0041
  8
文字
  6
CONTINUOUS
 10
0.0
 20
0.0
  0
INSERT
  2
*GRP_0042
  8
文字
  6
CONTINUOUS
 10
0.0
 20
0.0
  0
INSERT
  2
*GRP_0043
  8
文字
  6
CONTINUOUS
 10
0.0
 20
0.0
  0
INSERT
  2
*GRP_0044
  8
文字
  6
CONTINUOUS
 10
0.0
 20
0.0
  0
INSERT
  2
*GRP_0045
  8
文字
  6
CONTINUOUS
 10
0.0
 20
0.0
  0
INSERT
  2
*GRP_0052
  8
文字
  6
CONTINUOUS
 10
0.0
 20
0.0
  0
INSERT
  2
*GRP_0053
  8
文字
  6
CONTINUOUS
 10
0.0
 20
0.0
  0
INSERT
  2
*GRP_0054
  8
文字
  6
CONTINUOUS
 10
0.0
 20
0.0
  0
INSERT
  2
*GRP_0055
  8
文字
  6
CONTINUOUS
 10
0.0
 20
0.0
  0
INSERT
  2
*GRP_0056
  8
文字
  6
CONTINUOUS
 10
0.0
 20
0.0
  0
INSERT
  2
*GRP_0057
  8
文字
  6
CONTINUOUS
 10
0.0
 20
0.0
  0
INSERT
  2
*DIM_0002
  8
寸法
  6
CONTINUOUS
 10
0.0
 20
0.0
  0
INSERT
  2
*DIM_0003
  8
寸法
  6
CONTINUOUS
 10
0.0
 20
0.0
  0
INSERT
  2
*DIM_0004
  8
寸法
  6
CONTINUOUS
 10
0.0
 20
0.0
  0
INSERT
  2
*DIM_0005
  8
寸法
  6
CONTINUOUS
 10
0.0
 20
0.0
  0
INSERT
  2
*DIM_0006
  8
寸法
  6
CONTINUOUS
 10
0.0
 20
0.0
  0
INSERT
  2
*DIM_0007
  8
寸法
  6
CONTINUOUS
 10
0.0
 20
0.0
  0
INSERT
  2
*DIM_0008
  8
寸法
  6
CONTINUOUS
 10
0.0
 20
0.0
  0
INSERT
  2
*DIM_0009
  8
寸法
  6
CONTINUOUS
 10
0.0
 20
0.0
  0
INSERT
  2
*DIM_0010
  8
寸法
  6
CONTINUOUS
 10
0.0
 20
0.0
  0
INSERT
  2
*DIM_0011
  8
寸法
  6
CONTINUOUS
 10
0.0
 20
0.0
  0
INSERT
  2
*DIM_0012
  8
寸法
  6
CONTINUOUS
 10
0.0
 20
0.0
  0
INSERT
  2
*DIM_0015
  8
寸法
  6
CONTINUOUS
 10
0.0
 20
0.0
  0
LINE
  8
別途部材
  6
CONTINUOUS
 62
    96
 10
-87.745135
 20
-80.96609
 11
-88.345135
 21
-82.46609
  0
LINE
  8
別途部材
  6
CONTINUOUS
 62
    96
 10
-87.745135
 20
-80.96609
 11
-35.245135
 21
-80.96609
  0
LINE
  8
別途部材
  6
CONTINUOUS
 10
-88.345135
 20
-82.46609
 11
-35.245135
 21
-82.46609
  0
LINE
  8
別途部材
  6
CONTINUOUS
 62
    96
 10
17.254865
 20
-80.96609
 11
17.854865
 21
-82.46609
  0
LINE
  8
別途部材
  6
CONTINUOUS
 62
    96
 10
17.254865
 20
-80.96609
 11
-35.245135
 21
-80.96609
  0
LINE
  8
別途部材
  6
CONTINUOUS
 10
17.854865
 20
-82.46609
 11
-35.245135
 21
-82.46609
  0
LINE
  8
別途部材
  6
CONTINUOUS
 10
17.854865
 20
-20.125835
 11
17.254865
 21
-19.525835
  0
LINE
  8
別途部材
  6
CONTINUOUS
 10
14.754865
 20
-17.025835
 11
2.66598
 21
-4.93695
  0
LINE
  8
別途部材
  6
CONTINUOUS
 10
17.854865
 20
-20.125835
 11
17.854865
 21
32.974165
  0
LINE
  8
別途部材
  6
CONTINUOUS
 10
17.254865
 20
-19.525835
 11
17.254865
 21
32.974165
  0
LINE
  8
別途部材
  6
CONTINUOUS
 10
17.254865
 20
-19.525835
 11
-35.245135
 21
-19.525835
  0
LINE
  8
別途部材
  6
CONTINUOUS
 10
17.854865
 20
-20.125835
 11
-35.245135
 21
-20.125835
  0
LINE
  8
別途部材
  6
CONTINUOUS
 10
17.854865
 20
86.074165
 11
17.254865
 21
85.474165
  0
LINE
  8
別途部材
  6
CONTINUOUS
 10
14.754865
 20
82.974165
 11
2.66598
 21
70.88528
  0
LINE
  8
別途部材
  6
CONTINUOUS
 10
17.854865
 20
86.074165
 11
17.854865
 21
32.974165
  0
LINE
  8
別途部材
  6
CONTINUOUS
 10
17.254865
 20
85.474165
 11
17.254865
 21
32.974165
  0
LINE
  8
別途部材
  6
CONTINUOUS
 10
17.254865
 20
85.474165
 11
-35.245135
 21
85.474165
  0
LINE
  8
別途部材
  6
CONTINUOUS
 10
17.854865
 20
86.074165
 11
-35.245135
 21
86.074165
  0
LINE
  8
別途部材
  6
CONTINUOUS
 10
-88.345135
 20
-20.125835
 11
-87.745135
 21
-19.525835
  0
LINE
  8
別途部材
  6
CONTINUOUS
 10
-85.245135
 20
-17.025835
 11
-73.15625
 21
-4.93695
  0
LINE
  8
別途部材
  6
CONTINUOUS
 10
-88.345135
 20
-20.125835
 11
-88.345135
 21
32.974165
  0
LINE
  8
別途部材
  6
CONTINUOUS
 10
-87.745135
 20
-19.525835
 11
-87.745135
 21
32.974165
  0
LINE
  8
別途部材
  6
CONTINUOUS
 10
-87.745135
 20
-19.525835
 11
-35.245135
 21
-19.525835
  0
LINE
  8
別途部材
  6
CONTINUOUS
 10
-88.345135
 20
-20.125835
 11
-35.245135
 21
-20.125835
  0
LINE
  8
別途部材
  6
CONTINUOUS
 10
-88.345135
 20
86.074165
 11
-87.745135
 21
85.474165
  0
LINE
  8
別途部材
  6
CONTINUOUS
 10
-85.245135
 20
82.974165
 11
-73.15625
 21
70.88528
  0
LINE
  8
別途部材
  6
CONTINUOUS
 10
-88.345135
 20
86.074165
 11
-88.345135
 21
32.974165
  0
LINE
  8
別途部材
  6
CONTINUOUS
 10
-87.745135
 20
85.474165
 11
-87.745135
 21
32.974165
  0
LINE
  8
別途部材
  6
CONTINUOUS
 10
-87.745135
 20
85.474165
 11
-35.245135
 21
85.474165
  0
LINE
  8
別途部材
  6
CONTINUOUS
 10
-88.345135
 20
86.074165
 11
-35.245135
 21
86.074165
  0
INSERT
  2
*GRP_0013
  8
別途部材
  6
DOT
 10
0.0
 20
0.0
  0
INSERT
  2
*GRP_0014
  8
別途部材
  6
DOT
 10
0.0
 20
0.0
  0
ARC
  8
別途部材
  6
CONTINUOUS
 10
-35.245135
 20
-125.271646
 40
66.805556
 50
41.544509
 51
138.455491
  0
LINE
  8
St
  6
CONTINUOUS
 62
    47
 10
-89.155353
 20
-84.091017
 11
-35.245135
 21
-84.091017
  0
LINE
  8
St
  6
CONTINUOUS
 62
    47
 10
18.665083
 20
-84.091017
 11
-35.245135
 21
-84.091017
  0
ENDSEC
  0
EOF
