  0
SECTION
  2
HEADER
  9
$EXTMIN
 10
-210.0
 20
-148.5
  9
$EXTMAX
 10
210.0
 20
148.5
  9
$PDMODE
 70
    32
  9
$PDSIZE
 40
1.5
  9
$LTSCALE
 40
10.0
  0
ENDSEC
  0
SECTION
  2
TABLES
  0
TABLE
  2
LTYPE
 70
    15
  0
LTYPE
  2
CONTINUOUS
 70
    64
  3
実線
 72
    65
 73
     0
 40
0.0
  0
LTYPE
  2
DASHED
 70
    64
  3
破線A
 72
    65
 73
     2
 40
0.6
 49
0.4
 49
-0.2
  0
LTYPE
  2
DASHEDX2
 70
    64
  3
破線B
 72
    65
 73
     2
 40
1.3
 49
0.9
 49
-0.4
  0
LTYPE
  2
DASHDOT
 70
    64
  3
１点鎖線A
 72
    65
 73
     4
 40
0.5375
 49
0.375
 49
-0.05
 49
0.0625
 49
-0.05
  0
LTYPE
  2
DASHDOTX2
 70
    64
  3
１点鎖線B
 72
    65
 73
     4
 40
1.075
 49
0.75
 49
-0.1
 49
0.125
 49
-0.1
  0
LTYPE
  2
DIVIDE2
 70
    64
  3
２点鎖線A
 72
    65
 73
     6
 40
0.5125
 49
0.3
 49
-0.0375
 49
0.05
 49
-0.0375
 49
0.05
 49
-0.0375
  0
LTYPE
  2
DIVIDE
 70
    64
  3
２点鎖線B
 72
    65
 73
     6
 40
1.05
 49
0.55
 49
-0.1
 49
0.1
 49
-0.1
 49
0.1
 49
-0.1
  0
LTYPE
  2
DOT
 70
    64
  3
点線A
 72
    65
 73
     2
 40
0.1125
 49
0.0625
 49
-0.05
  0
LTYPE
  2
DOTX2
 70
    64
  3
点線B
 72
    65
 73
     2
 40
0.275
 49
0.15
 49
-0.125
  0
LTYPE
  2
CONTINUOUS
 70
    64
  3
実線
 72
    65
 73
     0
 40
0.0
  0
LTYPE
  2
CONTINUOUS
 70
    64
  3
実線
 72
    65
 73
     0
 40
0.0
  0
LTYPE
  2
CONTINUOUS
 70
    64
  3
実線
 72
    65
 73
     0
 40
0.0
  0
LTYPE
  2
CONTINUOUS
 70
    64
  3
実線
 72
    65
 73
     0
 40
0.0
  0
LTYPE
  2
CONTINUOUS
 70
    64
  3
実線
 72
    65
 73
     0
 40
0.0
  0
LTYPE
  2
CONTINUOUS
 70
    64
  3
実線
 72
    65
 73
     0
 40
0.0
  0
ENDTAB
  0
TABLE
  2
LAYER
 70
    34
  0
LAYER
  2
通り芯
 70
     0
 62
    15
  6
CONTINUOUS
  0
LAYER
  2
補助線
 70
     0
 62
    16
  6
DOT
  0
LAYER
  2
躯体
 70
     0
 62
    31
  6
CONTINUOUS
  0
LAYER
  2
型材
 70
     0
 62
    32
  6
CONTINUOUS
  0
LAYER
  2
型材断面
 70
     0
 62
    47
  6
CONTINUOUS
  0
LAYER
  2
ガラス
 70
     0
 62
    48
  6
CONTINUOUS
  0
LAYER
  2
ゴム等
 70
     0
 62
    63
  6
CONTINUOUS
  0
LAYER
  2
ボルト／ビス
 70
     0
 62
    64
  6
CONTINUOUS
  0
LAYER
  2
文字
 70
     0
 62
    79
  6
CONTINUOUS
  0
LAYER
  2
寸法
 70
     0
 62
    80
  6
CONTINUOUS
  0
LAYER
  2
ﾊｯﾁﾝｸﾞ
 70
     0
 62
    95
  6
CONTINUOUS
  0
LAYER
  2
別途部材
 70
     0
 62
    96
  6
CONTINUOUS
  0
LAYER
  2
曲げ物
 70
     0
 62
   111
  6
CONTINUOUS
  0
LAYER
  2
鉄骨等
 70
     0
 62
   112
  6
CONTINUOUS
  0
LAYER
  2
St
 70
     0
 62
   127
  6
CONTINUOUS
  0
LAYER
  2
その他部品等
 70
     0
 62
   128
  6
CONTINUOUS
  0
LAYER
  2
ｶﾞｽｹｯﾄ
 70
     0
 62
   143
  6
CONTINUOUS
  0
LAYER
  2
ｽｹｯﾁ
 70
     0
 62
    14
  6
CONTINUOUS
  0
LAYER
  2
0
 70
     0
 62
    17
  6
CONTINUOUS
  0
LAYER
  2
1
 70
     0
 62
    30
  6
CONTINUOUS
  0
LAYER
  2
4
 70
     0
 62
    33
  6
CONTINUOUS
  0
LAYER
  2
ﾚｲﾔ3
 70
     0
 62
    46
  6
CONTINUOUS
  0
LAYER
  2
外形線
 70
     0
 62
    49
  6
CONTINUOUS
  0
LAYER
  2
部品
 70
     0
 62
    14
  6
CONTINUOUS
  0
LAYER
  2
サッシ芯
 70
     0
 62
    17
  6
DASHDOTX2
  0
LAYER
  2
寸法線
 70
     0
 62
    62
  6
CONTINUOUS
  0
LAYER
  2
姿図外形線
 70
     0
 62
    65
  6
CONTINUOUS
  0
LAYER
  2
姿補助線
 70
     0
 62
    30
  6
CONTINUOUS
  0
LAYER
  2
透視線
 70
     0
 62
    78
  6
DOT
  0
LAYER
  2
用紙
 70
     0
 62
    81
  6
CONTINUOUS
  0
LAYER
  2
実線図枠
 70
     0
 62
    94
  6
CONTINUOUS
  0
LAYER
  2
補助図枠
 70
     0
 62
    97
  6
CONTINUOUS
  0
LAYER
  2
建具記号
 70
     0
 62
   110
  6
CONTINUOUS
  0
LAYER
  2
補助文字
 70
     0
 62
   113
  6
CONTINUOUS
  0
ENDTAB
  0
TABLE
  2
STYLE
 70
    10
  0
STYLE
  2
STANDARD
 70
     0
 40
1.0
 41
1.0
 42
1.0
 50
0.0
 71
     0
  3
TXT
  4
BIGFONT
  0
STYLE
  2
TATE
 70
     4
 40
1.0
 41
1.0
 42
1.0
 50
0.0
 71
     0
  3
TXT
  4
BIGFONT
  0
STYLE
  2
TextStyle03
 70
     0
 40
1.0
 41
1.0
 42
1.0
 50
0.0
 71
     0
  3
MONOTXT
  4
BIGFONT
  0
STYLE
  2
TextStyle04
 70
     0
 40
1.0
 41
1.0
 42
1.0
 50
0.0
 71
     0
  3
MONOTXT
  4
BIGFONT
  0
STYLE
  2
TextStyle05
 70
     0
 40
1.0
 41
1.0
 42
1.0
 50
0.0
 71
     0
  3
MONOTXT
  4
BIGFONT
  0
STYLE
  2
TextStyle06
 70
     0
 40
1.0
 41
1.0
 42
1.0
 50
0.0
 71
     0
  3
MONOTXT
  4
BIGFONT
  0
STYLE
  2
TextStyle07
 70
     0
 40
1.0
 41
1.0
 42
1.0
 50
0.0
 71
     0
  3
MONOTXT
  4
BIGFONT
  0
STYLE
  2
TextStyle08
 70
     0
 40
1.0
 41
1.0
 42
1.0
 50
0.0
 71
     0
  3
MONOTXT
  4
BIGFONT
  0
STYLE
  2
TextStyle09
 70
     0
 40
1.0
 41
1.0
 42
1.0
 50
0.0
 71
     0
  3
MONOTXT
  4
BIGFONT
  0
STYLE
  2
TextStyle10
 70
     0
 40
1.0
 41
1.0
 42
1.0
 50
0.0
 71
     0
  3
MONOTXT
  4
BIGFONT
  0
ENDTAB
  0
ENDSEC
  0
SECTION
  2
BLOCKS
  0
BLOCK
  2
*GRP_0001
 70
    65
 10
0.0
 20
0.0
  0
LINE
  8
型材断面
  6
CONTINUOUS
 10
195.0
 20
133.5
 11
195.0
 21
-133.5
  0
LINE
  8
型材断面
  6
CONTINUOUS
 10
195.0
 20
-133.5
 11
-185.0
 21
-133.5
  0
LINE
  8
型材断面
  6
CONTINUOUS
 10
-185.0
 20
-133.5
 11
-185.0
 21
133.5
  0
LINE
  8
型材断面
  6
CONTINUOUS
 10
195.0
 20
133.5
 11
-185.0
 21
133.5
  0
LINE
  8
型材断面
  6
CONTINUOUS
 10
145.0
 20
-133.5
 11
145.0
 21
-118.5
  0
LINE
  8
型材断面
  6
CONTINUOUS
 10
195.0
 20
-118.5
 11
145.0
 21
-118.5
  0
ENDBLK
  0
BLOCK
  2
*GRP_0002
 70
    65
 10
0.0
 20
0.0
  0
INSERT
  2
*GRP_0016
  8
補助線
  6
CONTINUOUS
 10
0.0
 20
0.0
  0
LINE
  8
ボルト／ビス
  6
CONTINUOUS
 10
-23.060405
 20
0.403315
 11
-22.810405
 21
0.547653
  0
LINE
  8
ボルト／ビス
  6
CONTINUOUS
 10
-23.060405
 20
0.403315
 11
-23.310405
 21
0.547653
  0
LINE
  8
ボルト／ビス
  6
CONTINUOUS
 10
-22.810405
 20
0.836327
 11
-23.060405
 21
0.980665
  0
LINE
  8
ボルト／ビス
  6
CONTINUOUS
 10
-23.310405
 20
0.836327
 11
-23.060405
 21
0.980665
  0
CIRCLE
  8
ボルト／ビス
  6
CONTINUOUS
 10
-23.060405
 20
0.69199
 40
0.25
  0
LINE
  8
ボルト／ビス
  6
CONTINUOUS
 10
-23.310405
 20
0.547653
 11
-23.310405
 21
0.836327
  0
LINE
  8
ボルト／ビス
  6
CONTINUOUS
 10
-22.810405
 20
0.836327
 11
-22.810405
 21
0.547653
  0
ENDBLK
  0
BLOCK
  2
*GRP_0003
 70
    65
 10
0.0
 20
0.0
  0
INSERT
  2
*GRP_0017
  8
補助線
  6
CONTINUOUS
 10
0.0
 20
0.0
  0
LINE
  8
ボルト／ビス
  6
CONTINUOUS
 10
-31.84908
 20
9.19199
 11
-31.704742
 21
9.44199
  0
LINE
  8
ボルト／ビス
  6
CONTINUOUS
 10
-31.84908
 20
9.19199
 11
-31.704742
 21
8.94199
  0
LINE
  8
ボルト／ビス
  6
CONTINUOUS
 10
-31.416068
 20
9.44199
 11
-31.27173
 21
9.19199
  0
LINE
  8
ボルト／ビス
  6
CONTINUOUS
 10
-31.416068
 20
8.94199
 11
-31.27173
 21
9.19199
  0
CIRCLE
  8
ボルト／ビス
  6
CONTINUOUS
 10
-31.560405
 20
9.19199
 40
0.25
  0
LINE
  8
ボルト／ビス
  6
CONTINUOUS
 10
-31.704742
 20
8.94199
 11
-31.416068
 21
8.94199
  0
LINE
  8
ボルト／ビス
  6
CONTINUOUS
 10
-31.416068
 20
9.44199
 11
-31.704742
 21
9.44199
  0
ENDBLK
  0
BLOCK
  2
*GRP_0004
 70
    65
 10
0.0
 20
0.0
  0
INSERT
  2
*GRP_0018
  8
補助線
  6
CONTINUOUS
 10
0.0
 20
0.0
  0
LINE
  8
ボルト／ビス
  6
CONTINUOUS
 10
-8.060405
 20
0.403315
 11
-8.310405
 21
0.547653
  0
LINE
  8
ボルト／ビス
  6
CONTINUOUS
 10
-8.060405
 20
0.403315
 11
-7.810405
 21
0.547653
  0
LINE
  8
ボルト／ビス
  6
CONTINUOUS
 10
-8.310405
 20
0.836327
 11
-8.060405
 21
0.980665
  0
LINE
  8
ボルト／ビス
  6
CONTINUOUS
 10
-7.810405
 20
0.836327
 11
-8.060405
 21
0.980665
  0
CIRCLE
  8
ボルト／ビス
  6
CONTINUOUS
 10
-8.060405
 20
0.69199
 40
0.25
  0
LINE
  8
ボルト／ビス
  6
CONTINUOUS
 10
-7.810405
 20
0.547653
 11
-7.810405
 21
0.836327
  0
LINE
  8
ボルト／ビス
  6
CONTINUOUS
 10
-8.310405
 20
0.836327
 11
-8.310405
 21
0.547653
  0
ENDBLK
  0
BLOCK
  2
*GRP_0005
 70
    65
 10
0.0
 20
0.0
  0
INSERT
  2
*GRP_0019
  8
補助線
  6
CONTINUOUS
 10
0.0
 20
0.0
  0
LINE
  8
ボルト／ビス
  6
CONTINUOUS
 10
0.72827
 20
9.19199
 11
0.583933
 21
9.44199
  0
LINE
  8
ボルト／ビス
  6
CONTINUOUS
 10
0.72827
 20
9.19199
 11
0.583933
 21
8.94199
  0
LINE
  8
ボルト／ビス
  6
CONTINUOUS
 10
0.295257
 20
9.44199
 11
0.15092
 21
9.19199
  0
LINE
  8
ボルト／ビス
  6
CONTINUOUS
 10
0.295257
 20
8.94199
 11
0.15092
 21
9.19199
  0
CIRCLE
  8
ボルト／ビス
  6
CONTINUOUS
 10
0.439595
 20
9.19199
 40
0.25
  0
LINE
  8
ボルト／ビス
  6
CONTINUOUS
 10
0.583933
 20
8.94199
 11
0.295257
 21
8.94199
  0
LINE
  8
ボルト／ビス
  6
CONTINUOUS
 10
0.295257
 20
9.44199
 11
0.583933
 21
9.44199
  0
ENDBLK
  0
BLOCK
  2
*GRP_0006
 70
    65
 10
0.0
 20
0.0
  0
INSERT
  2
*GRP_0020
  8
補助線
  6
CONTINUOUS
 10
0.0
 20
0.0
  0
LINE
  8
ボルト／ビス
  6
CONTINUOUS
 10
-8.060405
 20
32.980665
 11
-8.310405
 21
32.836327
  0
LINE
  8
ボルト／ビス
  6
CONTINUOUS
 10
-8.060405
 20
32.980665
 11
-7.810405
 21
32.836327
  0
LINE
  8
ボルト／ビス
  6
CONTINUOUS
 10
-8.310405
 20
32.547653
 11
-8.060405
 21
32.403315
  0
LINE
  8
ボルト／ビス
  6
CONTINUOUS
 10
-7.810405
 20
32.547653
 11
-8.060405
 21
32.403315
  0
CIRCLE
  8
ボルト／ビス
  6
CONTINUOUS
 10
-8.060405
 20
32.69199
 40
0.25
  0
LINE
  8
ボルト／ビス
  6
CONTINUOUS
 10
-7.810405
 20
32.836327
 11
-7.810405
 21
32.547653
  0
LINE
  8
ボルト／ビス
  6
CONTINUOUS
 10
-8.310405
 20
32.547653
 11
-8.310405
 21
32.836327
  0
ENDBLK
  0
BLOCK
  2
*GRP_0007
 70
    65
 10
0.0
 20
0.0
  0
INSERT
  2
*GRP_0021
  8
補助線
  6
CONTINUOUS
 10
0.0
 20
0.0
  0
LINE
  8
ボルト／ビス
  6
CONTINUOUS
 10
0.72827
 20
24.19199
 11
0.583933
 21
23.94199
  0
LINE
  8
ボルト／ビス
  6
CONTINUOUS
 10
0.72827
 20
24.19199
 11
0.583933
 21
24.44199
  0
LINE
  8
ボルト／ビス
  6
CONTINUOUS
 10
0.295257
 20
23.94199
 11
0.15092
 21
24.19199
  0
LINE
  8
ボルト／ビス
  6
CONTINUOUS
 10
0.295257
 20
24.44199
 11
0.15092
 21
24.19199
  0
CIRCLE
  8
ボルト／ビス
  6
CONTINUOUS
 10
0.439595
 20
24.19199
 40
0.25
  0
LINE
  8
ボルト／ビス
  6
CONTINUOUS
 10
0.583933
 20
24.44199
 11
0.295257
 21
24.44199
  0
LINE
  8
ボルト／ビス
  6
CONTINUOUS
 10
0.295257
 20
23.94199
 11
0.583933
 21
23.94199
  0
ENDBLK
  0
BLOCK
  2
*GRP_0008
 70
    65
 10
0.0
 20
0.0
  0
INSERT
  2
*GRP_0022
  8
補助線
  6
CONTINUOUS
 10
0.0
 20
0.0
  0
LINE
  8
ボルト／ビス
  6
CONTINUOUS
 10
-23.060405
 20
32.980665
 11
-22.810405
 21
32.836327
  0
LINE
  8
ボルト／ビス
  6
CONTINUOUS
 10
-23.060405
 20
32.980665
 11
-23.310405
 21
32.836327
  0
LINE
  8
ボルト／ビス
  6
CONTINUOUS
 10
-22.810405
 20
32.547653
 11
-23.060405
 21
32.403315
  0
LINE
  8
ボルト／ビス
  6
CONTINUOUS
 10
-23.310405
 20
32.547653
 11
-23.060405
 21
32.403315
  0
CIRCLE
  8
ボルト／ビス
  6
CONTINUOUS
 10
-23.060405
 20
32.69199
 40
0.25
  0
LINE
  8
ボルト／ビス
  6
CONTINUOUS
 10
-23.310405
 20
32.836327
 11
-23.310405
 21
32.547653
  0
LINE
  8
ボルト／ビス
  6
CONTINUOUS
 10
-22.810405
 20
32.547653
 11
-22.810405
 21
32.836327
  0
ENDBLK
  0
BLOCK
  2
*GRP_0009
 70
    65
 10
0.0
 20
0.0
  0
INSERT
  2
*GRP_0023
  8
補助線
  6
CONTINUOUS
 10
0.0
 20
0.0
  0
LINE
  8
ボルト／ビス
  6
CONTINUOUS
 10
-31.84908
 20
24.19199
 11
-31.704742
 21
23.94199
  0
LINE
  8
ボルト／ビス
  6
CONTINUOUS
 10
-31.84908
 20
24.19199
 11
-31.704742
 21
24.44199
  0
LINE
  8
ボルト／ビス
  6
CONTINUOUS
 10
-31.416068
 20
23.94199
 11
-31.27173
 21
24.19199
  0
LINE
  8
ボルト／ビス
  6
CONTINUOUS
 10
-31.416068
 20
24.44199
 11
-31.27173
 21
24.19199
  0
CIRCLE
  8
ボルト／ビス
  6
CONTINUOUS
 10
-31.560405
 20
24.19199
 40
0.25
  0
LINE
  8
ボルト／ビス
  6
CONTINUOUS
 10
-31.704742
 20
24.44199
 11
-31.416068
 21
24.44199
  0
LINE
  8
ボルト／ビス
  6
CONTINUOUS
 10
-31.416068
 20
23.94199
 11
-31.704742
 21
23.94199
  0
ENDBLK
  0
BLOCK
  2
*DIM_0010
 70
    65
 10
0.0
 20
0.0
  0
LINE
  8
寸法
  6
BYBLOCK
 62
     0
 10
-14.560405
 20
-54.248265
 11
20.56912
 21
-54.248265
  0
LINE
  8
寸法
  6
BYBLOCK
 62
     0
 10
20.56912
 20
-62.248265
 11
20.56912
 21
-54.248265
  0
POINT
  8
寸法
 62
     0
 10
20.56912
 20
-62.248265
  0
POINT
  8
寸法
 62
     0
 10
20.56912
 20
-54.248265
  0
TEXT
  7
TextStyle03
  8
寸法
  6
CONTINUOUS
 62
     0
 10
20.175
 20
-60.6875
  1
160
 40
3.0
 50
90.0
 72
     5
 11
20.175
 21
-55.8125
  0
ENDBLK
  0
BLOCK
  2
*DIM_0011
 70
    65
 10
0.0
 20
0.0
  0
LINE
  8
寸法
  6
BYBLOCK
 62
     0
 10
-30.560405
 20
-26.094458
 11
-0.560405
 21
-26.094458
  0
POINT
  8
寸法
 62
     0
 10
-30.560405
 20
-26.094458
  0
POINT
  8
寸法
 62
     0
 10
-0.560405
 20
-26.094458
  0
TEXT
  7
TextStyle03
  8
寸法
  6
CONTINUOUS
 62
     0
 10
-26.45
 20
-25.725
  1
呼称寸法　600
 40
3.0
 72
     5
 11
-4.7
 21
-25.725
  0
ENDBLK
  0
BLOCK
  2
*DIM_0012
 70
    65
 10
0.0
 20
0.0
  0
LINE
  8
寸法
  6
BYBLOCK
 62
     0
 10
-25.560402
 20
32.691993
 11
-25.560402
 21
52.281172
  0
LINE
  8
寸法
  6
BYBLOCK
 62
     0
 10
-5.560402
 20
32.691993
 11
-5.560402
 21
52.281172
  0
LINE
  8
寸法
  6
BYBLOCK
 62
     0
 10
-25.560402
 20
52.281172
 11
-5.560402
 21
52.281172
  0
POINT
  8
寸法
 62
     0
 10
-25.560402
 20
52.281172
  0
POINT
  8
寸法
 62
     0
 10
-5.560402
 20
52.281172
  0
TEXT
  7
TextStyle03
  8
寸法
  6
CONTINUOUS
 62
     0
 10
-18.0125
 20
52.675
  1
400
 40
3.0
 72
     5
 11
-13.1375
 21
52.675
  0
ENDBLK
  0
BLOCK
  2
*DIM_0013
 70
    65
 10
0.0
 20
0.0
  0
LINE
  8
寸法
  6
BYBLOCK
 62
     0
 10
-34.470622
 20
-63.623193
 11
-34.470622
 21
-26.094458
  0
LINE
  8
寸法
  6
BYBLOCK
 62
     0
 10
-30.560405
 20
-26.094458
 11
-34.470622
 21
-26.094458
  0
POINT
  8
寸法
 62
     0
 10
-30.560405
 20
-26.094458
  0
POINT
  8
寸法
 62
     0
 10
-34.470622
 20
-26.094458
  0
TEXT
  7
TextStyle03
  8
寸法
  6
CONTINUOUS
 62
     0
 10
-42.55625
 20
-25.725
  1
78.2
 40
3.0
 72
     5
 11
-35.99375
 21
-25.725
  0
ENDBLK
  0
BLOCK
  2
*DIM_0014
 70
    65
 10
0.0
 20
0.0
  0
LINE
  8
寸法
  6
BYBLOCK
 62
     0
 10
3.349813
 20
-63.623193
 11
3.349813
 21
-26.094458
  0
LINE
  8
寸法
  6
BYBLOCK
 62
     0
 10
-0.560405
 20
-26.094458
 11
3.349813
 21
-26.094458
  0
POINT
  8
寸法
 62
     0
 10
-0.560405
 20
-26.094458
  0
POINT
  8
寸法
 62
     0
 10
3.349813
 20
-26.094458
  0
TEXT
  7
TextStyle03
  8
寸法
  6
CONTINUOUS
 62
     0
 10
4.84375
 20
-25.725
  1
78.2
 40
3.0
 72
     5
 11
11.40625
 21
-25.725
  0
ENDBLK
  0
BLOCK
  2
*DIM_0015
 70
    65
 10
0.0
 20
0.0
  0
LINE
  8
寸法
  6
BYBLOCK
 62
     0
 10
2.939595
 20
-62.248265
 11
20.56912
 21
-62.248265
  0
LINE
  8
寸法
  6
BYBLOCK
 62
     0
 10
4.349813
 20
-65.373193
 11
20.56912
 21
-65.373193
  0
LINE
  8
寸法
  6
BYBLOCK
 62
     0
 10
20.56912
 20
-62.248265
 11
20.56912
 21
-65.373193
  0
POINT
  8
寸法
 62
     0
 10
20.56912
 20
-62.248265
  0
POINT
  8
寸法
 62
     0
 10
20.56912
 20
-65.373193
  0
TEXT
  7
TextStyle03
  8
寸法
  6
CONTINUOUS
 62
     0
 10
23.55
 20
-67.10625
  1
62.5
 40
3.0
 50
90.0
 72
     5
 11
23.55
 21
-60.54375
  0
ENDBLK
  0
BLOCK
  2
*GRP_0016
 70
    65
 10
0.0
 20
0.0
  0
LINE
  8
補助線
  6
BYBLOCK
 62
     0
 10
-23.185405
 20
0.69199
 11
-22.935405
 21
0.69199
  0
LINE
  8
補助線
  6
BYBLOCK
 62
     0
 10
-23.060405
 20
0.56699
 11
-23.060405
 21
0.81699
  0
ENDBLK
  0
BLOCK
  2
*GRP_0017
 70
    65
 10
0.0
 20
0.0
  0
LINE
  8
補助線
  6
BYBLOCK
 62
     0
 10
-31.560405
 20
9.06699
 11
-31.560405
 21
9.31699
  0
LINE
  8
補助線
  6
BYBLOCK
 62
     0
 10
-31.685405
 20
9.19199
 11
-31.435405
 21
9.19199
  0
ENDBLK
  0
BLOCK
  2
*GRP_0018
 70
    65
 10
0.0
 20
0.0
  0
LINE
  8
補助線
  6
BYBLOCK
 62
     0
 10
-7.935405
 20
0.69199
 11
-8.185405
 21
0.69199
  0
LINE
  8
補助線
  6
BYBLOCK
 62
     0
 10
-8.060405
 20
0.56699
 11
-8.060405
 21
0.81699
  0
ENDBLK
  0
BLOCK
  2
*GRP_0019
 70
    65
 10
0.0
 20
0.0
  0
LINE
  8
補助線
  6
BYBLOCK
 62
     0
 10
0.439595
 20
9.06699
 11
0.439595
 21
9.31699
  0
LINE
  8
補助線
  6
BYBLOCK
 62
     0
 10
0.564595
 20
9.19199
 11
0.314595
 21
9.19199
  0
ENDBLK
  0
BLOCK
  2
*GRP_0020
 70
    65
 10
0.0
 20
0.0
  0
LINE
  8
補助線
  6
BYBLOCK
 62
     0
 10
-7.935405
 20
32.69199
 11
-8.185405
 21
32.69199
  0
LINE
  8
補助線
  6
BYBLOCK
 62
     0
 10
-8.060405
 20
32.81699
 11
-8.060405
 21
32.56699
  0
ENDBLK
  0
BLOCK
  2
*GRP_0021
 70
    65
 10
0.0
 20
0.0
  0
LINE
  8
補助線
  6
BYBLOCK
 62
     0
 10
0.439595
 20
24.31699
 11
0.439595
 21
24.06699
  0
LINE
  8
補助線
  6
BYBLOCK
 62
     0
 10
0.564595
 20
24.19199
 11
0.314595
 21
24.19199
  0
ENDBLK
  0
BLOCK
  2
*GRP_0022
 70
    65
 10
0.0
 20
0.0
  0
LINE
  8
補助線
  6
BYBLOCK
 62
     0
 10
-23.185405
 20
32.69199
 11
-22.935405
 21
32.69199
  0
LINE
  8
補助線
  6
BYBLOCK
 62
     0
 10
-23.060405
 20
32.81699
 11
-23.060405
 21
32.56699
  0
ENDBLK
  0
BLOCK
  2
*GRP_0023
 70
    65
 10
0.0
 20
0.0
  0
LINE
  8
補助線
  6
BYBLOCK
 62
     0
 10
-31.560405
 20
24.31699
 11
-31.560405
 21
24.06699
  0
LINE
  8
補助線
  6
BYBLOCK
 62
     0
 10
-31.685405
 20
24.19199
 11
-31.435405
 21
24.19199
  0
ENDBLK
  0
BLOCK
  2
*DIM_0024
 70
    65
 10
0.0
 20
0.0
  0
LINE
  8
寸法
  6
BYBLOCK
 62
     0
 10
170.304785
 20
74.557477
 11
179.967098
 21
74.557477
  0
LINE
  8
寸法
  6
BYBLOCK
 62
     0
 10
170.304785
 20
45.557477
 11
179.967098
 21
45.557477
  0
LINE
  8
寸法
  6
BYBLOCK
 62
     0
 10
179.967098
 20
74.557477
 11
179.967098
 21
45.557477
  0
POINT
  8
寸法
 62
     0
 10
179.967098
 20
74.557477
  0
POINT
  8
寸法
 62
     0
 10
179.967098
 20
45.557477
  0
TEXT
  7
TextStyle03
  8
寸法
  6
CONTINUOUS
 62
     0
 10
179.575
 20
57.6125
  1
580
 40
3.0
 50
90.0
 72
     5
 11
179.575
 21
62.4875
  0
ENDBLK
  0
BLOCK
  2
*DIM_0025
 70
    65
 10
0.0
 20
0.0
  0
LINE
  8
寸法
  6
BYBLOCK
 62
     0
 10
138.304785
 20
77.557477
 11
138.304785
 21
85.30483
  0
LINE
  8
寸法
  6
BYBLOCK
 62
     0
 10
167.304785
 20
77.557477
 11
167.304785
 21
85.30483
  0
LINE
  8
寸法
  6
BYBLOCK
 62
     0
 10
138.304785
 20
85.30483
 11
167.304785
 21
85.30483
  0
POINT
  8
寸法
 62
     0
 10
138.304785
 20
85.30483
  0
POINT
  8
寸法
 62
     0
 10
167.304785
 20
85.30483
  0
TEXT
  7
TextStyle03
  8
寸法
  6
CONTINUOUS
 62
     0
 10
150.3625
 20
85.675
  1
580
 40
3.0
 72
     5
 11
155.2375
 21
85.675
  0
ENDBLK
  0
BLOCK
  2
*GRP_0026
 70
    65
 10
0.0
 20
0.0
  0
LINE
  8
ボルト／ビス
  6
CONTINUOUS
 10
-31.560405
 20
-62.248268
 11
-31.560405
 21
-61.548268
  0
LINE
  8
ボルト／ビス
  6
CONTINUOUS
 10
-32.110405
 20
-62.248268
 11
-32.110405
 21
-62.148268
  0
LINE
  8
ボルト／ビス
  6
CONTINUOUS
 10
-32.110405
 20
-62.148268
 11
-31.010405
 21
-62.148268
  0
LINE
  8
ボルト／ビス
  6
CONTINUOUS
 10
-31.010405
 20
-62.148268
 11
-31.010405
 21
-62.248268
  0
LINE
  8
ボルト／ビス
  6
CONTINUOUS
 10
-32.110405
 20
-62.248268
 11
-31.010405
 21
-62.248268
  0
LINE
  8
ボルト／ビス
  6
CONTINUOUS
 10
-32.010405
 20
-62.098268
 11
-32.010405
 21
-62.148268
  0
LINE
  8
ボルト／ビス
  6
CONTINUOUS
 10
-32.010405
 20
-62.098268
 11
-31.110405
 21
-62.098268
  0
LINE
  8
ボルト／ビス
  6
CONTINUOUS
 10
-31.110405
 20
-62.098268
 11
-31.110405
 21
-62.148268
  0
LINE
  8
ボルト／ビス
  6
CONTINUOUS
 62
    64
 10
-31.800968
 20
-61.798268
 11
-31.84908
 21
-61.81578
  0
ARC
  8
ボルト／ビス
  6
CONTINUOUS
 62
    64
 10
-31.776909
 20
-61.955735
 40
0.157468
 50
62.721967
 51
90.0
  0
ARC
  8
ボルト／ビス
  6
CONTINUOUS
 62
    64
 10
-31.560403
 20
-62.40187
 40
0.603603
 50
76.165002
 51
103.834985
  0
LINE
  8
ボルト／ビス
  6
CONTINUOUS
 62
    64
 10
-31.319842
 20
-61.798268
 11
-31.27173
 21
-61.81578
  0
ARC
  8
ボルト／ビス
  6
CONTINUOUS
 62
    64
 10
-31.343897
 20
-61.955735
 40
0.157468
 50
90.0
 51
117.278033
  0
LINE
  8
ボルト／ビス
  6
CONTINUOUS
 62
    64
 10
-31.800968
 20
-61.798268
 11
-31.319842
 21
-61.798268
  0
LINE
  8
ボルト／ビス
  6
CONTINUOUS
 62
    64
 10
-31.27173
 20
-61.81578
 11
-31.27173
 21
-61.998268
  0
LINE
  8
ボルト／ビス
  6
CONTINUOUS
 62
    64
 10
-31.416068
 20
-61.81578
 11
-31.416068
 21
-61.998268
  0
LINE
  8
ボルト／ビス
  6
CONTINUOUS
 62
    64
 10
-31.84908
 20
-61.81578
 11
-31.84908
 21
-61.998268
  0
LINE
  8
ボルト／ビス
  6
CONTINUOUS
 62
    64
 10
-31.704742
 20
-61.81578
 11
-31.704742
 21
-61.998268
  0
LINE
  8
ボルト／ビス
  6
CONTINUOUS
 10
-31.84908
 20
-61.998268
 11
-31.27173
 21
-61.998268
  0
LINE
  8
ボルト／ビス
  6
CONTINUOUS
 10
-31.860405
 20
-61.998268
 11
-31.860405
 21
-62.098268
  0
LINE
  8
ボルト／ビス
  6
CONTINUOUS
 10
-31.860405
 20
-61.998268
 11
-31.260405
 21
-61.998268
  0
LINE
  8
ボルト／ビス
  6
CONTINUOUS
 10
-31.260405
 20
-61.998268
 11
-31.260405
 21
-62.098268
  0
ENDBLK
  0
BLOCK
  2
*GRP_0027
 70
    65
 10
0.0
 20
0.0
  0
LINE
  8
ボルト／ビス
  6
CONTINUOUS
 10
0.439595
 20
-62.248268
 11
0.439595
 21
-61.548268
  0
LINE
  8
ボルト／ビス
  6
CONTINUOUS
 10
-0.110405
 20
-62.248268
 11
-0.110405
 21
-62.148268
  0
LINE
  8
ボルト／ビス
  6
CONTINUOUS
 10
-0.110405
 20
-62.148268
 11
0.989595
 21
-62.148268
  0
LINE
  8
ボルト／ビス
  6
CONTINUOUS
 10
0.989595
 20
-62.148268
 11
0.989595
 21
-62.248268
  0
LINE
  8
ボルト／ビス
  6
CONTINUOUS
 10
-0.110405
 20
-62.248268
 11
0.989595
 21
-62.248268
  0
LINE
  8
ボルト／ビス
  6
CONTINUOUS
 10
-0.010405
 20
-62.098268
 11
-0.010405
 21
-62.148268
  0
LINE
  8
ボルト／ビス
  6
CONTINUOUS
 10
-0.010405
 20
-62.098268
 11
0.889595
 21
-62.098268
  0
LINE
  8
ボルト／ビス
  6
CONTINUOUS
 10
0.889595
 20
-62.098268
 11
0.889595
 21
-62.148268
  0
LINE
  8
ボルト／ビス
  6
CONTINUOUS
 62
    64
 10
0.199033
 20
-61.798268
 11
0.15092
 21
-61.81578
  0
ARC
  8
ボルト／ビス
  6
CONTINUOUS
 62
    64
 10
0.223091
 20
-61.955735
 40
0.157468
 50
62.721967
 51
90.0
  0
ARC
  8
ボルト／ビス
  6
CONTINUOUS
 62
    64
 10
0.439597
 20
-62.40187
 40
0.603603
 50
76.165002
 51
103.834985
  0
LINE
  8
ボルト／ビス
  6
CONTINUOUS
 62
    64
 10
0.680157
 20
-61.798268
 11
0.72827
 21
-61.81578
  0
ARC
  8
ボルト／ビス
  6
CONTINUOUS
 62
    64
 10
0.656103
 20
-61.955735
 40
0.157468
 50
90.0
 51
117.278033
  0
LINE
  8
ボルト／ビス
  6
CONTINUOUS
 62
    64
 10
0.199033
 20
-61.798268
 11
0.680157
 21
-61.798268
  0
LINE
  8
ボルト／ビス
  6
CONTINUOUS
 62
    64
 10
0.72827
 20
-61.81578
 11
0.72827
 21
-61.998268
  0
LINE
  8
ボルト／ビス
  6
CONTINUOUS
 62
    64
 10
0.583933
 20
-61.81578
 11
0.583933
 21
-61.998268
  0
LINE
  8
ボルト／ビス
  6
CONTINUOUS
 62
    64
 10
0.15092
 20
-61.81578
 11
0.15092
 21
-61.998268
  0
LINE
  8
ボルト／ビス
  6
CONTINUOUS
 62
    64
 10
0.295257
 20
-61.81578
 11
0.295257
 21
-61.998268
  0
LINE
  8
ボルト／ビス
  6
CONTINUOUS
 10
0.15092
 20
-61.998268
 11
0.72827
 21
-61.998268
  0
LINE
  8
ボルト／ビス
  6
CONTINUOUS
 10
0.139595
 20
-61.998268
 11
0.139595
 21
-62.098268
  0
LINE
  8
ボルト／ビス
  6
CONTINUOUS
 10
0.139595
 20
-61.998268
 11
0.739595
 21
-61.998268
  0
LINE
  8
ボルト／ビス
  6
CONTINUOUS
 10
0.739595
 20
-61.998268
 11
0.739595
 21
-62.098268
  0
ENDBLK
  0
ENDSEC
  0
SECTION
  2
ENTITIES
  0
POLYLINE
  8
通り芯
  6
CONTINUOUS
 66
     1
 70
     1
  0
VERTEX
  8
通り芯
 10
-210.0
 20
-148.5
  0
VERTEX
  8
通り芯
 10
210.0
 20
-148.5
  0
VERTEX
  8
通り芯
 10
210.0
 20
148.5
  0
VERTEX
  8
通り芯
 10
-210.0
 20
148.5
  0
SEQEND
  0
INSERT
  2
*GRP_0001
  8
型材断面
  6
CONTINUOUS
 10
0.0
 20
0.0
  0
LINE
  8
型材断面
  6
DASHDOT
 10
-30.560405
 20
1.69199
 11
-0.560405
 21
1.69199
  0
LINE
  8
型材断面
  6
DASHDOT
 10
-30.560405
 20
-77.76228
 11
-30.560405
 21
31.69199
  0
LINE
  8
型材断面
  6
DASHDOT
 10
-15.560405
 20
-77.76228
 11
-15.560405
 21
31.69199
  0
LINE
  8
型材断面
  6
DASHDOT
 10
-0.560405
 20
-77.76228
 11
-0.560405
 21
31.69199
  0
LINE
  8
型材断面
  6
DASHDOT
 10
-30.560405
 20
16.69199
 11
-0.560405
 21
16.69199
  0
LINE
  8
型材断面
  6
DASHDOT
 10
-30.560405
 20
31.69199
 11
-0.560405
 21
31.69199
  0
LINE
  8
型材断面
  6
CONTINUOUS
 10
-38.584278
 20
16.69199
 11
-42.470038
 21
14.448545
  0
LINE
  8
型材断面
  6
CONTINUOUS
 10
-38.584278
 20
16.69199
 11
-42.470038
 21
18.935435
  0
LINE
  8
型材断面
  6
CONTINUOUS
 10
-42.470038
 20
18.935435
 11
-42.470038
 21
14.448545
  0
LINE
  8
型材断面
  6
CONTINUOUS
 10
7.463472
 20
16.69199
 11
11.349232
 21
14.448545
  0
LINE
  8
型材断面
  6
CONTINUOUS
 10
7.463472
 20
16.69199
 11
11.349232
 21
18.935435
  0
LINE
  8
型材断面
  6
CONTINUOUS
 10
11.349232
 20
18.935435
 11
11.349232
 21
14.448545
  0
LINE
  8
型材断面
  6
CONTINUOUS
 10
-15.560405
 20
39.715863
 11
-17.80385
 21
43.601622
  0
LINE
  8
型材断面
  6
CONTINUOUS
 10
-15.560405
 20
39.715863
 11
-13.31696
 21
43.601622
  0
LINE
  8
型材断面
  6
CONTINUOUS
 10
-13.31696
 20
43.601622
 11
-17.80385
 21
43.601622
  0
LINE
  8
型材断面
  6
CONTINUOUS
 10
-15.560405
 20
-6.331887
 11
-17.80385
 21
-10.217648
  0
LINE
  8
型材断面
  6
CONTINUOUS
 10
-15.560405
 20
-6.331887
 11
-13.31696
 21
-10.217648
  0
LINE
  8
型材断面
  6
CONTINUOUS
 10
-13.31696
 20
-10.217648
 11
-17.80385
 21
-10.217648
  0
LINE
  8
型材断面
  6
CONTINUOUS
 10
26.39028
 20
-6.182028
 11
24.146835
 21
-10.067788
  0
LINE
  8
型材断面
  6
CONTINUOUS
 10
26.39028
 20
-6.182028
 11
28.633725
 21
-10.067788
  0
LINE
  8
型材断面
  6
CONTINUOUS
 10
28.633725
 20
-10.067788
 11
24.146835
 21
-10.067788
  0
LINE
  8
型材断面
  6
CONTINUOUS
 10
17.3564
 20
-11.47568
 11
70.01308
 21
-11.47568
  0
LINE
  8
型材断面
  6
CONTINUOUS
 10
3.349815
 20
16.69199
 11
3.349815
 21
-2.21823
  0
LINE
  8
型材断面
  6
CONTINUOUS
 10
2.539595
 20
-1.40801
 11
3.349815
 21
-2.21823
  0
LINE
  8
型材断面
  6
CONTINUOUS
 10
-15.560405
 20
-2.21823
 11
3.349815
 21
-2.21823
  0
LINE
  8
型材断面
  6
CONTINUOUS
 10
3.349815
 20
16.69199
 11
3.349815
 21
35.60221
  0
LINE
  8
型材断面
  6
CONTINUOUS
 10
2.539595
 20
34.79199
 11
3.349815
 21
35.60221
  0
LINE
  8
型材断面
  6
CONTINUOUS
 10
-15.560405
 20
35.60221
 11
3.349815
 21
35.60221
  0
LINE
  8
型材断面
  6
CONTINUOUS
 10
-34.470625
 20
16.69199
 11
-34.470625
 21
35.60221
  0
LINE
  8
型材断面
  6
CONTINUOUS
 10
-33.660405
 20
34.79199
 11
-34.470625
 21
35.60221
  0
LINE
  8
型材断面
  6
CONTINUOUS
 10
-15.560405
 20
35.60221
 11
-34.470625
 21
35.60221
  0
LINE
  8
型材断面
  6
CONTINUOUS
 10
-34.470625
 20
16.69199
 11
-34.470625
 21
-2.21823
  0
LINE
  8
型材断面
  6
CONTINUOUS
 10
-33.660405
 20
-1.40801
 11
-34.470625
 21
-2.21823
  0
LINE
  8
型材断面
  6
CONTINUOUS
 10
-15.560405
 20
-2.21823
 11
-34.470625
 21
-2.21823
  0
LINE
  8
型材断面
  6
CONTINUOUS
 10
-33.795622
 20
-66.048192
 11
-33.795622
 21
-65.373193
  0
LINE
  8
型材断面
  6
CONTINUOUS
 62
    47
 10
-34.470622
 20
-65.373193
 11
-34.470622
 21
-64.623193
  0
LINE
  8
型材断面
  6
CONTINUOUS
 10
-33.795622
 20
-66.048192
 11
-15.560405
 21
-66.048192
  0
LINE
  8
型材断面
  6
CONTINUOUS
 10
-34.470622
 20
-64.623193
 11
-15.560405
 21
-64.623193
  0
LINE
  8
型材断面
  6
CONTINUOUS
 62
    47
 10
-34.470622
 20
-64.623193
 11
-31.658935
 21
-63.748265
  0
LINE
  8
型材断面
  6
CONTINUOUS
 10
2.674813
 20
-66.048192
 11
2.674813
 21
-65.373193
  0
LINE
  8
型材断面
  6
CONTINUOUS
 62
    47
 10
3.349813
 20
-65.373193
 11
3.349813
 21
-64.623193
  0
LINE
  8
型材断面
  6
CONTINUOUS
 10
2.674813
 20
-66.048192
 11
-15.560405
 21
-66.048192
  0
LINE
  8
型材断面
  6
CONTINUOUS
 10
3.349813
 20
-64.623193
 11
-15.560405
 21
-64.623193
  0
LINE
  8
型材断面
  6
CONTINUOUS
 62
    47
 10
3.349813
 20
-64.623193
 11
0.538125
 21
-63.748265
  0
LINE
  8
型材断面
  6
CONTINUOUS
 10
17.3564
 20
-18.817118
 11
70.01308
 21
-18.817118
  0
LINE
  8
ガラス
  6
CONTINUOUS
 10
138.304785
 20
45.557477
 11
167.304785
 21
45.557477
  0
LINE
  8
ガラス
  6
CONTINUOUS
 10
167.304785
 20
74.557477
 11
167.304785
 21
45.557477
  0
LINE
  8
ガラス
  6
CONTINUOUS
 10
167.304785
 20
74.557477
 11
138.304785
 21
74.557477
  0
LINE
  8
ガラス
  6
CONTINUOUS
 10
138.304785
 20
45.557477
 11
138.304785
 21
74.557477
  0
CIRCLE
  8
ボルト／ビス
  6
CONTINUOUS
 10
-23.060405
 20
0.69199
 40
0.288675
  0
CIRCLE
  8
ボルト／ビス
  6
CONTINUOUS
 10
-23.060405
 20
0.69199
 40
0.455885
  0
CIRCLE
  8
ボルト／ビス
  6
CONTINUOUS
 10
-31.560405
 20
9.19199
 40
0.288675
  0
CIRCLE
  8
ボルト／ビス
  6
CONTINUOUS
 10
-31.560405
 20
9.19199
 40
0.455885
  0
CIRCLE
  8
ボルト／ビス
  6
CONTINUOUS
 10
-8.060405
 20
0.69199
 40
0.288675
  0
CIRCLE
  8
ボルト／ビス
  6
CONTINUOUS
 10
-8.060405
 20
0.69199
 40
0.455885
  0
CIRCLE
  8
ボルト／ビス
  6
CONTINUOUS
 10
0.439595
 20
9.19199
 40
0.288675
  0
CIRCLE
  8
ボルト／ビス
  6
CONTINUOUS
 10
0.439595
 20
9.19199
 40
0.455885
  0
CIRCLE
  8
ボルト／ビス
  6
CONTINUOUS
 10
-8.060405
 20
32.69199
 40
0.288675
  0
CIRCLE
  8
ボルト／ビス
  6
CONTINUOUS
 10
-8.060405
 20
32.69199
 40
0.455885
  0
CIRCLE
  8
ボルト／ビス
  6
CONTINUOUS
 10
0.439595
 20
24.19199
 40
0.288675
  0
CIRCLE
  8
ボルト／ビス
  6
CONTINUOUS
 10
0.439595
 20
24.19199
 40
0.455885
  0
CIRCLE
  8
ボルト／ビス
  6
CONTINUOUS
 10
-23.060405
 20
32.69199
 40
0.288675
  0
CIRCLE
  8
ボルト／ビス
  6
CONTINUOUS
 10
-23.060405
 20
32.69199
 40
0.455885
  0
CIRCLE
  8
ボルト／ビス
  6
CONTINUOUS
 10
-31.560405
 20
24.19199
 40
0.288675
  0
CIRCLE
  8
ボルト／ビス
  6
CONTINUOUS
 10
-31.560405
 20
24.19199
 40
0.455885
  0
INSERT
  2
*GRP_0002
  8
文字
  6
CONTINUOUS
 10
0.0
 20
0.0
  0
INSERT
  2
*GRP_0003
  8
文字
  6
CONTINUOUS
 10
0.0
 20
0.0
  0
INSERT
  2
*GRP_0004
  8
文字
  6
CONTINUOUS
 10
0.0
 20
0.0
  0
INSERT
  2
*GRP_0005
  8
文字
  6
CONTINUOUS
 10
0.0
 20
0.0
  0
INSERT
  2
*GRP_0006
  8
文字
  6
CONTINUOUS
 10
0.0
 20
0.0
  0
INSERT
  2
*GRP_0007
  8
文字
  6
CONTINUOUS
 10
0.0
 20
0.0
  0
INSERT
  2
*GRP_0008
  8
文字
  6
CONTINUOUS
 10
0.0
 20
0.0
  0
INSERT
  2
*GRP_0009
  8
文字
  6
CONTINUOUS
 10
0.0
 20
0.0
  0
TEXT
  7
TextStyle03
  8
文字
  6
CONTINUOUS
 10
30.675
 20
-9.725
  1
は排水穴位置を示す
 40
3.0
 72
     5
 11
60.675
 21
-9.725
  0
TEXT
  7
TextStyle03
  8
文字
  6
CONTINUOUS
 10
-36.95
 20
58.1
  1
アンカーピッチ
 40
3.0
 72
     5
 11
-13.7
 21
58.1
  0
TEXT
  7
TextStyle03
  8
文字
  6
CONTINUOUS
 10
25.075
 20
-17.425
  1
アンカー数量　４ヶ所
 40
3.0
 72
     5
 11
58.45
 21
-17.425
  0
TEXT
  7
TextStyle03
  8
文字
  6
CONTINUOUS
 10
73.325
 20
104.925
  1
ＮＳコード：ＮＳＫＳ
 40
5.0
 72
     5
 11
128.95
 21
104.925
  0
TEXT
  7
TextStyle03
  8
文字
  6
CONTINUOUS
 10
146.1
 20
53.8
  1
網入り6.8t
 40
3.0
 72
     5
 11
162.7875
 21
53.8
  0
TEXT
  7
TextStyle03
  8
文字
  6
CONTINUOUS
 10
152.725
 20
48.55
  1
×１枚
 40
3.0
 72
     5
 11
162.475
 21
48.55
  0
TEXT
  7
TextStyle03
  8
文字
  6
CONTINUOUS
 10
73.475
 20
125.25
  1
シリーズ：ＳＴＤＫ
 40
5.0
 72
     5
 11
123.475
 21
125.25
  0
TEXT
  7
TextStyle03
  8
文字
  6
CONTINUOUS
 10
73.475
 20
119.625
  1
　　　　　（固定）600×600タイプ
 40
5.0
 72
     5
 11
162.85
 21
119.625
  0
TEXT
  7
TextStyle03
  8
文字
  6
CONTINUOUS
 10
73.475
 20
114.0
  1
図面名　：外観姿図
 40
5.0
 72
     5
 11
123.475
 21
114.0
  0
TEXT
  7
TextStyle03
  8
文字
  6
CONTINUOUS
 10
73.475
 20
108.375
  1
　　　　　　
 40
5.0
 72
     5
 11
106.6
 21
108.375
  0
INSERT
  2
*DIM_0010
  8
寸法
  6
CONTINUOUS
 10
0.0
 20
0.0
  0
INSERT
  2
*DIM_0011
  8
寸法
  6
CONTINUOUS
 10
0.0
 20
0.0
  0
INSERT
  2
*DIM_0012
  8
寸法
  6
CONTINUOUS
 10
0.0
 20
0.0
  0
INSERT
  2
*DIM_0013
  8
寸法
  6
CONTINUOUS
 10
0.0
 20
0.0
  0
INSERT
  2
*DIM_0014
  8
寸法
  6
CONTINUOUS
 10
0.0
 20
0.0
  0
INSERT
  2
*DIM_0015
  8
寸法
  6
CONTINUOUS
 10
0.0
 20
0.0
  0
INSERT
  2
*DIM_0024
  8
寸法
  6
CONTINUOUS
 10
0.0
 20
0.0
  0
INSERT
  2
*DIM_0025
  8
寸法
  6
CONTINUOUS
 10
0.0
 20
0.0
  0
LINE
  8
別途部材
  6
CONTINUOUS
 10
-33.660405
 20
-1.40801
 11
-33.060405
 21
-0.80801
  0
LINE
  8
別途部材
  6
CONTINUOUS
 62
    96
 10
-33.060405
 20
-62.248265
 11
-33.660405
 21
-63.748265
  0
LINE
  8
別途部材
  6
CONTINUOUS
 62
    96
 10
-33.060405
 20
-62.248265
 11
-15.560405
 21
-62.248265
  0
LINE
  8
別途部材
  6
CONTINUOUS
 10
-33.660405
 20
-63.748265
 11
-15.560405
 21
-63.748265
  0
LINE
  8
別途部材
  6
CONTINUOUS
 62
    96
 10
1.939595
 20
-62.248265
 11
2.539595
 21
-63.748265
  0
LINE
  8
別途部材
  6
CONTINUOUS
 62
    96
 10
1.939595
 20
-62.248265
 11
-15.560405
 21
-62.248265
  0
LINE
  8
別途部材
  6
CONTINUOUS
 10
2.539595
 20
-63.748265
 11
-15.560405
 21
-63.748265
  0
ARC
  8
別途部材
  6
CONTINUOUS
 10
-15.560405
 20
-72.310764
 40
18.0625
 50
33.855026
 51
146.144974
  0
LINE
  8
別途部材
  6
CONTINUOUS
 10
-33.660405
 20
-1.40801
 11
-33.660405
 21
16.69199
  0
LINE
  8
別途部材
  6
CONTINUOUS
 10
-33.060405
 20
-0.80801
 11
-33.060405
 21
16.69199
  0
LINE
  8
別途部材
  6
CONTINUOUS
 10
-33.060405
 20
-0.80801
 11
-15.560405
 21
-0.80801
  0
LINE
  8
別途部材
  6
CONTINUOUS
 10
-33.660405
 20
-1.40801
 11
-15.560405
 21
-1.40801
  0
LINE
  8
別途部材
  6
CONTINUOUS
 10
2.539595
 20
-1.40801
 11
1.939595
 21
-0.80801
  0
LINE
  8
別途部材
  6
CONTINUOUS
 10
2.539595
 20
-1.40801
 11
2.539595
 21
16.69199
  0
LINE
  8
別途部材
  6
CONTINUOUS
 10
1.939595
 20
-0.80801
 11
1.939595
 21
16.69199
  0
LINE
  8
別途部材
  6
CONTINUOUS
 10
1.939595
 20
-0.80801
 11
-15.560405
 21
-0.80801
  0
LINE
  8
別途部材
  6
CONTINUOUS
 10
2.539595
 20
-1.40801
 11
-15.560405
 21
-1.40801
  0
LINE
  8
別途部材
  6
CONTINUOUS
 10
2.539595
 20
34.79199
 11
1.939595
 21
34.19199
  0
LINE
  8
別途部材
  6
CONTINUOUS
 10
2.539595
 20
34.79199
 11
2.539595
 21
16.69199
  0
LINE
  8
別途部材
  6
CONTINUOUS
 10
1.939595
 20
34.19199
 11
1.939595
 21
16.69199
  0
LINE
  8
別途部材
  6
CONTINUOUS
 10
1.939595
 20
34.19199
 11
-15.560405
 21
34.19199
  0
LINE
  8
別途部材
  6
CONTINUOUS
 10
2.539595
 20
34.79199
 11
-15.560405
 21
34.79199
  0
LINE
  8
別途部材
  6
CONTINUOUS
 10
-33.660405
 20
34.79199
 11
-33.060405
 21
34.19199
  0
LINE
  8
別途部材
  6
CONTINUOUS
 10
-33.660405
 20
34.79199
 11
-33.660405
 21
16.69199
  0
LINE
  8
別途部材
  6
CONTINUOUS
 10
-33.060405
 20
34.19199
 11
-33.060405
 21
16.69199
  0
LINE
  8
別途部材
  6
CONTINUOUS
 10
-33.060405
 20
34.19199
 11
-15.560405
 21
34.19199
  0
LINE
  8
別途部材
  6
CONTINUOUS
 10
-33.660405
 20
34.79199
 11
-15.560405
 21
34.79199
  0
LINE
  8
別途部材
  6
CONTINUOUS
 10
-30.560405
 20
1.69199
 11
-26.150072
 21
6.102323
  0
LINE
  8
別途部材
  6
CONTINUOUS
 10
-0.560405
 20
1.69199
 11
-4.970737
 21
6.102323
  0
LINE
  8
別途部材
  6
CONTINUOUS
 10
-30.560405
 20
31.69199
 11
-26.150072
 21
27.281658
  0
LINE
  8
別途部材
  6
CONTINUOUS
 10
-0.560405
 20
31.69199
 11
-4.970737
 21
27.281658
  0
INSERT
  2
*GRP_0026
  8
別途部材
  6
DOT
 10
0.0
 20
0.0
  0
INSERT
  2
*GRP_0027
  8
別途部材
  6
DOT
 10
0.0
 20
0.0
  0
LINE
  8
St
  6
CONTINUOUS
 62
    47
 10
-34.470622
 20
-65.373193
 11
-15.560405
 21
-65.373193
  0
LINE
  8
St
  6
CONTINUOUS
 62
    47
 10
3.349813
 20
-65.373193
 11
-15.560405
 21
-65.373193
  0
ENDSEC
  0
EOF
