  0
SECTION
  2
HEADER
  9
$EXTMIN
 10
-210.0
 20
-148.5
  9
$EXTMAX
 10
210.0
 20
148.5
  9
$PDMODE
 70
    32
  9
$PDSIZE
 40
1.5
  9
$LTSCALE
 40
10.0
  0
ENDSEC
  0
SECTION
  2
TABLES
  0
TABLE
  2
LTYPE
 70
    15
  0
LTYPE
  2
CONTINUOUS
 70
    64
  3
実線
 72
    65
 73
     0
 40
0.0
  0
LTYPE
  2
DASHED
 70
    64
  3
破線A
 72
    65
 73
     2
 40
0.6
 49
0.4
 49
-0.2
  0
LTYPE
  2
DASHEDX2
 70
    64
  3
破線B
 72
    65
 73
     2
 40
1.3
 49
0.9
 49
-0.4
  0
LTYPE
  2
DASHDOT
 70
    64
  3
１点鎖線A
 72
    65
 73
     4
 40
0.5375
 49
0.375
 49
-0.05
 49
0.0625
 49
-0.05
  0
LTYPE
  2
DASHDOTX2
 70
    64
  3
１点鎖線B
 72
    65
 73
     4
 40
1.075
 49
0.75
 49
-0.1
 49
0.125
 49
-0.1
  0
LTYPE
  2
DIVIDE2
 70
    64
  3
２点鎖線A
 72
    65
 73
     6
 40
0.5125
 49
0.3
 49
-0.0375
 49
0.05
 49
-0.0375
 49
0.05
 49
-0.0375
  0
LTYPE
  2
DIVIDE
 70
    64
  3
２点鎖線B
 72
    65
 73
     6
 40
1.05
 49
0.55
 49
-0.1
 49
0.1
 49
-0.1
 49
0.1
 49
-0.1
  0
LTYPE
  2
DOT
 70
    64
  3
点線A
 72
    65
 73
     2
 40
0.1125
 49
0.0625
 49
-0.05
  0
LTYPE
  2
DOTX2
 70
    64
  3
点線B
 72
    65
 73
     2
 40
0.275
 49
0.15
 49
-0.125
  0
LTYPE
  2
CONTINUOUS
 70
    64
  3
実線
 72
    65
 73
     0
 40
0.0
  0
LTYPE
  2
CONTINUOUS
 70
    64
  3
実線
 72
    65
 73
     0
 40
0.0
  0
LTYPE
  2
CONTINUOUS
 70
    64
  3
実線
 72
    65
 73
     0
 40
0.0
  0
LTYPE
  2
CONTINUOUS
 70
    64
  3
実線
 72
    65
 73
     0
 40
0.0
  0
LTYPE
  2
CONTINUOUS
 70
    64
  3
実線
 72
    65
 73
     0
 40
0.0
  0
LTYPE
  2
CONTINUOUS
 70
    64
  3
実線
 72
    65
 73
     0
 40
0.0
  0
ENDTAB
  0
TABLE
  2
LAYER
 70
    34
  0
LAYER
  2
通り芯
 70
     0
 62
    15
  6
CONTINUOUS
  0
LAYER
  2
補助線
 70
     0
 62
    16
  6
DOT
  0
LAYER
  2
躯体
 70
     0
 62
    31
  6
CONTINUOUS
  0
LAYER
  2
型材
 70
     0
 62
    32
  6
CONTINUOUS
  0
LAYER
  2
型材断面
 70
     0
 62
    47
  6
CONTINUOUS
  0
LAYER
  2
ガラス
 70
     0
 62
    48
  6
CONTINUOUS
  0
LAYER
  2
ゴム等
 70
     0
 62
    63
  6
CONTINUOUS
  0
LAYER
  2
ボルト／ビス
 70
     0
 62
    64
  6
CONTINUOUS
  0
LAYER
  2
文字
 70
     0
 62
    79
  6
CONTINUOUS
  0
LAYER
  2
寸法
 70
     0
 62
    80
  6
CONTINUOUS
  0
LAYER
  2
ﾊｯﾁﾝｸﾞ
 70
     0
 62
    95
  6
CONTINUOUS
  0
LAYER
  2
別途部材
 70
     0
 62
    96
  6
CONTINUOUS
  0
LAYER
  2
曲げ物
 70
     0
 62
   111
  6
CONTINUOUS
  0
LAYER
  2
鉄骨等
 70
     0
 62
   112
  6
CONTINUOUS
  0
LAYER
  2
St
 70
     0
 62
   127
  6
CONTINUOUS
  0
LAYER
  2
その他部品等
 70
     0
 62
   128
  6
CONTINUOUS
  0
LAYER
  2
ｶﾞｽｹｯﾄ
 70
     0
 62
   143
  6
CONTINUOUS
  0
LAYER
  2
ｽｹｯﾁ
 70
     0
 62
    14
  6
CONTINUOUS
  0
LAYER
  2
0
 70
     0
 62
    17
  6
CONTINUOUS
  0
LAYER
  2
1
 70
     0
 62
    30
  6
CONTINUOUS
  0
LAYER
  2
4
 70
     0
 62
    33
  6
CONTINUOUS
  0
LAYER
  2
ﾚｲﾔ3
 70
     0
 62
    46
  6
CONTINUOUS
  0
LAYER
  2
外形線
 70
     0
 62
    49
  6
CONTINUOUS
  0
LAYER
  2
部品
 70
     0
 62
    14
  6
CONTINUOUS
  0
LAYER
  2
サッシ芯
 70
     0
 62
    17
  6
DASHDOTX2
  0
LAYER
  2
寸法線
 70
     0
 62
    62
  6
CONTINUOUS
  0
LAYER
  2
姿図外形線
 70
     0
 62
    65
  6
CONTINUOUS
  0
LAYER
  2
姿補助線
 70
     0
 62
    30
  6
CONTINUOUS
  0
LAYER
  2
透視線
 70
     0
 62
    78
  6
DOT
  0
LAYER
  2
用紙
 70
     0
 62
    81
  6
CONTINUOUS
  0
LAYER
  2
実線図枠
 70
     0
 62
    94
  6
CONTINUOUS
  0
LAYER
  2
補助図枠
 70
     0
 62
    97
  6
CONTINUOUS
  0
LAYER
  2
建具記号
 70
     0
 62
   110
  6
CONTINUOUS
  0
LAYER
  2
補助文字
 70
     0
 62
   113
  6
CONTINUOUS
  0
ENDTAB
  0
TABLE
  2
STYLE
 70
    10
  0
STYLE
  2
STANDARD
 70
     0
 40
1.0
 41
1.0
 42
1.0
 50
0.0
 71
     0
  3
TXT
  4
BIGFONT
  0
STYLE
  2
TATE
 70
     4
 40
1.0
 41
1.0
 42
1.0
 50
0.0
 71
     0
  3
TXT
  4
BIGFONT
  0
STYLE
  2
TextStyle03
 70
     0
 40
1.0
 41
1.0
 42
1.0
 50
0.0
 71
     0
  3
MONOTXT
  4
BIGFONT
  0
STYLE
  2
TextStyle04
 70
     0
 40
1.0
 41
1.0
 42
1.0
 50
0.0
 71
     0
  3
MONOTXT
  4
BIGFONT
  0
STYLE
  2
TextStyle05
 70
     0
 40
1.0
 41
1.0
 42
1.0
 50
0.0
 71
     0
  3
MONOTXT
  4
BIGFONT
  0
STYLE
  2
TextStyle06
 70
     0
 40
1.0
 41
1.0
 42
1.0
 50
0.0
 71
     0
  3
MONOTXT
  4
BIGFONT
  0
STYLE
  2
TextStyle07
 70
     0
 40
1.0
 41
1.0
 42
1.0
 50
0.0
 71
     0
  3
MONOTXT
  4
BIGFONT
  0
STYLE
  2
TextStyle08
 70
     0
 40
1.0
 41
1.0
 42
1.0
 50
0.0
 71
     0
  3
MONOTXT
  4
BIGFONT
  0
STYLE
  2
TextStyle09
 70
     0
 40
1.0
 41
1.0
 42
1.0
 50
0.0
 71
     0
  3
MONOTXT
  4
BIGFONT
  0
STYLE
  2
TextStyle10
 70
     0
 40
1.0
 41
1.0
 42
1.0
 50
0.0
 71
     0
  3
MONOTXT
  4
BIGFONT
  0
ENDTAB
  0
ENDSEC
  0
SECTION
  2
BLOCKS
  0
BLOCK
  2
*GRP_0001
 70
    65
 10
0.0
 20
0.0
  0
LINE
  8
型材断面
  6
CONTINUOUS
 10
195.0
 20
133.5
 11
195.0
 21
-133.5
  0
LINE
  8
型材断面
  6
CONTINUOUS
 10
195.0
 20
-133.5
 11
-185.0
 21
-133.5
  0
LINE
  8
型材断面
  6
CONTINUOUS
 10
-185.0
 20
-133.5
 11
-185.0
 21
133.5
  0
LINE
  8
型材断面
  6
CONTINUOUS
 10
195.0
 20
133.5
 11
-185.0
 21
133.5
  0
LINE
  8
型材断面
  6
CONTINUOUS
 10
145.0
 20
-133.5
 11
145.0
 21
-118.5
  0
LINE
  8
型材断面
  6
CONTINUOUS
 10
195.0
 20
-118.5
 11
145.0
 21
-118.5
  0
ENDBLK
  0
BLOCK
  2
*DIM_0002
 70
    65
 10
0.0
 20
0.0
  0
LINE
  8
寸法
  6
BYBLOCK
 62
     0
 10
32.616278
 20
-67.95793
 11
69.252595
 21
-67.95793
  0
LINE
  8
寸法
  6
BYBLOCK
 62
     0
 10
69.252595
 20
-79.624597
 11
69.252595
 21
-67.95793
  0
POINT
  8
寸法
 62
     0
 10
69.252595
 20
-79.624597
  0
POINT
  8
寸法
 62
     0
 10
69.252595
 20
-67.95793
  0
TEXT
  7
TextStyle03
  8
寸法
  6
CONTINUOUS
 62
     0
 10
68.9
 20
-76.2375
  1
350
 40
3.0
 50
90.0
 72
     5
 11
68.9
 21
-71.3625
  0
ENDBLK
  0
BLOCK
  2
*DIM_0003
 70
    65
 10
0.0
 20
0.0
  0
LINE
  8
寸法
  6
BYBLOCK
 62
     0
 10
53.282945
 20
-22.536362
 11
-96.717055
 21
-22.536362
  0
POINT
  8
寸法
 62
     0
 10
53.282945
 20
-22.536362
  0
POINT
  8
寸法
 62
     0
 10
-96.717055
 20
-22.536362
  0
TEXT
  7
TextStyle03
  8
寸法
  6
CONTINUOUS
 62
     0
 10
-33.44375
 20
-22.175
  1
呼称寸法　4500
 40
3.0
 72
     5
 11
-10.00625
 21
-22.175
  0
ENDBLK
  0
BLOCK
  2
*DIM_0004
 70
    65
 10
0.0
 20
0.0
  0
LINE
  8
寸法
  6
BYBLOCK
 62
     0
 10
-80.050388
 20
9.76892
 11
-80.050388
 21
4.855835
  0
LINE
  8
寸法
  6
BYBLOCK
 62
     0
 10
-21.717055
 20
9.76892
 11
-21.717055
 21
4.855835
  0
LINE
  8
寸法
  6
BYBLOCK
 62
     0
 10
-80.050388
 20
4.855835
 11
-21.717055
 21
4.855835
  0
POINT
  8
寸法
 62
     0
 10
-80.050388
 20
4.855835
  0
POINT
  8
寸法
 62
     0
 10
-21.717055
 20
4.855835
  0
TEXT
  7
TextStyle03
  8
寸法
  6
CONTINUOUS
 62
     0
 10
-54.18125
 20
5.225
  1
1750
 40
3.0
 72
     5
 11
-47.61875
 21
5.225
  0
ENDBLK
  0
BLOCK
  2
*DIM_0005
 70
    65
 10
0.0
 20
0.0
  0
LINE
  8
寸法
  6
BYBLOCK
 62
     0
 10
36.616278
 20
9.76892
 11
36.616278
 21
4.855835
  0
LINE
  8
寸法
  6
BYBLOCK
 62
     0
 10
-21.717055
 20
4.855835
 11
36.616278
 21
4.855835
  0
POINT
  8
寸法
 62
     0
 10
36.616278
 20
4.855835
  0
TEXT
  7
TextStyle03
  8
寸法
  6
CONTINUOUS
 62
     0
 10
4.14375
 20
5.225
  1
1750
 40
3.0
 72
     5
 11
10.70625
 21
5.225
  0
ENDBLK
  0
BLOCK
  2
*DIM_0006
 70
    65
 10
0.0
 20
0.0
  0
LINE
  8
寸法
  6
BYBLOCK
 62
     0
 10
87.302595
 20
13.399048
 11
87.302595
 21
56.73238
  0
POINT
  8
寸法
 62
     0
 10
87.302595
 20
13.399048
  0
POINT
  8
寸法
 62
     0
 10
87.302595
 20
56.73238
  0
TEXT
  7
TextStyle03
  8
寸法
  6
CONTINUOUS
 62
     0
 10
86.95
 20
23.33125
  1
呼称寸法　1300
 40
3.0
 50
90.0
 72
     5
 11
86.95
 21
46.76875
  0
ENDBLK
  0
BLOCK
  2
*DIM_0007
 70
    65
 10
0.0
 20
0.0
  0
LINE
  8
寸法
  6
BYBLOCK
 62
     0
 10
131.149542
 20
36.065715
 11
131.149542
 21
72.668433
  0
LINE
  8
寸法
  6
BYBLOCK
 62
     0
 10
142.81621
 20
72.668433
 11
131.149542
 21
72.668433
  0
POINT
  8
寸法
 62
     0
 10
131.149542
 20
72.668433
  0
TEXT
  7
TextStyle03
  8
寸法
  6
CONTINUOUS
 62
     0
 10
134.5625
 20
73.025
  1
350
 40
3.0
 72
     5
 11
139.4375
 21
73.025
  0
ENDBLK
  0
BLOCK
  2
*DIM_0008
 70
    65
 10
0.0
 20
0.0
  0
LINE
  8
寸法
  6
BYBLOCK
 62
     0
 10
142.81621
 20
59.39905
 11
142.81621
 21
72.668433
  0
LINE
  8
寸法
  6
BYBLOCK
 62
     0
 10
144.899495
 20
60.339195
 11
144.899495
 21
72.668433
  0
LINE
  8
寸法
  6
BYBLOCK
 62
     0
 10
142.81621
 20
72.668433
 11
144.899495
 21
72.668433
  0
POINT
  8
寸法
 62
     0
 10
142.81621
 20
72.668433
  0
POINT
  8
寸法
 62
     0
 10
144.899495
 20
72.668433
  0
TEXT
  7
TextStyle03
  8
寸法
  6
CONTINUOUS
 62
     0
 10
147.29375
 20
73.025
  1
62.5
 40
3.0
 72
     5
 11
153.85625
 21
73.025
  0
ENDBLK
  0
BLOCK
  2
*DIM_0009
 70
    65
 10
0.0
 20
0.0
  0
LINE
  8
寸法
  6
BYBLOCK
 62
     0
 10
143.399495
 20
59.339195
 11
87.302595
 21
59.339195
  0
LINE
  8
寸法
  6
BYBLOCK
 62
     0
 10
87.302595
 20
56.73238
 11
87.302595
 21
59.339195
  0
POINT
  8
寸法
 62
     0
 10
87.302595
 20
56.73238
  0
POINT
  8
寸法
 62
     0
 10
87.302595
 20
59.339195
  0
TEXT
  7
TextStyle03
  8
寸法
  6
CONTINUOUS
 62
     0
 10
86.9
 20
61.49375
  1
78.2
 40
3.0
 50
90.0
 72
     5
 11
86.9
 21
68.05625
  0
ENDBLK
  0
BLOCK
  2
*DIM_0010
 70
    65
 10
0.0
 20
0.0
  0
LINE
  8
寸法
  6
BYBLOCK
 62
     0
 10
143.399495
 20
10.792235
 11
87.302595
 21
10.792235
  0
LINE
  8
寸法
  6
BYBLOCK
 62
     0
 10
87.302595
 20
13.399048
 11
87.302595
 21
10.792235
  0
POINT
  8
寸法
 62
     0
 10
87.302595
 20
13.399048
  0
POINT
  8
寸法
 62
     0
 10
87.302595
 20
10.792235
  0
TEXT
  7
TextStyle03
  8
寸法
  6
CONTINUOUS
 62
     0
 10
86.9
 20
2.04375
  1
78.2
 40
3.0
 50
90.0
 72
     5
 11
86.9
 21
8.60625
  0
ENDBLK
  0
BLOCK
  2
*DIM_0011
 70
    65
 10
0.0
 20
0.0
  0
LINE
  8
寸法
  6
BYBLOCK
 62
     0
 10
55.949612
 20
-79.624597
 11
69.252595
 21
-79.624597
  0
LINE
  8
寸法
  6
BYBLOCK
 62
     0
 10
56.889758
 20
-81.707882
 11
69.252595
 21
-81.707882
  0
LINE
  8
寸法
  6
BYBLOCK
 62
     0
 10
69.252595
 20
-79.624597
 11
69.252595
 21
-81.707882
  0
POINT
  8
寸法
 62
     0
 10
69.252595
 20
-79.624597
  0
POINT
  8
寸法
 62
     0
 10
69.252595
 20
-81.707882
  0
TEXT
  7
TextStyle03
  8
寸法
  6
CONTINUOUS
 62
     0
 10
68.85
 20
-90.70625
  1
62.5
 40
3.0
 50
90.0
 72
     5
 11
68.85
 21
-84.14375
  0
ENDBLK
  0
BLOCK
  2
*DIM_0012
 70
    65
 10
0.0
 20
0.0
  0
LINE
  8
寸法
  6
BYBLOCK
 62
     0
 10
55.889758
 20
-80.207882
 11
55.889758
 21
-22.536362
  0
LINE
  8
寸法
  6
BYBLOCK
 62
     0
 10
53.282945
 20
-22.536362
 11
55.889758
 21
-22.536362
  0
POINT
  8
寸法
 62
     0
 10
53.282945
 20
-22.536362
  0
POINT
  8
寸法
 62
     0
 10
55.889758
 20
-22.536362
  0
TEXT
  7
TextStyle03
  8
寸法
  6
CONTINUOUS
 62
     0
 10
58.01875
 20
-22.175
  1
78.2
 40
3.0
 72
     5
 11
64.58125
 21
-22.175
  0
ENDBLK
  0
BLOCK
  2
*DIM_0013
 70
    65
 10
0.0
 20
0.0
  0
LINE
  8
寸法
  6
BYBLOCK
 62
     0
 10
-99.323867
 20
-80.207882
 11
-99.323867
 21
-22.536362
  0
LINE
  8
寸法
  6
BYBLOCK
 62
     0
 10
-96.717055
 20
-22.536362
 11
-99.323867
 21
-22.536362
  0
POINT
  8
寸法
 62
     0
 10
-96.717055
 20
-22.536362
  0
POINT
  8
寸法
 62
     0
 10
-99.323867
 20
-22.536362
  0
TEXT
  7
TextStyle03
  8
寸法
  6
CONTINUOUS
 62
     0
 10
-108.05625
 20
-22.175
  1
78.2
 40
3.0
 72
     5
 11
-101.49375
 21
-22.175
  0
ENDBLK
  0
BLOCK
  2
*GRP_0014
 70
    65
 10
0.0
 20
0.0
  0
LINE
  8
別途部材
  6
CONTINUOUS
 62
    96
 10
-98.38372
 20
-79.624597
 11
-98.78372
 21
-80.624597
  0
ARC
  8
別途部材
  6
CONTINUOUS
 10
-75.050386
 20
-93.910312
 40
25.952382
 50
90.0
 51
146.601512
  0
LINE
  8
別途部材
  6
CONTINUOUS
 62
    96
 10
-98.38372
 20
-79.624597
 11
-21.717055
 21
-79.624597
  0
LINE
  8
別途部材
  6
CONTINUOUS
 10
-98.78372
 20
-80.624597
 11
-21.717055
 21
-80.624597
  0
LINE
  8
別途部材
  6
CONTINUOUS
 10
-22.217055
 20
-66.95793
 11
-23.217055
 21
-67.95793
  0
LINE
  8
別途部材
  6
CONTINUOUS
 10
-24.217055
 20
-67.95793
 11
-25.217055
 21
-66.95793
  0
LINE
  8
別途部材
  6
CONTINUOUS
 10
-26.217055
 20
-66.95793
 11
-27.217055
 21
-67.95793
  0
LINE
  8
別途部材
  6
CONTINUOUS
 10
-25.217055
 20
-66.95793
 11
-26.217055
 21
-66.95793
  0
LINE
  8
別途部材
  6
CONTINUOUS
 10
-22.217055
 20
-66.95793
 11
-21.717055
 21
-66.95793
  0
LINE
  8
別途部材
  6
CONTINUOUS
 10
-28.217055
 20
-67.95793
 11
-29.217055
 21
-66.95793
  0
LINE
  8
別途部材
  6
CONTINUOUS
 10
-30.217055
 20
-66.95793
 11
-31.217055
 21
-67.95793
  0
LINE
  8
別途部材
  6
CONTINUOUS
 10
-29.217055
 20
-66.95793
 11
-30.217055
 21
-66.95793
  0
LINE
  8
別途部材
  6
CONTINUOUS
 10
-32.217055
 20
-67.95793
 11
-33.217055
 21
-66.95793
  0
LINE
  8
別途部材
  6
CONTINUOUS
 10
-34.217055
 20
-66.95793
 11
-35.217055
 21
-67.95793
  0
LINE
  8
別途部材
  6
CONTINUOUS
 10
-33.217055
 20
-66.95793
 11
-34.217055
 21
-66.95793
  0
LINE
  8
別途部材
  6
CONTINUOUS
 10
-36.217055
 20
-67.95793
 11
-37.217055
 21
-66.95793
  0
LINE
  8
別途部材
  6
CONTINUOUS
 10
-38.217055
 20
-66.95793
 11
-39.217055
 21
-67.95793
  0
LINE
  8
別途部材
  6
CONTINUOUS
 10
-37.217055
 20
-66.95793
 11
-38.217055
 21
-66.95793
  0
LINE
  8
別途部材
  6
CONTINUOUS
 10
-40.217055
 20
-67.95793
 11
-41.217055
 21
-66.95793
  0
LINE
  8
別途部材
  6
CONTINUOUS
 10
-42.217055
 20
-66.95793
 11
-43.217055
 21
-67.95793
  0
LINE
  8
別途部材
  6
CONTINUOUS
 10
-41.217055
 20
-66.95793
 11
-42.217055
 21
-66.95793
  0
LINE
  8
別途部材
  6
CONTINUOUS
 10
-44.217055
 20
-67.95793
 11
-45.217055
 21
-66.95793
  0
LINE
  8
別途部材
  6
CONTINUOUS
 10
-46.217055
 20
-66.95793
 11
-47.217055
 21
-67.95793
  0
LINE
  8
別途部材
  6
CONTINUOUS
 10
-45.217055
 20
-66.95793
 11
-46.217055
 21
-66.95793
  0
LINE
  8
別途部材
  6
CONTINUOUS
 10
-48.217055
 20
-67.95793
 11
-49.217055
 21
-66.95793
  0
LINE
  8
別途部材
  6
CONTINUOUS
 10
-50.217055
 20
-66.95793
 11
-51.217055
 21
-67.95793
  0
LINE
  8
別途部材
  6
CONTINUOUS
 10
-49.217055
 20
-66.95793
 11
-50.217055
 21
-66.95793
  0
LINE
  8
別途部材
  6
CONTINUOUS
 10
-52.217055
 20
-67.95793
 11
-53.217055
 21
-66.95793
  0
LINE
  8
別途部材
  6
CONTINUOUS
 10
-54.217055
 20
-66.95793
 11
-55.217055
 21
-67.95793
  0
LINE
  8
別途部材
  6
CONTINUOUS
 10
-53.217055
 20
-66.95793
 11
-54.217055
 21
-66.95793
  0
LINE
  8
別途部材
  6
CONTINUOUS
 10
-56.217055
 20
-67.95793
 11
-57.217055
 21
-66.95793
  0
LINE
  8
別途部材
  6
CONTINUOUS
 10
-58.217055
 20
-66.95793
 11
-59.217055
 21
-67.95793
  0
LINE
  8
別途部材
  6
CONTINUOUS
 10
-57.217055
 20
-66.95793
 11
-58.217055
 21
-66.95793
  0
LINE
  8
別途部材
  6
CONTINUOUS
 10
-60.217055
 20
-67.95793
 11
-61.217055
 21
-66.95793
  0
LINE
  8
別途部材
  6
CONTINUOUS
 10
-62.217055
 20
-66.95793
 11
-63.217055
 21
-67.95793
  0
LINE
  8
別途部材
  6
CONTINUOUS
 10
-61.217055
 20
-66.95793
 11
-62.217055
 21
-66.95793
  0
LINE
  8
別途部材
  6
CONTINUOUS
 10
-64.217055
 20
-67.95793
 11
-65.217055
 21
-66.95793
  0
LINE
  8
別途部材
  6
CONTINUOUS
 10
-66.217055
 20
-66.95793
 11
-67.217055
 21
-67.95793
  0
LINE
  8
別途部材
  6
CONTINUOUS
 10
-65.217055
 20
-66.95793
 11
-66.217055
 21
-66.95793
  0
LINE
  8
別途部材
  6
CONTINUOUS
 10
-63.217055
 20
-67.95793
 11
-64.217055
 21
-67.95793
  0
LINE
  8
別途部材
  6
CONTINUOUS
 10
-59.217055
 20
-67.95793
 11
-60.217055
 21
-67.95793
  0
LINE
  8
別途部材
  6
CONTINUOUS
 10
-55.217055
 20
-67.95793
 11
-56.217055
 21
-67.95793
  0
LINE
  8
別途部材
  6
CONTINUOUS
 10
-51.217055
 20
-67.95793
 11
-52.217055
 21
-67.95793
  0
LINE
  8
別途部材
  6
CONTINUOUS
 10
-47.217055
 20
-67.95793
 11
-48.217055
 21
-67.95793
  0
LINE
  8
別途部材
  6
CONTINUOUS
 10
-43.217055
 20
-67.95793
 11
-44.217055
 21
-67.95793
  0
LINE
  8
別途部材
  6
CONTINUOUS
 10
-39.217055
 20
-67.95793
 11
-40.217055
 21
-67.95793
  0
LINE
  8
別途部材
  6
CONTINUOUS
 10
-35.217055
 20
-67.95793
 11
-36.217055
 21
-67.95793
  0
LINE
  8
別途部材
  6
CONTINUOUS
 10
-31.217055
 20
-67.95793
 11
-32.217055
 21
-67.95793
  0
LINE
  8
別途部材
  6
CONTINUOUS
 10
-27.217055
 20
-67.95793
 11
-28.217055
 21
-67.95793
  0
LINE
  8
別途部材
  6
CONTINUOUS
 10
-24.217055
 20
-67.95793
 11
-23.217055
 21
-67.95793
  0
LINE
  8
別途部材
  6
CONTINUOUS
 10
-64.217055
 20
-67.95793
 11
-64.217055
 21
-79.624597
  0
LINE
  8
別途部材
  6
CONTINUOUS
 10
-63.217055
 20
-67.95793
 11
-63.217055
 21
-79.624597
  0
LINE
  8
別途部材
  6
CONTINUOUS
 10
-65.217055
 20
-66.95793
 11
-65.217055
 21
-79.624597
  0
LINE
  8
別途部材
  6
CONTINUOUS
 10
-67.217055
 20
-67.95793
 11
-67.217055
 21
-79.624597
  0
LINE
  8
別途部材
  6
CONTINUOUS
 10
-66.217055
 20
-66.95793
 11
-66.217055
 21
-79.624597
  0
LINE
  8
別途部材
  6
CONTINUOUS
 10
-56.217055
 20
-67.95793
 11
-56.217055
 21
-79.624597
  0
LINE
  8
別途部材
  6
CONTINUOUS
 10
-58.217055
 20
-66.95793
 11
-58.217055
 21
-79.624597
  0
LINE
  8
別途部材
  6
CONTINUOUS
 10
-59.217055
 20
-67.95793
 11
-59.217055
 21
-79.624597
  0
LINE
  8
別途部材
  6
CONTINUOUS
 10
-61.217055
 20
-66.95793
 11
-61.217055
 21
-79.624597
  0
LINE
  8
別途部材
  6
CONTINUOUS
 10
-62.217055
 20
-66.95793
 11
-62.217055
 21
-79.624597
  0
LINE
  8
別途部材
  6
CONTINUOUS
 10
-60.217055
 20
-67.95793
 11
-60.217055
 21
-79.624597
  0
LINE
  8
別途部材
  6
CONTINUOUS
 10
-57.217055
 20
-66.95793
 11
-57.217055
 21
-79.624597
  0
LINE
  8
別途部材
  6
CONTINUOUS
 10
-55.217055
 20
-67.95793
 11
-55.217055
 21
-79.624597
  0
LINE
  8
別途部材
  6
CONTINUOUS
 10
-54.217055
 20
-66.95793
 11
-54.217055
 21
-79.624597
  0
LINE
  8
別途部材
  6
CONTINUOUS
 10
-44.217055
 20
-67.95793
 11
-44.217055
 21
-79.624597
  0
LINE
  8
別途部材
  6
CONTINUOUS
 10
-38.217055
 20
-66.95793
 11
-38.217055
 21
-79.624597
  0
LINE
  8
別途部材
  6
CONTINUOUS
 10
-37.217055
 20
-66.95793
 11
-37.217055
 21
-79.624597
  0
LINE
  8
別途部材
  6
CONTINUOUS
 10
-27.217055
 20
-67.95793
 11
-27.217055
 21
-79.624597
  0
LINE
  8
別途部材
  6
CONTINUOUS
 10
-22.217055
 20
-66.95793
 11
-22.217055
 21
-79.624597
  0
LINE
  8
別途部材
  6
CONTINUOUS
 10
-23.217055
 20
-67.95793
 11
-23.217055
 21
-79.624597
  0
LINE
  8
別途部材
  6
CONTINUOUS
 10
-25.217055
 20
-66.95793
 11
-25.217055
 21
-79.624597
  0
LINE
  8
別途部材
  6
CONTINUOUS
 10
-26.217055
 20
-66.95793
 11
-26.217055
 21
-79.624597
  0
LINE
  8
別途部材
  6
CONTINUOUS
 10
-28.217055
 20
-67.95793
 11
-28.217055
 21
-79.624597
  0
LINE
  8
別途部材
  6
CONTINUOUS
 10
-39.217055
 20
-67.95793
 11
-39.217055
 21
-79.624597
  0
LINE
  8
別途部材
  6
CONTINUOUS
 10
-40.217055
 20
-67.95793
 11
-40.217055
 21
-79.624597
  0
LINE
  8
別途部材
  6
CONTINUOUS
 10
-45.217055
 20
-66.95793
 11
-45.217055
 21
-79.624597
  0
LINE
  8
別途部材
  6
CONTINUOUS
 10
-47.217055
 20
-67.95793
 11
-47.217055
 21
-79.624597
  0
LINE
  8
別途部材
  6
CONTINUOUS
 10
-50.217055
 20
-66.95793
 11
-50.217055
 21
-79.624597
  0
LINE
  8
別途部材
  6
CONTINUOUS
 10
-53.217055
 20
-66.95793
 11
-53.217055
 21
-79.624597
  0
LINE
  8
別途部材
  6
CONTINUOUS
 10
-46.217055
 20
-66.95793
 11
-46.217055
 21
-79.624597
  0
LINE
  8
別途部材
  6
CONTINUOUS
 10
-48.217055
 20
-67.95793
 11
-48.217055
 21
-79.624597
  0
LINE
  8
別途部材
  6
CONTINUOUS
 10
-51.217055
 20
-67.95793
 11
-51.217055
 21
-79.624597
  0
LINE
  8
別途部材
  6
CONTINUOUS
 10
-52.217055
 20
-67.95793
 11
-52.217055
 21
-79.624597
  0
LINE
  8
別途部材
  6
CONTINUOUS
 10
-42.217055
 20
-66.95793
 11
-42.217055
 21
-79.624597
  0
LINE
  8
別途部材
  6
CONTINUOUS
 10
-41.217055
 20
-66.95793
 11
-41.217055
 21
-79.624597
  0
LINE
  8
別途部材
  6
CONTINUOUS
 10
-43.217055
 20
-67.95793
 11
-43.217055
 21
-79.624597
  0
LINE
  8
別途部材
  6
CONTINUOUS
 10
-49.217055
 20
-66.95793
 11
-49.217055
 21
-79.624597
  0
LINE
  8
別途部材
  6
CONTINUOUS
 10
-35.217055
 20
-67.95793
 11
-35.217055
 21
-79.624597
  0
LINE
  8
別途部材
  6
CONTINUOUS
 10
-36.217055
 20
-67.95793
 11
-36.217055
 21
-79.624597
  0
LINE
  8
別途部材
  6
CONTINUOUS
 10
-34.217055
 20
-66.95793
 11
-34.217055
 21
-79.624597
  0
LINE
  8
別途部材
  6
CONTINUOUS
 10
-32.217055
 20
-67.95793
 11
-32.217055
 21
-79.624597
  0
LINE
  8
別途部材
  6
CONTINUOUS
 10
-33.217055
 20
-66.95793
 11
-33.217055
 21
-79.624597
  0
LINE
  8
別途部材
  6
CONTINUOUS
 10
-31.217055
 20
-67.95793
 11
-31.217055
 21
-79.624597
  0
LINE
  8
別途部材
  6
CONTINUOUS
 10
-29.217055
 20
-66.95793
 11
-29.217055
 21
-79.624597
  0
LINE
  8
別途部材
  6
CONTINUOUS
 10
-30.217055
 20
-66.95793
 11
-30.217055
 21
-79.624597
  0
LINE
  8
別途部材
  6
CONTINUOUS
 10
-24.217055
 20
-67.95793
 11
-24.217055
 21
-79.624597
  0
LINE
  8
別途部材
  6
CONTINUOUS
 10
-68.217055
 20
-67.95793
 11
-69.217055
 21
-66.95793
  0
LINE
  8
別途部材
  6
CONTINUOUS
 10
-70.217055
 20
-66.95793
 11
-71.217055
 21
-67.95793
  0
LINE
  8
別途部材
  6
CONTINUOUS
 10
-69.217055
 20
-66.95793
 11
-70.217055
 21
-66.95793
  0
LINE
  8
別途部材
  6
CONTINUOUS
 10
-72.217055
 20
-67.95793
 11
-73.217055
 21
-66.95793
  0
LINE
  8
別途部材
  6
CONTINUOUS
 10
-74.217055
 20
-66.95793
 11
-75.217055
 21
-67.95793
  0
LINE
  8
別途部材
  6
CONTINUOUS
 10
-73.217055
 20
-66.95793
 11
-74.217055
 21
-66.95793
  0
LINE
  8
別途部材
  6
CONTINUOUS
 10
-71.217055
 20
-67.95793
 11
-72.217055
 21
-67.95793
  0
LINE
  8
別途部材
  6
CONTINUOUS
 10
-67.217055
 20
-67.95793
 11
-68.217055
 21
-67.95793
  0
LINE
  8
別途部材
  6
CONTINUOUS
 10
-74.217055
 20
-66.95793
 11
-74.217055
 21
-79.624597
  0
LINE
  8
別途部材
  6
CONTINUOUS
 10
-73.217055
 20
-66.95793
 11
-73.217055
 21
-79.624597
  0
LINE
  8
別途部材
  6
CONTINUOUS
 10
-75.217055
 20
-67.95793
 11
-75.217055
 21
-79.624597
  0
LINE
  8
別途部材
  6
CONTINUOUS
 10
-71.217055
 20
-67.95793
 11
-71.217055
 21
-79.624597
  0
LINE
  8
別途部材
  6
CONTINUOUS
 10
-72.217055
 20
-67.95793
 11
-72.217055
 21
-79.624597
  0
LINE
  8
別途部材
  6
CONTINUOUS
 10
-70.217055
 20
-66.95793
 11
-70.217055
 21
-79.624597
  0
LINE
  8
別途部材
  6
CONTINUOUS
 10
-68.217055
 20
-67.95793
 11
-68.217055
 21
-79.624597
  0
LINE
  8
別途部材
  6
CONTINUOUS
 10
-69.217055
 20
-66.95793
 11
-69.217055
 21
-79.624597
  0
LINE
  8
別途部材
  6
CONTINUOUS
 62
    96
 10
54.949612
 20
-79.624597
 11
55.349612
 21
-80.624597
  0
ARC
  8
別途部材
  6
CONTINUOUS
 10
31.616277
 20
-93.910312
 40
25.952382
 50
33.398488
 51
90.0
  0
LINE
  8
別途部材
  6
CONTINUOUS
 62
    96
 10
54.949612
 20
-79.624597
 11
-21.717055
 21
-79.624597
  0
LINE
  8
別途部材
  6
CONTINUOUS
 10
55.349612
 20
-80.624597
 11
-21.717055
 21
-80.624597
  0
LINE
  8
別途部材
  6
CONTINUOUS
 10
-21.217055
 20
-66.95793
 11
-20.217055
 21
-67.95793
  0
LINE
  8
別途部材
  6
CONTINUOUS
 10
-19.217055
 20
-67.95793
 11
-18.217055
 21
-66.95793
  0
LINE
  8
別途部材
  6
CONTINUOUS
 10
-17.217055
 20
-66.95793
 11
-16.217055
 21
-67.95793
  0
LINE
  8
別途部材
  6
CONTINUOUS
 10
-18.217055
 20
-66.95793
 11
-17.217055
 21
-66.95793
  0
LINE
  8
別途部材
  6
CONTINUOUS
 10
-21.217055
 20
-66.95793
 11
-21.717055
 21
-66.95793
  0
LINE
  8
別途部材
  6
CONTINUOUS
 10
-15.217055
 20
-67.95793
 11
-14.217055
 21
-66.95793
  0
LINE
  8
別途部材
  6
CONTINUOUS
 10
-13.217055
 20
-66.95793
 11
-12.217055
 21
-67.95793
  0
LINE
  8
別途部材
  6
CONTINUOUS
 10
-14.217055
 20
-66.95793
 11
-13.217055
 21
-66.95793
  0
LINE
  8
別途部材
  6
CONTINUOUS
 10
-11.217055
 20
-67.95793
 11
-10.217055
 21
-66.95793
  0
LINE
  8
別途部材
  6
CONTINUOUS
 10
-9.217055
 20
-66.95793
 11
-8.217055
 21
-67.95793
  0
LINE
  8
別途部材
  6
CONTINUOUS
 10
-10.217055
 20
-66.95793
 11
-9.217055
 21
-66.95793
  0
LINE
  8
別途部材
  6
CONTINUOUS
 10
-7.217055
 20
-67.95793
 11
-6.217055
 21
-66.95793
  0
LINE
  8
別途部材
  6
CONTINUOUS
 10
-5.217055
 20
-66.95793
 11
-4.217055
 21
-67.95793
  0
LINE
  8
別途部材
  6
CONTINUOUS
 10
-6.217055
 20
-66.95793
 11
-5.217055
 21
-66.95793
  0
LINE
  8
別途部材
  6
CONTINUOUS
 10
-3.217055
 20
-67.95793
 11
-2.217055
 21
-66.95793
  0
LINE
  8
別途部材
  6
CONTINUOUS
 10
-1.217055
 20
-66.95793
 11
-0.217055
 21
-67.95793
  0
LINE
  8
別途部材
  6
CONTINUOUS
 10
-2.217055
 20
-66.95793
 11
-1.217055
 21
-66.95793
  0
LINE
  8
別途部材
  6
CONTINUOUS
 10
0.782945
 20
-67.95793
 11
1.782945
 21
-66.95793
  0
LINE
  8
別途部材
  6
CONTINUOUS
 10
2.782945
 20
-66.95793
 11
3.782945
 21
-67.95793
  0
LINE
  8
別途部材
  6
CONTINUOUS
 10
1.782945
 20
-66.95793
 11
2.782945
 21
-66.95793
  0
LINE
  8
別途部材
  6
CONTINUOUS
 10
4.782945
 20
-67.95793
 11
5.782945
 21
-66.95793
  0
LINE
  8
別途部材
  6
CONTINUOUS
 10
6.782945
 20
-66.95793
 11
7.782945
 21
-67.95793
  0
LINE
  8
別途部材
  6
CONTINUOUS
 10
5.782945
 20
-66.95793
 11
6.782945
 21
-66.95793
  0
LINE
  8
別途部材
  6
CONTINUOUS
 10
8.782945
 20
-67.95793
 11
9.782945
 21
-66.95793
  0
LINE
  8
別途部材
  6
CONTINUOUS
 10
10.782945
 20
-66.95793
 11
11.782945
 21
-67.95793
  0
LINE
  8
別途部材
  6
CONTINUOUS
 10
9.782945
 20
-66.95793
 11
10.782945
 21
-66.95793
  0
LINE
  8
別途部材
  6
CONTINUOUS
 10
12.782945
 20
-67.95793
 11
13.782945
 21
-66.95793
  0
LINE
  8
別途部材
  6
CONTINUOUS
 10
14.782945
 20
-66.95793
 11
15.782945
 21
-67.95793
  0
LINE
  8
別途部材
  6
CONTINUOUS
 10
13.782945
 20
-66.95793
 11
14.782945
 21
-66.95793
  0
LINE
  8
別途部材
  6
CONTINUOUS
 10
16.782945
 20
-67.95793
 11
17.782945
 21
-66.95793
  0
LINE
  8
別途部材
  6
CONTINUOUS
 10
18.782945
 20
-66.95793
 11
19.782945
 21
-67.95793
  0
LINE
  8
別途部材
  6
CONTINUOUS
 10
17.782945
 20
-66.95793
 11
18.782945
 21
-66.95793
  0
LINE
  8
別途部材
  6
CONTINUOUS
 10
20.782945
 20
-67.95793
 11
21.782945
 21
-66.95793
  0
LINE
  8
別途部材
  6
CONTINUOUS
 10
22.782945
 20
-66.95793
 11
23.782945
 21
-67.95793
  0
LINE
  8
別途部材
  6
CONTINUOUS
 10
21.782945
 20
-66.95793
 11
22.782945
 21
-66.95793
  0
LINE
  8
別途部材
  6
CONTINUOUS
 10
19.782945
 20
-67.95793
 11
20.782945
 21
-67.95793
  0
LINE
  8
別途部材
  6
CONTINUOUS
 10
15.782945
 20
-67.95793
 11
16.782945
 21
-67.95793
  0
LINE
  8
別途部材
  6
CONTINUOUS
 10
11.782945
 20
-67.95793
 11
12.782945
 21
-67.95793
  0
LINE
  8
別途部材
  6
CONTINUOUS
 10
7.782945
 20
-67.95793
 11
8.782945
 21
-67.95793
  0
LINE
  8
別途部材
  6
CONTINUOUS
 10
3.782945
 20
-67.95793
 11
4.782945
 21
-67.95793
  0
LINE
  8
別途部材
  6
CONTINUOUS
 10
-0.217055
 20
-67.95793
 11
0.782945
 21
-67.95793
  0
LINE
  8
別途部材
  6
CONTINUOUS
 10
-4.217055
 20
-67.95793
 11
-3.217055
 21
-67.95793
  0
LINE
  8
別途部材
  6
CONTINUOUS
 10
-8.217055
 20
-67.95793
 11
-7.217055
 21
-67.95793
  0
LINE
  8
別途部材
  6
CONTINUOUS
 10
-12.217055
 20
-67.95793
 11
-11.217055
 21
-67.95793
  0
LINE
  8
別途部材
  6
CONTINUOUS
 10
-16.217055
 20
-67.95793
 11
-15.217055
 21
-67.95793
  0
LINE
  8
別途部材
  6
CONTINUOUS
 10
-19.217055
 20
-67.95793
 11
-20.217055
 21
-67.95793
  0
LINE
  8
別途部材
  6
CONTINUOUS
 10
20.782945
 20
-67.95793
 11
20.782945
 21
-79.624597
  0
LINE
  8
別途部材
  6
CONTINUOUS
 10
19.782945
 20
-67.95793
 11
19.782945
 21
-79.624597
  0
LINE
  8
別途部材
  6
CONTINUOUS
 10
21.782945
 20
-66.95793
 11
21.782945
 21
-79.624597
  0
LINE
  8
別途部材
  6
CONTINUOUS
 10
23.782945
 20
-67.95793
 11
23.782945
 21
-79.624597
  0
LINE
  8
別途部材
  6
CONTINUOUS
 10
22.782945
 20
-66.95793
 11
22.782945
 21
-79.624597
  0
LINE
  8
別途部材
  6
CONTINUOUS
 10
12.782945
 20
-67.95793
 11
12.782945
 21
-79.624597
  0
LINE
  8
別途部材
  6
CONTINUOUS
 10
14.782945
 20
-66.95793
 11
14.782945
 21
-79.624597
  0
LINE
  8
別途部材
  6
CONTINUOUS
 10
15.782945
 20
-67.95793
 11
15.782945
 21
-79.624597
  0
LINE
  8
別途部材
  6
CONTINUOUS
 10
17.782945
 20
-66.95793
 11
17.782945
 21
-79.624597
  0
LINE
  8
別途部材
  6
CONTINUOUS
 10
18.782945
 20
-66.95793
 11
18.782945
 21
-79.624597
  0
LINE
  8
別途部材
  6
CONTINUOUS
 10
16.782945
 20
-67.95793
 11
16.782945
 21
-79.624597
  0
LINE
  8
別途部材
  6
CONTINUOUS
 10
13.782945
 20
-66.95793
 11
13.782945
 21
-79.624597
  0
LINE
  8
別途部材
  6
CONTINUOUS
 10
11.782945
 20
-67.95793
 11
11.782945
 21
-79.624597
  0
LINE
  8
別途部材
  6
CONTINUOUS
 10
10.782945
 20
-66.95793
 11
10.782945
 21
-79.624597
  0
LINE
  8
別途部材
  6
CONTINUOUS
 10
0.782945
 20
-67.95793
 11
0.782945
 21
-79.624597
  0
LINE
  8
別途部材
  6
CONTINUOUS
 10
-5.217055
 20
-66.95793
 11
-5.217055
 21
-79.624597
  0
LINE
  8
別途部材
  6
CONTINUOUS
 10
-6.217055
 20
-66.95793
 11
-6.217055
 21
-79.624597
  0
LINE
  8
別途部材
  6
CONTINUOUS
 10
-16.217055
 20
-67.95793
 11
-16.217055
 21
-79.624597
  0
LINE
  8
別途部材
  6
CONTINUOUS
 10
-21.217055
 20
-66.95793
 11
-21.217055
 21
-79.624597
  0
LINE
  8
別途部材
  6
CONTINUOUS
 10
-20.217055
 20
-67.95793
 11
-20.217055
 21
-79.624597
  0
LINE
  8
別途部材
  6
CONTINUOUS
 10
-18.217055
 20
-66.95793
 11
-18.217055
 21
-79.624597
  0
LINE
  8
別途部材
  6
CONTINUOUS
 10
-17.217055
 20
-66.95793
 11
-17.217055
 21
-79.624597
  0
LINE
  8
別途部材
  6
CONTINUOUS
 10
-15.217055
 20
-67.95793
 11
-15.217055
 21
-79.624597
  0
LINE
  8
別途部材
  6
CONTINUOUS
 10
-4.217055
 20
-67.95793
 11
-4.217055
 21
-79.624597
  0
LINE
  8
別途部材
  6
CONTINUOUS
 10
-3.217055
 20
-67.95793
 11
-3.217055
 21
-79.624597
  0
LINE
  8
別途部材
  6
CONTINUOUS
 10
1.782945
 20
-66.95793
 11
1.782945
 21
-79.624597
  0
LINE
  8
別途部材
  6
CONTINUOUS
 10
3.782945
 20
-67.95793
 11
3.782945
 21
-79.624597
  0
LINE
  8
別途部材
  6
CONTINUOUS
 10
6.782945
 20
-66.95793
 11
6.782945
 21
-79.624597
  0
LINE
  8
別途部材
  6
CONTINUOUS
 10
9.782945
 20
-66.95793
 11
9.782945
 21
-79.624597
  0
LINE
  8
別途部材
  6
CONTINUOUS
 10
2.782945
 20
-66.95793
 11
2.782945
 21
-79.624597
  0
LINE
  8
別途部材
  6
CONTINUOUS
 10
4.782945
 20
-67.95793
 11
4.782945
 21
-79.624597
  0
LINE
  8
別途部材
  6
CONTINUOUS
 10
7.782945
 20
-67.95793
 11
7.782945
 21
-79.624597
  0
LINE
  8
別途部材
  6
CONTINUOUS
 10
8.782945
 20
-67.95793
 11
8.782945
 21
-79.624597
  0
LINE
  8
別途部材
  6
CONTINUOUS
 10
-1.217055
 20
-66.95793
 11
-1.217055
 21
-79.624597
  0
LINE
  8
別途部材
  6
CONTINUOUS
 10
-2.217055
 20
-66.95793
 11
-2.217055
 21
-79.624597
  0
LINE
  8
別途部材
  6
CONTINUOUS
 10
-0.217055
 20
-67.95793
 11
-0.217055
 21
-79.624597
  0
LINE
  8
別途部材
  6
CONTINUOUS
 10
5.782945
 20
-66.95793
 11
5.782945
 21
-79.624597
  0
LINE
  8
別途部材
  6
CONTINUOUS
 10
-8.217055
 20
-67.95793
 11
-8.217055
 21
-79.624597
  0
LINE
  8
別途部材
  6
CONTINUOUS
 10
-7.217055
 20
-67.95793
 11
-7.217055
 21
-79.624597
  0
LINE
  8
別途部材
  6
CONTINUOUS
 10
-9.217055
 20
-66.95793
 11
-9.217055
 21
-79.624597
  0
LINE
  8
別途部材
  6
CONTINUOUS
 10
-11.217055
 20
-67.95793
 11
-11.217055
 21
-79.624597
  0
LINE
  8
別途部材
  6
CONTINUOUS
 10
-10.217055
 20
-66.95793
 11
-10.217055
 21
-79.624597
  0
LINE
  8
別途部材
  6
CONTINUOUS
 10
-12.217055
 20
-67.95793
 11
-12.217055
 21
-79.624597
  0
LINE
  8
別途部材
  6
CONTINUOUS
 10
-14.217055
 20
-66.95793
 11
-14.217055
 21
-79.624597
  0
LINE
  8
別途部材
  6
CONTINUOUS
 10
-13.217055
 20
-66.95793
 11
-13.217055
 21
-79.624597
  0
LINE
  8
別途部材
  6
CONTINUOUS
 10
-19.217055
 20
-67.95793
 11
-19.217055
 21
-79.624597
  0
LINE
  8
別途部材
  6
CONTINUOUS
 10
24.782945
 20
-67.95793
 11
25.782945
 21
-66.95793
  0
LINE
  8
別途部材
  6
CONTINUOUS
 10
26.782945
 20
-66.95793
 11
27.782945
 21
-67.95793
  0
LINE
  8
別途部材
  6
CONTINUOUS
 10
25.782945
 20
-66.95793
 11
26.782945
 21
-66.95793
  0
LINE
  8
別途部材
  6
CONTINUOUS
 10
28.782945
 20
-67.95793
 11
29.782945
 21
-66.95793
  0
LINE
  8
別途部材
  6
CONTINUOUS
 10
30.782945
 20
-66.95793
 11
31.782945
 21
-67.95793
  0
LINE
  8
別途部材
  6
CONTINUOUS
 10
29.782945
 20
-66.95793
 11
30.782945
 21
-66.95793
  0
LINE
  8
別途部材
  6
CONTINUOUS
 10
27.782945
 20
-67.95793
 11
28.782945
 21
-67.95793
  0
LINE
  8
別途部材
  6
CONTINUOUS
 10
23.782945
 20
-67.95793
 11
24.782945
 21
-67.95793
  0
LINE
  8
別途部材
  6
CONTINUOUS
 10
30.782945
 20
-66.95793
 11
30.782945
 21
-79.624597
  0
LINE
  8
別途部材
  6
CONTINUOUS
 10
29.782945
 20
-66.95793
 11
29.782945
 21
-79.624597
  0
LINE
  8
別途部材
  6
CONTINUOUS
 10
31.782945
 20
-67.95793
 11
31.782945
 21
-79.624597
  0
LINE
  8
別途部材
  6
CONTINUOUS
 10
27.782945
 20
-67.95793
 11
27.782945
 21
-79.624597
  0
LINE
  8
別途部材
  6
CONTINUOUS
 10
28.782945
 20
-67.95793
 11
28.782945
 21
-79.624597
  0
LINE
  8
別途部材
  6
CONTINUOUS
 10
26.782945
 20
-66.95793
 11
26.782945
 21
-79.624597
  0
LINE
  8
別途部材
  6
CONTINUOUS
 10
24.782945
 20
-67.95793
 11
24.782945
 21
-79.624597
  0
LINE
  8
別途部材
  6
CONTINUOUS
 10
25.782945
 20
-66.95793
 11
25.782945
 21
-79.624597
  0
ENDBLK
  0
BLOCK
  2
*DIM_0015
 70
    65
 10
0.0
 20
0.0
  0
LINE
  8
寸法
  6
BYBLOCK
 62
     0
 10
145.328765
 20
-45.156955
 11
155.941423
 21
-45.156955
  0
LINE
  8
寸法
  6
BYBLOCK
 62
     0
 10
145.328765
 20
-87.823622
 11
155.941423
 21
-87.823622
  0
LINE
  8
寸法
  6
BYBLOCK
 62
     0
 10
155.941423
 20
-45.156955
 11
155.941423
 21
-87.823622
  0
POINT
  8
寸法
 62
     0
 10
155.941423
 20
-45.156955
  0
POINT
  8
寸法
 62
     0
 10
155.941423
 20
-87.823622
  0
TEXT
  7
TextStyle03
  8
寸法
  6
CONTINUOUS
 62
     0
 10
155.55
 20
-69.78125
  1
1280
 40
3.0
 50
90.0
 72
     5
 11
155.55
 21
-63.21875
  0
ENDBLK
  0
BLOCK
  2
*DIM_0016
 70
    65
 10
0.0
 20
0.0
  0
LINE
  8
寸法
  6
BYBLOCK
 62
     0
 10
-99.717055
 20
23.399048
 11
-128.66222
 21
23.399048
  0
LINE
  8
寸法
  6
BYBLOCK
 62
     0
 10
-99.717055
 20
46.732382
 11
-128.66222
 21
46.732382
  0
LINE
  8
寸法
  6
BYBLOCK
 62
     0
 10
-128.66222
 20
23.399048
 11
-128.66222
 21
46.732382
  0
POINT
  8
寸法
 62
     0
 10
-128.66222
 20
23.399048
  0
POINT
  8
寸法
 62
     0
 10
-128.66222
 20
46.732382
  0
TEXT
  7
TextStyle03
  8
寸法
  6
CONTINUOUS
 62
     0
 10
-129.1
 20
32.6125
  1
700
 40
3.0
 50
90.0
 72
     5
 11
-129.1
 21
37.4875
  0
ENDBLK
  0
BLOCK
  2
*DIM_0017
 70
    65
 10
0.0
 20
0.0
  0
LINE
  8
寸法
  6
BYBLOCK
 62
     0
 10
-88.383723
 20
59.73238
 11
-88.383723
 21
88.840452
  0
LINE
  8
寸法
  6
BYBLOCK
 62
     0
 10
-61.717055
 20
59.73238
 11
-61.717055
 21
88.840452
  0
LINE
  8
寸法
  6
BYBLOCK
 62
     0
 10
-88.383723
 20
88.840452
 11
-61.717055
 21
88.840452
  0
POINT
  8
寸法
 62
     0
 10
-88.383723
 20
88.840452
  0
POINT
  8
寸法
 62
     0
 10
-61.717055
 20
88.840452
  0
TEXT
  7
TextStyle03
  8
寸法
  6
CONTINUOUS
 62
     0
 10
-77.5125
 20
89.2
  1
800
 40
3.0
 72
     5
 11
-72.6375
 21
89.2
  0
ENDBLK
  0
BLOCK
  2
*DIM_0018
 70
    65
 10
0.0
 20
0.0
  0
LINE
  8
寸法
  6
BYBLOCK
 62
     0
 10
-35.050388
 20
59.73238
 11
-35.050388
 21
88.840452
  0
LINE
  8
寸法
  6
BYBLOCK
 62
     0
 10
-61.717055
 20
88.840452
 11
-35.050388
 21
88.840452
  0
POINT
  8
寸法
 62
     0
 10
-35.050388
 20
88.840452
  0
TEXT
  7
TextStyle03
  8
寸法
  6
CONTINUOUS
 62
     0
 10
-50.8375
 20
89.2
  1
800
 40
3.0
 72
     5
 11
-45.9625
 21
89.2
  0
ENDBLK
  0
BLOCK
  2
*DIM_0019
 70
    65
 10
0.0
 20
0.0
  0
LINE
  8
寸法
  6
BYBLOCK
 62
     0
 10
-8.383723
 20
59.73238
 11
-8.383723
 21
88.840452
  0
LINE
  8
寸法
  6
BYBLOCK
 62
     0
 10
-35.050388
 20
88.840452
 11
-8.383723
 21
88.840452
  0
POINT
  8
寸法
 62
     0
 10
-8.383723
 20
88.840452
  0
TEXT
  7
TextStyle03
  8
寸法
  6
CONTINUOUS
 62
     0
 10
-24.1625
 20
89.2
  1
800
 40
3.0
 72
     5
 11
-19.2875
 21
89.2
  0
ENDBLK
  0
BLOCK
  2
*DIM_0020
 70
    65
 10
0.0
 20
0.0
  0
LINE
  8
寸法
  6
BYBLOCK
 62
     0
 10
18.282945
 20
59.73238
 11
18.282945
 21
88.840452
  0
LINE
  8
寸法
  6
BYBLOCK
 62
     0
 10
-8.383723
 20
88.840452
 11
18.282945
 21
88.840452
  0
POINT
  8
寸法
 62
     0
 10
18.282945
 20
88.840452
  0
TEXT
  7
TextStyle03
  8
寸法
  6
CONTINUOUS
 62
     0
 10
2.4875
 20
89.2
  1
800
 40
3.0
 72
     5
 11
7.3625
 21
89.2
  0
ENDBLK
  0
BLOCK
  2
*DIM_0021
 70
    65
 10
0.0
 20
0.0
  0
LINE
  8
寸法
  6
BYBLOCK
 62
     0
 10
44.949612
 20
59.73238
 11
44.949612
 21
88.840452
  0
LINE
  8
寸法
  6
BYBLOCK
 62
     0
 10
18.282945
 20
88.840452
 11
44.949612
 21
88.840452
  0
POINT
  8
寸法
 62
     0
 10
44.949612
 20
88.840452
  0
TEXT
  7
TextStyle03
  8
寸法
  6
CONTINUOUS
 62
     0
 10
29.1625
 20
89.2
  1
800
 40
3.0
 72
     5
 11
34.0375
 21
89.2
  0
ENDBLK
  0
BLOCK
  2
*DIM_0022
 70
    65
 10
0.0
 20
0.0
  0
LINE
  8
寸法
  6
CONTINUOUS
 10
106.328765
 20
-40.156955
 11
106.328765
 21
-33.111833
  0
LINE
  8
寸法
  6
CONTINUOUS
 10
142.837097
 20
-40.156955
 11
142.837097
 21
-33.111833
  0
LINE
  8
寸法
  6
CONTINUOUS
 10
106.328765
 20
-33.111833
 11
142.837097
 21
-33.111833
  0
POINT
  8
寸法
 10
106.328765
 20
-33.111833
  0
POINT
  8
寸法
 10
142.837097
 20
-33.111833
  0
TEXT
  7
TextStyle03
  8
寸法
  6
CONTINUOUS
 10
119.60625
 20
-32.75
  1
1095.3
 40
3.0
 72
     5
 11
129.54375
 21
-32.75
  0
ENDBLK
  0
BLOCK
  2
*GRP_0023
 70
    65
 10
0.0
 20
0.0
  0
LINE
  8
ボルト／ビス
  6
CONTINUOUS
 10
-97.383723
 20
-79.624597
 11
-97.383723
 21
-79.157932
  0
LINE
  8
ボルト／ビス
  6
CONTINUOUS
 10
-97.750388
 20
-79.624597
 11
-97.750388
 21
-79.557932
  0
LINE
  8
ボルト／ビス
  6
CONTINUOUS
 10
-97.750388
 20
-79.557932
 11
-97.017055
 21
-79.557932
  0
LINE
  8
ボルト／ビス
  6
CONTINUOUS
 10
-97.017055
 20
-79.557932
 11
-97.017055
 21
-79.624597
  0
LINE
  8
ボルト／ビス
  6
CONTINUOUS
 10
-97.750388
 20
-79.624597
 11
-97.017055
 21
-79.624597
  0
LINE
  8
ボルト／ビス
  6
CONTINUOUS
 10
-97.683723
 20
-79.524597
 11
-97.683723
 21
-79.557932
  0
LINE
  8
ボルト／ビス
  6
CONTINUOUS
 10
-97.683723
 20
-79.524597
 11
-97.083723
 21
-79.524597
  0
LINE
  8
ボルト／ビス
  6
CONTINUOUS
 10
-97.083723
 20
-79.524597
 11
-97.083723
 21
-79.557932
  0
LINE
  8
ボルト／ビス
  6
CONTINUOUS
 62
    64
 10
-97.544098
 20
-79.324597
 11
-97.576173
 21
-79.336272
  0
ARC
  8
ボルト／ビス
  6
CONTINUOUS
 62
    64
 10
-97.528058
 20
-79.429576
 40
0.104978
 50
62.721967
 51
90.0
  0
ARC
  8
ボルト／ビス
  6
CONTINUOUS
 62
    64
 10
-97.38372
 20
-79.727
 40
0.402402
 50
76.165002
 51
103.834985
  0
LINE
  8
ボルト／ビス
  6
CONTINUOUS
 62
    64
 10
-97.223348
 20
-79.324597
 11
-97.191273
 21
-79.336272
  0
ARC
  8
ボルト／ビス
  6
CONTINUOUS
 62
    64
 10
-97.239383
 20
-79.429576
 40
0.104978
 50
90.0
 51
117.278033
  0
LINE
  8
ボルト／ビス
  6
CONTINUOUS
 62
    64
 10
-97.544098
 20
-79.324597
 11
-97.223348
 21
-79.324597
  0
LINE
  8
ボルト／ビス
  6
CONTINUOUS
 62
    64
 10
-97.191273
 20
-79.336272
 11
-97.191273
 21
-79.457932
  0
LINE
  8
ボルト／ビス
  6
CONTINUOUS
 62
    64
 10
-97.287497
 20
-79.336272
 11
-97.287497
 21
-79.457932
  0
LINE
  8
ボルト／ビス
  6
CONTINUOUS
 62
    64
 10
-97.576173
 20
-79.336272
 11
-97.576173
 21
-79.457932
  0
LINE
  8
ボルト／ビス
  6
CONTINUOUS
 62
    64
 10
-97.479947
 20
-79.336272
 11
-97.479947
 21
-79.457932
  0
LINE
  8
ボルト／ビス
  6
CONTINUOUS
 10
-97.576173
 20
-79.457932
 11
-97.191273
 21
-79.457932
  0
LINE
  8
ボルト／ビス
  6
CONTINUOUS
 10
-97.583723
 20
-79.457932
 11
-97.583723
 21
-79.524597
  0
LINE
  8
ボルト／ビス
  6
CONTINUOUS
 10
-97.583723
 20
-79.457932
 11
-97.183723
 21
-79.457932
  0
LINE
  8
ボルト／ビス
  6
CONTINUOUS
 10
-97.183723
 20
-79.457932
 11
-97.183723
 21
-79.524597
  0
ENDBLK
  0
BLOCK
  2
*GRP_0024
 70
    65
 10
0.0
 20
0.0
  0
LINE
  8
ボルト／ビス
  6
CONTINUOUS
 10
53.949612
 20
-79.624597
 11
53.949612
 21
-79.157932
  0
LINE
  8
ボルト／ビス
  6
CONTINUOUS
 10
53.582948
 20
-79.624597
 11
53.582948
 21
-79.557932
  0
LINE
  8
ボルト／ビス
  6
CONTINUOUS
 10
53.582948
 20
-79.557932
 11
54.31628
 21
-79.557932
  0
LINE
  8
ボルト／ビス
  6
CONTINUOUS
 10
54.31628
 20
-79.557932
 11
54.31628
 21
-79.624597
  0
LINE
  8
ボルト／ビス
  6
CONTINUOUS
 10
53.582948
 20
-79.624597
 11
54.31628
 21
-79.624597
  0
LINE
  8
ボルト／ビス
  6
CONTINUOUS
 10
53.649612
 20
-79.524597
 11
53.649612
 21
-79.557932
  0
LINE
  8
ボルト／ビス
  6
CONTINUOUS
 10
53.649612
 20
-79.524597
 11
54.249612
 21
-79.524597
  0
LINE
  8
ボルト／ビス
  6
CONTINUOUS
 10
54.249612
 20
-79.524597
 11
54.249612
 21
-79.557932
  0
LINE
  8
ボルト／ビス
  6
CONTINUOUS
 62
    64
 10
53.789237
 20
-79.324597
 11
53.757163
 21
-79.336272
  0
ARC
  8
ボルト／ビス
  6
CONTINUOUS
 62
    64
 10
53.805277
 20
-79.429576
 40
0.104978
 50
62.721967
 51
90.0
  0
ARC
  8
ボルト／ビス
  6
CONTINUOUS
 62
    64
 10
53.949615
 20
-79.727
 40
0.402402
 50
76.165002
 51
103.834985
  0
LINE
  8
ボルト／ビス
  6
CONTINUOUS
 62
    64
 10
54.109987
 20
-79.324597
 11
54.142063
 21
-79.336272
  0
ARC
  8
ボルト／ビス
  6
CONTINUOUS
 62
    64
 10
54.093952
 20
-79.429576
 40
0.104978
 50
90.0
 51
117.278033
  0
LINE
  8
ボルト／ビス
  6
CONTINUOUS
 62
    64
 10
53.789237
 20
-79.324597
 11
54.109987
 21
-79.324597
  0
LINE
  8
ボルト／ビス
  6
CONTINUOUS
 62
    64
 10
54.142063
 20
-79.336272
 11
54.142063
 21
-79.457932
  0
LINE
  8
ボルト／ビス
  6
CONTINUOUS
 62
    64
 10
54.045838
 20
-79.336272
 11
54.045838
 21
-79.457932
  0
LINE
  8
ボルト／ビス
  6
CONTINUOUS
 62
    64
 10
53.757163
 20
-79.336272
 11
53.757163
 21
-79.457932
  0
LINE
  8
ボルト／ビス
  6
CONTINUOUS
 62
    64
 10
53.853387
 20
-79.336272
 11
53.853387
 21
-79.457932
  0
LINE
  8
ボルト／ビス
  6
CONTINUOUS
 10
53.757163
 20
-79.457932
 11
54.142063
 21
-79.457932
  0
LINE
  8
ボルト／ビス
  6
CONTINUOUS
 10
53.749612
 20
-79.457932
 11
53.749612
 21
-79.524597
  0
LINE
  8
ボルト／ビス
  6
CONTINUOUS
 10
53.749612
 20
-79.457932
 11
54.149612
 21
-79.457932
  0
LINE
  8
ボルト／ビス
  6
CONTINUOUS
 10
54.149612
 20
-79.457932
 11
54.149612
 21
-79.524597
  0
ENDBLK
  0
BLOCK
  2
*GRP_0025
 70
    65
 10
0.0
 20
0.0
  0
LINE
  8
ボルト／ビス
  6
CONTINUOUS
 10
142.81621
 20
12.73238
 11
142.349545
 21
12.73238
  0
LINE
  8
ボルト／ビス
  6
CONTINUOUS
 10
142.81621
 20
12.365715
 11
142.749545
 21
12.365715
  0
LINE
  8
ボルト／ビス
  6
CONTINUOUS
 10
142.749545
 20
12.365715
 11
142.749545
 21
13.099048
  0
LINE
  8
ボルト／ビス
  6
CONTINUOUS
 10
142.749545
 20
13.099048
 11
142.81621
 21
13.099048
  0
LINE
  8
ボルト／ビス
  6
CONTINUOUS
 10
142.81621
 20
12.365715
 11
142.81621
 21
13.099048
  0
LINE
  8
ボルト／ビス
  6
CONTINUOUS
 10
142.71621
 20
12.43238
 11
142.749545
 21
12.43238
  0
LINE
  8
ボルト／ビス
  6
CONTINUOUS
 10
142.71621
 20
12.43238
 11
142.71621
 21
13.03238
  0
LINE
  8
ボルト／ビス
  6
CONTINUOUS
 10
142.71621
 20
13.03238
 11
142.749545
 21
13.03238
  0
LINE
  8
ボルト／ビス
  6
CONTINUOUS
 62
    64
 10
142.51621
 20
12.572005
 11
142.527885
 21
12.53993
  0
ARC
  8
ボルト／ビス
  6
CONTINUOUS
 62
    64
 10
142.621189
 20
12.588044
 40
0.104978
 50
152.721967
 51
180.0
  0
ARC
  8
ボルト／ビス
  6
CONTINUOUS
 62
    64
 10
142.918613
 20
12.732381
 40
0.402402
 50
166.165002
 51
193.834985
  0
LINE
  8
ボルト／ビス
  6
CONTINUOUS
 62
    64
 10
142.51621
 20
12.892755
 11
142.527885
 21
12.92483
  0
ARC
  8
ボルト／ビス
  6
CONTINUOUS
 62
    64
 10
142.621189
 20
12.876719
 40
0.104978
 50
180.0
 51
207.278033
  0
LINE
  8
ボルト／ビス
  6
CONTINUOUS
 62
    64
 10
142.51621
 20
12.572005
 11
142.51621
 21
12.892755
  0
LINE
  8
ボルト／ビス
  6
CONTINUOUS
 62
    64
 10
142.527885
 20
12.92483
 11
142.649545
 21
12.92483
  0
LINE
  8
ボルト／ビス
  6
CONTINUOUS
 62
    64
 10
142.527885
 20
12.828605
 11
142.649545
 21
12.828605
  0
LINE
  8
ボルト／ビス
  6
CONTINUOUS
 62
    64
 10
142.527885
 20
12.53993
 11
142.649545
 21
12.53993
  0
LINE
  8
ボルト／ビス
  6
CONTINUOUS
 62
    64
 10
142.527885
 20
12.636155
 11
142.649545
 21
12.636155
  0
LINE
  8
ボルト／ビス
  6
CONTINUOUS
 10
142.649545
 20
12.53993
 11
142.649545
 21
12.92483
  0
LINE
  8
ボルト／ビス
  6
CONTINUOUS
 10
142.649545
 20
12.53238
 11
142.71621
 21
12.53238
  0
LINE
  8
ボルト／ビス
  6
CONTINUOUS
 10
142.649545
 20
12.53238
 11
142.649545
 21
12.93238
  0
LINE
  8
ボルト／ビス
  6
CONTINUOUS
 10
142.649545
 20
12.93238
 11
142.71621
 21
12.93238
  0
ENDBLK
  0
BLOCK
  2
*GRP_0026
 70
    65
 10
0.0
 20
0.0
  0
LINE
  8
ボルト／ビス
  6
CONTINUOUS
 10
142.81621
 20
57.39905
 11
142.349545
 21
57.39905
  0
LINE
  8
ボルト／ビス
  6
CONTINUOUS
 10
142.81621
 20
57.032385
 11
142.749545
 21
57.032385
  0
LINE
  8
ボルト／ビス
  6
CONTINUOUS
 10
142.749545
 20
57.032385
 11
142.749545
 21
57.765718
  0
LINE
  8
ボルト／ビス
  6
CONTINUOUS
 10
142.749545
 20
57.765718
 11
142.81621
 21
57.765718
  0
LINE
  8
ボルト／ビス
  6
CONTINUOUS
 10
142.81621
 20
57.032385
 11
142.81621
 21
57.765718
  0
LINE
  8
ボルト／ビス
  6
CONTINUOUS
 10
142.71621
 20
57.09905
 11
142.749545
 21
57.09905
  0
LINE
  8
ボルト／ビス
  6
CONTINUOUS
 10
142.71621
 20
57.09905
 11
142.71621
 21
57.69905
  0
LINE
  8
ボルト／ビス
  6
CONTINUOUS
 10
142.71621
 20
57.69905
 11
142.749545
 21
57.69905
  0
LINE
  8
ボルト／ビス
  6
CONTINUOUS
 62
    64
 10
142.51621
 20
57.238675
 11
142.527885
 21
57.2066
  0
ARC
  8
ボルト／ビス
  6
CONTINUOUS
 62
    64
 10
142.621189
 20
57.254714
 40
0.104978
 50
152.721967
 51
180.0
  0
ARC
  8
ボルト／ビス
  6
CONTINUOUS
 62
    64
 10
142.918613
 20
57.399051
 40
0.402402
 50
166.165002
 51
193.834985
  0
LINE
  8
ボルト／ビス
  6
CONTINUOUS
 62
    64
 10
142.51621
 20
57.559425
 11
142.527885
 21
57.5915
  0
ARC
  8
ボルト／ビス
  6
CONTINUOUS
 62
    64
 10
142.621189
 20
57.543389
 40
0.104978
 50
180.0
 51
207.278033
  0
LINE
  8
ボルト／ビス
  6
CONTINUOUS
 62
    64
 10
142.51621
 20
57.238675
 11
142.51621
 21
57.559425
  0
LINE
  8
ボルト／ビス
  6
CONTINUOUS
 62
    64
 10
142.527885
 20
57.5915
 11
142.649545
 21
57.5915
  0
LINE
  8
ボルト／ビス
  6
CONTINUOUS
 62
    64
 10
142.527885
 20
57.495275
 11
142.649545
 21
57.495275
  0
LINE
  8
ボルト／ビス
  6
CONTINUOUS
 62
    64
 10
142.527885
 20
57.2066
 11
142.649545
 21
57.2066
  0
LINE
  8
ボルト／ビス
  6
CONTINUOUS
 62
    64
 10
142.527885
 20
57.302825
 11
142.649545
 21
57.302825
  0
LINE
  8
ボルト／ビス
  6
CONTINUOUS
 10
142.649545
 20
57.2066
 11
142.649545
 21
57.5915
  0
LINE
  8
ボルト／ビス
  6
CONTINUOUS
 10
142.649545
 20
57.19905
 11
142.71621
 21
57.19905
  0
LINE
  8
ボルト／ビス
  6
CONTINUOUS
 10
142.649545
 20
57.19905
 11
142.649545
 21
57.59905
  0
LINE
  8
ボルト／ビス
  6
CONTINUOUS
 10
142.649545
 20
57.59905
 11
142.71621
 21
57.59905
  0
ENDBLK
  0
ENDSEC
  0
SECTION
  2
ENTITIES
  0
POLYLINE
  8
通り芯
  6
CONTINUOUS
 66
     1
 70
     1
  0
VERTEX
  8
通り芯
 10
-210.0
 20
-148.5
  0
VERTEX
  8
通り芯
 10
210.0
 20
-148.5
  0
VERTEX
  8
通り芯
 10
210.0
 20
148.5
  0
VERTEX
  8
通り芯
 10
-210.0
 20
148.5
  0
SEQEND
  0
INSERT
  2
*GRP_0001
  8
型材断面
  6
CONTINUOUS
 10
0.0
 20
0.0
  0
LINE
  8
型材断面
  6
DASHDOT
 10
53.282945
 20
-87.251428
 11
53.282945
 21
56.73238
  0
LINE
  8
型材断面
  6
DASHDOT
 10
-21.717055
 20
-87.251428
 11
-21.717055
 21
56.73238
  0
LINE
  8
型材断面
  6
DASHDOT
 10
-96.717055
 20
-87.251428
 11
-96.717055
 21
56.73238
  0
LINE
  8
型材断面
  6
DASHDOT
 10
150.959707
 20
13.399048
 11
-96.717055
 21
13.399048
  0
LINE
  8
型材断面
  6
DASHDOT
 10
150.959707
 20
35.065715
 11
-96.717055
 21
35.065715
  0
LINE
  8
型材断面
  6
DASHDOT
 10
150.959707
 20
56.73238
 11
-96.717055
 21
56.73238
  0
LINE
  8
型材断面
  6
DASHDOT
 10
-21.717055
 20
13.399048
 11
-21.717055
 21
56.73238
  0
LINE
  8
型材断面
  6
DOT
 10
-20.467055
 20
13.399048
 11
-20.467055
 21
56.73238
  0
LINE
  8
型材断面
  6
DOT
 10
-22.967055
 20
13.399048
 11
-22.967055
 21
56.73238
  0
LINE
  8
型材断面
  6
CONTINUOUS
 10
-99.347185
 20
35.065715
 11
-101.937692
 21
36.561345
  0
LINE
  8
型材断面
  6
CONTINUOUS
 10
-99.347185
 20
35.065715
 11
-101.937692
 21
33.570085
  0
LINE
  8
型材断面
  6
CONTINUOUS
 10
-101.937692
 20
33.570085
 11
-101.937692
 21
36.561345
  0
LINE
  8
型材断面
  6
CONTINUOUS
 10
-80.050388
 20
59.36251
 11
-81.546018
 21
61.953017
  0
LINE
  8
型材断面
  6
CONTINUOUS
 10
-80.050388
 20
59.36251
 11
-78.554757
 21
61.953017
  0
LINE
  8
型材断面
  6
CONTINUOUS
 10
-78.554757
 20
61.953017
 11
-81.546018
 21
61.953017
  0
LINE
  8
型材断面
  6
CONTINUOUS
 10
-137.569262
 20
101.239727
 11
-139.064893
 21
98.64922
  0
LINE
  8
型材断面
  6
CONTINUOUS
 10
-137.569262
 20
101.239727
 11
-136.073632
 21
98.64922
  0
LINE
  8
型材断面
  6
CONTINUOUS
 10
-136.073632
 20
98.64922
 11
-139.064893
 21
98.64922
  0
LINE
  8
型材断面
  6
CONTINUOUS
 10
-143.59185
 20
97.710625
 11
-97.350072
 21
97.710625
  0
LINE
  8
型材断面
  6
CONTINUOUS
 10
-80.050388
 20
10.76892
 11
-81.546018
 21
8.178413
  0
LINE
  8
型材断面
  6
CONTINUOUS
 10
-80.050388
 20
10.76892
 11
-78.554757
 21
8.178413
  0
LINE
  8
型材断面
  6
CONTINUOUS
 10
-78.554757
 20
8.178413
 11
-81.546018
 21
8.178413
  0
LINE
  8
型材断面
  6
CONTINUOUS
 10
55.913075
 20
35.065715
 11
58.503583
 21
36.561345
  0
LINE
  8
型材断面
  6
CONTINUOUS
 10
55.913075
 20
35.065715
 11
58.503583
 21
33.570085
  0
LINE
  8
型材断面
  6
CONTINUOUS
 10
58.503583
 20
33.570085
 11
58.503583
 21
36.561345
  0
LINE
  8
型材断面
  6
CONTINUOUS
 10
36.616278
 20
59.36251
 11
38.111908
 21
61.953017
  0
LINE
  8
型材断面
  6
CONTINUOUS
 10
36.616278
 20
59.36251
 11
35.120648
 21
61.953017
  0
LINE
  8
型材断面
  6
CONTINUOUS
 10
35.120648
 20
61.953017
 11
38.111908
 21
61.953017
  0
LINE
  8
型材断面
  6
CONTINUOUS
 10
36.616278
 20
10.76892
 11
38.111908
 21
8.178413
  0
LINE
  8
型材断面
  6
CONTINUOUS
 10
36.616278
 20
10.76892
 11
35.120648
 21
8.178413
  0
LINE
  8
型材断面
  6
CONTINUOUS
 10
35.120648
 20
8.178413
 11
38.111908
 21
8.178413
  0
LINE
  8
型材断面
  6
CONTINUOUS
 10
-21.717055
 20
59.36251
 11
-20.221425
 21
61.953017
  0
LINE
  8
型材断面
  6
CONTINUOUS
 10
-21.717055
 20
59.36251
 11
-23.212685
 21
61.953017
  0
LINE
  8
型材断面
  6
CONTINUOUS
 10
-23.212685
 20
61.953017
 11
-20.221425
 21
61.953017
  0
LINE
  8
型材断面
  6
CONTINUOUS
 10
-21.717055
 20
10.76892
 11
-20.221425
 21
8.178413
  0
LINE
  8
型材断面
  6
CONTINUOUS
 10
-21.717055
 20
10.76892
 11
-23.212685
 21
8.178413
  0
LINE
  8
型材断面
  6
CONTINUOUS
 10
-23.212685
 20
8.178413
 11
-20.221425
 21
8.178413
  0
LINE
  8
型材断面
  6
CONTINUOUS
 10
-143.59185
 20
91.63242
 11
-97.350072
 21
91.63242
  0
LINE
  8
型材断面
  6
CONTINUOUS
 10
145.349495
 20
58.889195
 11
144.899495
 21
58.889195
  0
LINE
  8
型材断面
  6
CONTINUOUS
 62
    47
 10
144.899495
 20
59.339195
 11
144.399495
 21
59.339195
  0
LINE
  8
型材断面
  6
CONTINUOUS
 62
    47
 10
144.399495
 20
59.339195
 11
143.81621
 21
57.464738
  0
LINE
  8
型材断面
  6
CONTINUOUS
 10
144.399495
 20
59.339195
 11
144.399495
 21
35.065715
  0
LINE
  8
型材断面
  6
CONTINUOUS
 10
145.349495
 20
58.889195
 11
145.349495
 21
35.065715
  0
LINE
  8
型材断面
  6
CONTINUOUS
 10
145.349495
 20
11.242235
 11
144.899495
 21
11.242235
  0
LINE
  8
型材断面
  6
CONTINUOUS
 62
    47
 10
144.899495
 20
10.792235
 11
144.399495
 21
10.792235
  0
LINE
  8
型材断面
  6
CONTINUOUS
 62
    47
 10
144.399495
 20
10.792235
 11
143.81621
 21
12.666692
  0
LINE
  8
型材断面
  6
CONTINUOUS
 10
144.399495
 20
10.792235
 11
144.399495
 21
35.065715
  0
LINE
  8
型材断面
  6
CONTINUOUS
 10
145.349495
 20
11.242235
 11
145.349495
 21
35.065715
  0
LINE
  8
型材断面
  6
CONTINUOUS
 10
55.439758
 20
-82.157882
 11
55.439758
 21
-81.707882
  0
LINE
  8
型材断面
  6
CONTINUOUS
 62
    47
 10
55.889758
 20
-81.707882
 11
55.889758
 21
-81.207882
  0
LINE
  8
型材断面
  6
CONTINUOUS
 62
    47
 10
55.889758
 20
-81.207882
 11
54.0153
 21
-80.624597
  0
LINE
  8
型材断面
  6
CONTINUOUS
 10
55.349612
 20
11.33238
 11
55.889758
 21
10.792235
  0
LINE
  8
型材断面
  6
CONTINUOUS
 10
55.889758
 20
10.792235
 11
55.889758
 21
35.065715
  0
LINE
  8
型材断面
  6
CONTINUOUS
 10
55.889758
 20
-81.207882
 11
-21.717055
 21
-81.207882
  0
LINE
  8
型材断面
  6
CONTINUOUS
 10
55.439758
 20
-82.157882
 11
-21.717055
 21
-82.157882
  0
LINE
  8
型材断面
  6
CONTINUOUS
 10
-98.873867
 20
-82.157882
 11
-98.873867
 21
-81.707882
  0
LINE
  8
型材断面
  6
CONTINUOUS
 62
    47
 10
-99.323867
 20
-81.707882
 11
-99.323867
 21
-81.207882
  0
LINE
  8
型材断面
  6
CONTINUOUS
 62
    47
 10
-99.323867
 20
-81.207882
 11
-97.44941
 21
-80.624597
  0
LINE
  8
型材断面
  6
CONTINUOUS
 10
-99.323867
 20
-81.207882
 11
-21.717055
 21
-81.207882
  0
LINE
  8
型材断面
  6
CONTINUOUS
 10
-98.873867
 20
-82.157882
 11
-21.717055
 21
-82.157882
  0
LINE
  8
型材断面
  6
CONTINUOUS
 10
55.889758
 20
10.792235
 11
-21.717055
 21
10.792258
  0
LINE
  8
型材断面
  6
CONTINUOUS
 10
55.349612
 20
58.79905
 11
55.889758
 21
59.339195
  0
LINE
  8
型材断面
  6
CONTINUOUS
 10
55.889758
 20
59.339195
 11
55.889758
 21
35.065715
  0
LINE
  8
型材断面
  6
CONTINUOUS
 10
55.889758
 20
59.339195
 11
-21.717055
 21
59.339172
  0
LINE
  8
型材断面
  6
CONTINUOUS
 10
-98.783723
 20
58.79905
 11
-99.323867
 21
59.339195
  0
LINE
  8
型材断面
  6
CONTINUOUS
 10
-99.323867
 20
59.339195
 11
-99.323867
 21
35.065715
  0
LINE
  8
型材断面
  6
CONTINUOUS
 10
-99.323867
 20
59.339195
 11
-21.717055
 21
59.339172
  0
LINE
  8
型材断面
  6
CONTINUOUS
 10
-98.783723
 20
11.33238
 11
-99.323867
 21
10.792235
  0
LINE
  8
型材断面
  6
CONTINUOUS
 10
-99.323867
 20
10.792235
 11
-99.323867
 21
35.065715
  0
LINE
  8
型材断面
  6
CONTINUOUS
 10
-99.323867
 20
10.792235
 11
-21.717055
 21
10.792258
  0
LINE
  8
型材断面
  6
DASHDOT
 10
-59.325388
 20
13.399048
 11
-59.325388
 21
56.73238
  0
LINE
  8
型材断面
  6
DOT
 10
-58.075388
 20
13.399048
 11
-58.075388
 21
56.73238
  0
LINE
  8
型材断面
  6
DOT
 10
-60.575388
 20
13.399048
 11
-60.575388
 21
56.73238
  0
LINE
  8
型材断面
  6
DASHDOT
 10
15.891278
 20
13.399048
 11
15.891278
 21
56.73238
  0
LINE
  8
型材断面
  6
DOT
 10
14.641278
 20
13.399048
 11
14.641278
 21
56.73238
  0
LINE
  8
型材断面
  6
DOT
 10
17.141278
 20
13.399048
 11
17.141278
 21
56.73238
  0
LINE
  8
ガラス
  6
CONTINUOUS
 10
142.837097
 20
-45.156955
 11
142.837097
 21
-87.823622
  0
LINE
  8
ガラス
  6
CONTINUOUS
 10
142.837097
 20
-87.823622
 11
106.328765
 21
-87.823622
  0
LINE
  8
ガラス
  6
CONTINUOUS
 10
106.328765
 20
-87.823622
 11
106.328765
 21
-45.156955
  0
LINE
  8
ガラス
  6
CONTINUOUS
 10
142.837097
 20
-45.156955
 11
106.328765
 21
-45.156955
  0
TEXT
  7
TextStyle03
  8
文字
  6
CONTINUOUS
 10
-134.775
 20
98.85
  1
は排水穴位置を示す
 40
3.0
 72
     5
 11
-104.775
 21
98.85
  0
TEXT
  7
TextStyle03
  8
文字
  6
CONTINUOUS
 10
124.05
 20
-81.275
  1
網入り6.8t
 40
3.0
 72
     5
 11
140.7375
 21
-81.275
  0
TEXT
  7
TextStyle03
  8
文字
  6
CONTINUOUS
 10
130.725
 20
-85.95
  1
×４枚
 40
3.0
 72
     5
 11
140.475
 21
-85.95
  0
TEXT
  7
TextStyle03
  8
文字
  6
CONTINUOUS
 10
-134.3
 20
23.975
  1
アンカーピッチ
 40
3.0
 50
90.0
 72
     5
 11
-134.3
 21
47.225
  0
TEXT
  7
TextStyle03
  8
文字
  6
CONTINUOUS
 10
-81.775
 20
93.8
  1
アンカーピッチ
 40
3.0
 72
     5
 11
-58.525
 21
93.8
  0
TEXT
  7
TextStyle03
  8
文字
  6
CONTINUOUS
 10
-138.5
 20
92.55
  1
アンカー数量　１６ヶ所
 40
3.0
 72
     5
 11
-101.75
 21
92.55
  0
TEXT
  7
TextStyle03
  8
文字
  6
CONTINUOUS
 10
78.1
 20
125.25
  1
シリーズ：ＳＴＤＫＬ
 40
5.0
 72
     5
 11
133.725
 21
125.25
  0
TEXT
  7
TextStyle03
  8
文字
  6
CONTINUOUS
 10
78.1
 20
119.625
  1
　　　　　（固定）1300×4500タイプ
 40
5.0
 72
     5
 11
173.1
 21
119.625
  0
TEXT
  7
TextStyle03
  8
文字
  6
CONTINUOUS
 10
78.1
 20
114.0
  1
図面名　：外観姿図
 40
5.0
 72
     5
 11
128.1
 21
114.0
  0
TEXT
  7
TextStyle03
  8
文字
  6
CONTINUOUS
 10
78.1
 20
108.375
  1
　　　　　　
 40
5.0
 72
     5
 11
111.225
 21
108.375
  0
TEXT
  7
TextStyle03
  8
文字
  6
CONTINUOUS
 10
77.725
 20
104.475
  1
ＮＳコード：ＮＳＫＳＬ
 40
5.0
 72
     5
 11
138.975
 21
104.475
  0
INSERT
  2
*DIM_0002
  8
寸法
  6
CONTINUOUS
 10
0.0
 20
0.0
  0
INSERT
  2
*DIM_0003
  8
寸法
  6
CONTINUOUS
 10
0.0
 20
0.0
  0
INSERT
  2
*DIM_0004
  8
寸法
  6
CONTINUOUS
 10
0.0
 20
0.0
  0
INSERT
  2
*DIM_0005
  8
寸法
  6
CONTINUOUS
 10
0.0
 20
0.0
  0
INSERT
  2
*DIM_0006
  8
寸法
  6
CONTINUOUS
 10
0.0
 20
0.0
  0
INSERT
  2
*DIM_0007
  8
寸法
  6
CONTINUOUS
 10
0.0
 20
0.0
  0
INSERT
  2
*DIM_0008
  8
寸法
  6
CONTINUOUS
 10
0.0
 20
0.0
  0
INSERT
  2
*DIM_0009
  8
寸法
  6
CONTINUOUS
 10
0.0
 20
0.0
  0
INSERT
  2
*DIM_0010
  8
寸法
  6
CONTINUOUS
 10
0.0
 20
0.0
  0
INSERT
  2
*DIM_0011
  8
寸法
  6
CONTINUOUS
 10
0.0
 20
0.0
  0
INSERT
  2
*DIM_0012
  8
寸法
  6
CONTINUOUS
 10
0.0
 20
0.0
  0
INSERT
  2
*DIM_0013
  8
寸法
  6
CONTINUOUS
 10
0.0
 20
0.0
  0
INSERT
  2
*DIM_0015
  8
寸法
  6
CONTINUOUS
 10
0.0
 20
0.0
  0
INSERT
  2
*DIM_0016
  8
寸法
  6
CONTINUOUS
 10
0.0
 20
0.0
  0
INSERT
  2
*DIM_0017
  8
寸法
  6
CONTINUOUS
 10
0.0
 20
0.0
  0
INSERT
  2
*DIM_0018
  8
寸法
  6
CONTINUOUS
 10
0.0
 20
0.0
  0
INSERT
  2
*DIM_0019
  8
寸法
  6
CONTINUOUS
 10
0.0
 20
0.0
  0
INSERT
  2
*DIM_0020
  8
寸法
  6
CONTINUOUS
 10
0.0
 20
0.0
  0
INSERT
  2
*DIM_0021
  8
寸法
  6
CONTINUOUS
 10
0.0
 20
0.0
  0
INSERT
  2
*DIM_0022
  8
寸法
  6
CONTINUOUS
 10
0.0
 20
0.0
  0
LINE
  8
別途部材
  6
CONTINUOUS
 10
55.349612
 20
11.33238
 11
54.949612
 21
11.73238
  0
LINE
  8
別途部材
  6
CONTINUOUS
 10
53.282945
 20
13.399048
 11
45.22369
 21
21.458305
  0
LINE
  8
別途部材
  6
CONTINUOUS
 10
54.949612
 20
11.73238
 11
54.949612
 21
35.065715
  0
LINE
  8
別途部材
  6
CONTINUOUS
 10
55.349612
 20
11.33238
 11
55.349612
 21
35.065715
  0
LINE
  8
別途部材
  6
CONTINUOUS
 10
55.349612
 20
58.79905
 11
54.949612
 21
58.39905
  0
LINE
  8
別途部材
  6
CONTINUOUS
 10
53.282945
 20
56.732382
 11
45.22369
 21
48.673125
  0
LINE
  8
別途部材
  6
CONTINUOUS
 10
54.949612
 20
58.39905
 11
54.949612
 21
35.065715
  0
LINE
  8
別途部材
  6
CONTINUOUS
 10
55.349612
 20
58.79905
 11
55.349612
 21
35.065715
  0
LINE
  8
別途部材
  6
CONTINUOUS
 10
55.349612
 20
58.79905
 11
-21.717055
 21
58.79905
  0
LINE
  8
別途部材
  6
CONTINUOUS
 10
54.949612
 20
58.39905
 11
-21.717055
 21
58.39905
  0
LINE
  8
別途部材
  6
CONTINUOUS
 10
54.949612
 20
11.73238
 11
-21.717055
 21
11.73238
  0
LINE
  8
別途部材
  6
CONTINUOUS
 10
55.349612
 20
11.33238
 11
-21.717055
 21
11.33238
  0
LINE
  8
別途部材
  6
CONTINUOUS
 10
-98.783723
 20
11.33238
 11
-98.383723
 21
11.73238
  0
LINE
  8
別途部材
  6
CONTINUOUS
 10
-96.717055
 20
13.399048
 11
-88.6578
 21
21.458305
  0
LINE
  8
別途部材
  6
CONTINUOUS
 10
-98.383723
 20
11.73238
 11
-98.383723
 21
35.065715
  0
LINE
  8
別途部材
  6
CONTINUOUS
 10
-98.783723
 20
11.33238
 11
-98.783723
 21
35.065715
  0
LINE
  8
別途部材
  6
CONTINUOUS
 10
-98.783723
 20
58.79905
 11
-98.383723
 21
58.39905
  0
LINE
  8
別途部材
  6
CONTINUOUS
 10
-96.717055
 20
56.732382
 11
-88.6578
 21
48.673125
  0
LINE
  8
別途部材
  6
CONTINUOUS
 10
-98.383723
 20
58.39905
 11
-98.383723
 21
35.065715
  0
LINE
  8
別途部材
  6
CONTINUOUS
 10
-98.783723
 20
58.79905
 11
-98.783723
 21
35.065715
  0
LINE
  8
別途部材
  6
CONTINUOUS
 10
-98.783723
 20
58.79905
 11
-21.717055
 21
58.79905
  0
LINE
  8
別途部材
  6
CONTINUOUS
 10
-98.383723
 20
58.39905
 11
-21.717055
 21
58.39905
  0
LINE
  8
別途部材
  6
CONTINUOUS
 10
-98.383723
 20
11.73238
 11
-21.717055
 21
11.73238
  0
LINE
  8
別途部材
  6
CONTINUOUS
 10
-98.783723
 20
11.33238
 11
-21.717055
 21
11.33238
  0
LINE
  8
別途部材
  6
CONTINUOUS
 62
    96
 10
142.81621
 20
11.73238
 11
143.81621
 21
11.33238
  0
LINE
  8
別途部材
  6
CONTINUOUS
 10
143.81621
 20
11.33238
 11
143.81621
 21
35.065715
  0
LINE
  8
別途部材
  6
CONTINUOUS
 62
    96
 10
142.81621
 20
11.73238
 11
142.81621
 21
35.065715
  0
LINE
  8
別途部材
  6
CONTINUOUS
 62
    96
 10
142.81621
 20
58.39905
 11
143.81621
 21
58.79905
  0
LINE
  8
別途部材
  6
CONTINUOUS
 10
143.81621
 20
58.79905
 11
143.81621
 21
35.065715
  0
LINE
  8
別途部材
  6
CONTINUOUS
 62
    96
 10
142.81621
 20
58.39905
 11
142.81621
 21
35.065715
  0
ARC
  8
別途部材
  6
CONTINUOUS
 10
157.101922
 20
35.065713
 40
25.95238
 50
123.398485
 51
236.601515
  0
INSERT
  2
*GRP_0014
  8
別途部材
  6
CONTINUOUS
 10
0.0
 20
0.0
  0
INSERT
  2
*GRP_0023
  8
別途部材
  6
DOT
 10
0.0
 20
0.0
  0
INSERT
  2
*GRP_0024
  8
別途部材
  6
DOT
 10
0.0
 20
0.0
  0
INSERT
  2
*GRP_0025
  8
別途部材
  6
DOT
 10
0.0
 20
0.0
  0
INSERT
  2
*GRP_0026
  8
別途部材
  6
DOT
 10
0.0
 20
0.0
  0
LINE
  8
St
  6
CONTINUOUS
 62
    47
 10
144.899495
 20
59.339195
 11
144.899495
 21
35.065715
  0
LINE
  8
St
  6
CONTINUOUS
 62
    47
 10
144.899495
 20
10.792235
 11
144.899495
 21
35.065715
  0
LINE
  8
St
  6
CONTINUOUS
 62
    47
 10
55.889758
 20
-81.707882
 11
-21.717055
 21
-81.707882
  0
LINE
  8
St
  6
CONTINUOUS
 62
    47
 10
-99.323867
 20
-81.707882
 11
-21.717055
 21
-81.707882
  0
ENDSEC
  0
EOF
