  0
SECTION
  2
HEADER
  9
$EXTMIN
 10
-210.0
 20
-148.5
  9
$EXTMAX
 10
210.0
 20
148.5
  9
$PDMODE
 70
    32
  9
$PDSIZE
 40
1.5
  9
$LTSCALE
 40
10.0
  0
ENDSEC
  0
SECTION
  2
TABLES
  0
TABLE
  2
LTYPE
 70
    15
  0
LTYPE
  2
CONTINUOUS
 70
    64
  3
実線
 72
    65
 73
     0
 40
0.0
  0
LTYPE
  2
DASHED
 70
    64
  3
破線A
 72
    65
 73
     2
 40
0.6
 49
0.4
 49
-0.2
  0
LTYPE
  2
DASHEDX2
 70
    64
  3
破線B
 72
    65
 73
     2
 40
1.3
 49
0.9
 49
-0.4
  0
LTYPE
  2
DASHDOT
 70
    64
  3
１点鎖線A
 72
    65
 73
     4
 40
0.5375
 49
0.375
 49
-0.05
 49
0.0625
 49
-0.05
  0
LTYPE
  2
DASHDOTX2
 70
    64
  3
１点鎖線B
 72
    65
 73
     4
 40
1.075
 49
0.75
 49
-0.1
 49
0.125
 49
-0.1
  0
LTYPE
  2
DIVIDE2
 70
    64
  3
２点鎖線A
 72
    65
 73
     6
 40
0.5125
 49
0.3
 49
-0.0375
 49
0.05
 49
-0.0375
 49
0.05
 49
-0.0375
  0
LTYPE
  2
DIVIDE
 70
    64
  3
２点鎖線B
 72
    65
 73
     6
 40
1.05
 49
0.55
 49
-0.1
 49
0.1
 49
-0.1
 49
0.1
 49
-0.1
  0
LTYPE
  2
DOT
 70
    64
  3
点線A
 72
    65
 73
     2
 40
0.1125
 49
0.0625
 49
-0.05
  0
LTYPE
  2
DOTX2
 70
    64
  3
点線B
 72
    65
 73
     2
 40
0.275
 49
0.15
 49
-0.125
  0
LTYPE
  2
CONTINUOUS
 70
    64
  3
実線
 72
    65
 73
     0
 40
0.0
  0
LTYPE
  2
CONTINUOUS
 70
    64
  3
実線
 72
    65
 73
     0
 40
0.0
  0
LTYPE
  2
CONTINUOUS
 70
    64
  3
実線
 72
    65
 73
     0
 40
0.0
  0
LTYPE
  2
CONTINUOUS
 70
    64
  3
実線
 72
    65
 73
     0
 40
0.0
  0
LTYPE
  2
CONTINUOUS
 70
    64
  3
実線
 72
    65
 73
     0
 40
0.0
  0
LTYPE
  2
CONTINUOUS
 70
    64
  3
実線
 72
    65
 73
     0
 40
0.0
  0
ENDTAB
  0
TABLE
  2
LAYER
 70
    34
  0
LAYER
  2
通り芯
 70
     0
 62
    15
  6
CONTINUOUS
  0
LAYER
  2
補助線
 70
     0
 62
    16
  6
DOT
  0
LAYER
  2
躯体
 70
     0
 62
    31
  6
CONTINUOUS
  0
LAYER
  2
型材
 70
     0
 62
    32
  6
CONTINUOUS
  0
LAYER
  2
型材断面
 70
     0
 62
    47
  6
CONTINUOUS
  0
LAYER
  2
ガラス
 70
     0
 62
    48
  6
CONTINUOUS
  0
LAYER
  2
ゴム等
 70
     0
 62
    63
  6
CONTINUOUS
  0
LAYER
  2
ボルト／ビス
 70
     0
 62
    64
  6
CONTINUOUS
  0
LAYER
  2
文字
 70
     0
 62
    79
  6
CONTINUOUS
  0
LAYER
  2
寸法
 70
     0
 62
    80
  6
CONTINUOUS
  0
LAYER
  2
ﾊｯﾁﾝｸﾞ
 70
     0
 62
    95
  6
CONTINUOUS
  0
LAYER
  2
別途部材
 70
     0
 62
    96
  6
CONTINUOUS
  0
LAYER
  2
曲げ物
 70
     0
 62
   111
  6
CONTINUOUS
  0
LAYER
  2
鉄骨等
 70
     0
 62
   112
  6
CONTINUOUS
  0
LAYER
  2
St
 70
     0
 62
   127
  6
CONTINUOUS
  0
LAYER
  2
その他部品等
 70
     0
 62
   128
  6
CONTINUOUS
  0
LAYER
  2
ｶﾞｽｹｯﾄ
 70
     0
 62
   143
  6
CONTINUOUS
  0
LAYER
  2
ｽｹｯﾁ
 70
     0
 62
    14
  6
CONTINUOUS
  0
LAYER
  2
0
 70
     0
 62
    17
  6
CONTINUOUS
  0
LAYER
  2
1
 70
     0
 62
    30
  6
CONTINUOUS
  0
LAYER
  2
4
 70
     0
 62
    33
  6
CONTINUOUS
  0
LAYER
  2
ﾚｲﾔ3
 70
     0
 62
    46
  6
CONTINUOUS
  0
LAYER
  2
外形線
 70
     0
 62
    49
  6
CONTINUOUS
  0
LAYER
  2
部品
 70
     0
 62
    14
  6
CONTINUOUS
  0
LAYER
  2
サッシ芯
 70
     0
 62
    17
  6
DASHDOTX2
  0
LAYER
  2
寸法線
 70
     0
 62
    62
  6
CONTINUOUS
  0
LAYER
  2
姿図外形線
 70
     0
 62
    65
  6
CONTINUOUS
  0
LAYER
  2
姿補助線
 70
     0
 62
    30
  6
CONTINUOUS
  0
LAYER
  2
透視線
 70
     0
 62
    78
  6
DOT
  0
LAYER
  2
用紙
 70
     0
 62
    81
  6
CONTINUOUS
  0
LAYER
  2
実線図枠
 70
     0
 62
    94
  6
CONTINUOUS
  0
LAYER
  2
補助図枠
 70
     0
 62
    97
  6
CONTINUOUS
  0
LAYER
  2
建具記号
 70
     0
 62
   110
  6
CONTINUOUS
  0
LAYER
  2
補助文字
 70
     0
 62
   113
  6
CONTINUOUS
  0
ENDTAB
  0
TABLE
  2
STYLE
 70
    10
  0
STYLE
  2
STANDARD
 70
     0
 40
1.0
 41
1.0
 42
1.0
 50
0.0
 71
     0
  3
TXT
  4
BIGFONT
  0
STYLE
  2
TATE
 70
     4
 40
1.0
 41
1.0
 42
1.0
 50
0.0
 71
     0
  3
TXT
  4
BIGFONT
  0
STYLE
  2
TextStyle03
 70
     0
 40
1.0
 41
1.0
 42
1.0
 50
0.0
 71
     0
  3
MONOTXT
  4
BIGFONT
  0
STYLE
  2
TextStyle04
 70
     0
 40
1.0
 41
1.0
 42
1.0
 50
0.0
 71
     0
  3
MONOTXT
  4
BIGFONT
  0
STYLE
  2
TextStyle05
 70
     0
 40
1.0
 41
1.0
 42
1.0
 50
0.0
 71
     0
  3
MONOTXT
  4
BIGFONT
  0
STYLE
  2
TextStyle06
 70
     0
 40
1.0
 41
1.0
 42
1.0
 50
0.0
 71
     0
  3
MONOTXT
  4
BIGFONT
  0
STYLE
  2
TextStyle07
 70
     0
 40
1.0
 41
1.0
 42
1.0
 50
0.0
 71
     0
  3
MONOTXT
  4
BIGFONT
  0
STYLE
  2
TextStyle08
 70
     0
 40
1.0
 41
1.0
 42
1.0
 50
0.0
 71
     0
  3
MONOTXT
  4
BIGFONT
  0
STYLE
  2
TextStyle09
 70
     0
 40
1.0
 41
1.0
 42
1.0
 50
0.0
 71
     0
  3
MONOTXT
  4
BIGFONT
  0
STYLE
  2
TextStyle10
 70
     0
 40
1.0
 41
1.0
 42
1.0
 50
0.0
 71
     0
  3
MONOTXT
  4
BIGFONT
  0
ENDTAB
  0
ENDSEC
  0
SECTION
  2
BLOCKS
  0
BLOCK
  2
*GRP_0001
 70
    65
 10
0.0
 20
0.0
  0
LINE
  8
型材断面
  6
CONTINUOUS
 10
195.0
 20
133.5
 11
195.0
 21
-133.5
  0
LINE
  8
型材断面
  6
CONTINUOUS
 10
195.0
 20
-133.5
 11
-185.0
 21
-133.5
  0
LINE
  8
型材断面
  6
CONTINUOUS
 10
-185.0
 20
-133.5
 11
-185.0
 21
133.5
  0
LINE
  8
型材断面
  6
CONTINUOUS
 10
195.0
 20
133.5
 11
-185.0
 21
133.5
  0
LINE
  8
型材断面
  6
CONTINUOUS
 10
145.0
 20
-133.5
 11
145.0
 21
-118.5
  0
LINE
  8
型材断面
  6
CONTINUOUS
 10
195.0
 20
-118.5
 11
145.0
 21
-118.5
  0
ENDBLK
  0
BLOCK
  2
*DIM_0002
 70
    65
 10
0.0
 20
0.0
  0
LINE
  8
寸法
  6
BYBLOCK
 62
     0
 10
32.616278
 20
-67.95793
 11
69.252595
 21
-67.95793
  0
LINE
  8
寸法
  6
BYBLOCK
 62
     0
 10
69.252595
 20
-79.624597
 11
69.252595
 21
-67.95793
  0
POINT
  8
寸法
 62
     0
 10
69.252595
 20
-79.624597
  0
POINT
  8
寸法
 62
     0
 10
69.252595
 20
-67.95793
  0
TEXT
  7
TextStyle03
  8
寸法
  6
CONTINUOUS
 62
     0
 10
68.9
 20
-76.2375
  1
350
 40
3.0
 50
90.0
 72
     5
 11
68.9
 21
-71.3625
  0
ENDBLK
  0
BLOCK
  2
*DIM_0003
 70
    65
 10
0.0
 20
0.0
  0
LINE
  8
寸法
  6
BYBLOCK
 62
     0
 10
53.282945
 20
-22.536362
 11
-113.383723
 21
-22.536362
  0
POINT
  8
寸法
 62
     0
 10
53.282945
 20
-22.536362
  0
POINT
  8
寸法
 62
     0
 10
-113.383723
 20
-22.536362
  0
TEXT
  7
TextStyle03
  8
寸法
  6
CONTINUOUS
 62
     0
 10
-41.76875
 20
-22.175
  1
呼称寸法　5000
 40
3.0
 72
     5
 11
-18.33125
 21
-22.175
  0
ENDBLK
  0
BLOCK
  2
*DIM_0004
 70
    65
 10
0.0
 20
0.0
  0
LINE
  8
寸法
  6
BYBLOCK
 62
     0
 10
-96.717055
 20
9.76892
 11
-96.717055
 21
4.857895
  0
LINE
  8
寸法
  6
BYBLOCK
 62
     0
 10
-30.050388
 20
9.76892
 11
-30.050388
 21
4.857895
  0
LINE
  8
寸法
  6
BYBLOCK
 62
     0
 10
-96.717055
 20
4.857895
 11
-30.050388
 21
4.857895
  0
POINT
  8
寸法
 62
     0
 10
-96.717055
 20
4.857895
  0
POINT
  8
寸法
 62
     0
 10
-30.050388
 20
4.857895
  0
TEXT
  7
TextStyle03
  8
寸法
  6
CONTINUOUS
 62
     0
 10
-66.68125
 20
5.225
  1
2000
 40
3.0
 72
     5
 11
-60.11875
 21
5.225
  0
ENDBLK
  0
BLOCK
  2
*DIM_0005
 70
    65
 10
0.0
 20
0.0
  0
LINE
  8
寸法
  6
BYBLOCK
 62
     0
 10
36.61628
 20
9.76892
 11
36.61628
 21
4.857895
  0
LINE
  8
寸法
  6
BYBLOCK
 62
     0
 10
-30.050388
 20
4.857895
 11
36.61628
 21
4.857895
  0
POINT
  8
寸法
 62
     0
 10
36.61628
 20
4.857895
  0
TEXT
  7
TextStyle03
  8
寸法
  6
CONTINUOUS
 62
     0
 10
-0.00625
 20
5.225
  1
2000
 40
3.0
 72
     5
 11
6.55625
 21
5.225
  0
ENDBLK
  0
BLOCK
  2
*DIM_0006
 70
    65
 10
0.0
 20
0.0
  0
LINE
  8
寸法
  6
BYBLOCK
 62
     0
 10
87.302595
 20
13.399048
 11
87.302595
 21
56.73238
  0
POINT
  8
寸法
 62
     0
 10
87.302595
 20
13.399048
  0
POINT
  8
寸法
 62
     0
 10
87.302595
 20
56.73238
  0
TEXT
  7
TextStyle03
  8
寸法
  6
CONTINUOUS
 62
     0
 10
86.95
 20
23.33125
  1
呼称寸法　1300
 40
3.0
 50
90.0
 72
     5
 11
86.95
 21
46.76875
  0
ENDBLK
  0
BLOCK
  2
*DIM_0007
 70
    65
 10
0.0
 20
0.0
  0
LINE
  8
寸法
  6
BYBLOCK
 62
     0
 10
131.149542
 20
36.065715
 11
131.149542
 21
72.668433
  0
LINE
  8
寸法
  6
BYBLOCK
 62
     0
 10
142.81621
 20
72.668433
 11
131.149542
 21
72.668433
  0
POINT
  8
寸法
 62
     0
 10
131.149542
 20
72.668433
  0
TEXT
  7
TextStyle03
  8
寸法
  6
CONTINUOUS
 62
     0
 10
134.5625
 20
73.025
  1
350
 40
3.0
 72
     5
 11
139.4375
 21
73.025
  0
ENDBLK
  0
BLOCK
  2
*DIM_0008
 70
    65
 10
0.0
 20
0.0
  0
LINE
  8
寸法
  6
BYBLOCK
 62
     0
 10
142.81621
 20
59.39905
 11
142.81621
 21
72.668433
  0
LINE
  8
寸法
  6
BYBLOCK
 62
     0
 10
144.899495
 20
60.339195
 11
144.899495
 21
72.668433
  0
LINE
  8
寸法
  6
BYBLOCK
 62
     0
 10
142.81621
 20
72.668433
 11
144.899495
 21
72.668433
  0
POINT
  8
寸法
 62
     0
 10
142.81621
 20
72.668433
  0
POINT
  8
寸法
 62
     0
 10
144.899495
 20
72.668433
  0
TEXT
  7
TextStyle03
  8
寸法
  6
CONTINUOUS
 62
     0
 10
147.29375
 20
73.025
  1
62.5
 40
3.0
 72
     5
 11
153.85625
 21
73.025
  0
ENDBLK
  0
BLOCK
  2
*DIM_0009
 70
    65
 10
0.0
 20
0.0
  0
LINE
  8
寸法
  6
BYBLOCK
 62
     0
 10
143.399495
 20
59.339195
 11
87.302595
 21
59.339195
  0
LINE
  8
寸法
  6
BYBLOCK
 62
     0
 10
87.302595
 20
56.73238
 11
87.302595
 21
59.339195
  0
POINT
  8
寸法
 62
     0
 10
87.302595
 20
56.73238
  0
POINT
  8
寸法
 62
     0
 10
87.302595
 20
59.339195
  0
TEXT
  7
TextStyle03
  8
寸法
  6
CONTINUOUS
 62
     0
 10
86.9
 20
61.49375
  1
78.2
 40
3.0
 50
90.0
 72
     5
 11
86.9
 21
68.05625
  0
ENDBLK
  0
BLOCK
  2
*DIM_0010
 70
    65
 10
0.0
 20
0.0
  0
LINE
  8
寸法
  6
BYBLOCK
 62
     0
 10
143.399495
 20
10.792235
 11
87.302595
 21
10.792235
  0
LINE
  8
寸法
  6
BYBLOCK
 62
     0
 10
87.302595
 20
13.399048
 11
87.302595
 21
10.792235
  0
POINT
  8
寸法
 62
     0
 10
87.302595
 20
13.399048
  0
POINT
  8
寸法
 62
     0
 10
87.302595
 20
10.792235
  0
TEXT
  7
TextStyle03
  8
寸法
  6
CONTINUOUS
 62
     0
 10
86.9
 20
2.04375
  1
78.2
 40
3.0
 50
90.0
 72
     5
 11
86.9
 21
8.60625
  0
ENDBLK
  0
BLOCK
  2
*DIM_0011
 70
    65
 10
0.0
 20
0.0
  0
LINE
  8
寸法
  6
BYBLOCK
 62
     0
 10
55.949612
 20
-79.624597
 11
69.252595
 21
-79.624597
  0
LINE
  8
寸法
  6
BYBLOCK
 62
     0
 10
56.889758
 20
-81.707882
 11
69.252595
 21
-81.707882
  0
LINE
  8
寸法
  6
BYBLOCK
 62
     0
 10
69.252595
 20
-79.624597
 11
69.252595
 21
-81.707882
  0
POINT
  8
寸法
 62
     0
 10
69.252595
 20
-79.624597
  0
POINT
  8
寸法
 62
     0
 10
69.252595
 20
-81.707882
  0
TEXT
  7
TextStyle03
  8
寸法
  6
CONTINUOUS
 62
     0
 10
68.85
 20
-90.70625
  1
62.5
 40
3.0
 50
90.0
 72
     5
 11
68.85
 21
-84.14375
  0
ENDBLK
  0
BLOCK
  2
*DIM_0012
 70
    65
 10
0.0
 20
0.0
  0
LINE
  8
寸法
  6
BYBLOCK
 62
     0
 10
55.889758
 20
-80.207882
 11
55.889758
 21
-22.536362
  0
LINE
  8
寸法
  6
BYBLOCK
 62
     0
 10
53.282945
 20
-22.536362
 11
55.889758
 21
-22.536362
  0
POINT
  8
寸法
 62
     0
 10
53.282945
 20
-22.536362
  0
POINT
  8
寸法
 62
     0
 10
55.889758
 20
-22.536362
  0
TEXT
  7
TextStyle03
  8
寸法
  6
CONTINUOUS
 62
     0
 10
58.01875
 20
-22.175
  1
78.2
 40
3.0
 72
     5
 11
64.58125
 21
-22.175
  0
ENDBLK
  0
BLOCK
  2
*DIM_0013
 70
    65
 10
0.0
 20
0.0
  0
LINE
  8
寸法
  6
BYBLOCK
 62
     0
 10
-115.990532
 20
-80.207882
 11
-115.990532
 21
-22.536362
  0
LINE
  8
寸法
  6
BYBLOCK
 62
     0
 10
-113.383723
 20
-22.536362
 11
-115.990532
 21
-22.536362
  0
POINT
  8
寸法
 62
     0
 10
-113.383723
 20
-22.536362
  0
POINT
  8
寸法
 62
     0
 10
-115.990532
 20
-22.536362
  0
TEXT
  7
TextStyle03
  8
寸法
  6
CONTINUOUS
 62
     0
 10
-124.73125
 20
-22.175
  1
78.2
 40
3.0
 72
     5
 11
-118.16875
 21
-22.175
  0
ENDBLK
  0
BLOCK
  2
*GRP_0014
 70
    65
 10
0.0
 20
0.0
  0
LINE
  8
別途部材
  6
CONTINUOUS
 62
    96
 10
-115.050388
 20
-79.624597
 11
-115.450388
 21
-80.624597
  0
ARC
  8
別途部材
  6
CONTINUOUS
 10
-91.717053
 20
-93.910313
 40
25.952382
 50
90.0
 51
146.601512
  0
LINE
  8
別途部材
  6
CONTINUOUS
 62
    96
 10
-115.050388
 20
-79.624597
 11
-30.050388
 21
-79.624597
  0
LINE
  8
別途部材
  6
CONTINUOUS
 10
-115.450388
 20
-80.624597
 11
-30.050388
 21
-80.624597
  0
LINE
  8
別途部材
  6
CONTINUOUS
 10
-30.550388
 20
-66.95793
 11
-31.550388
 21
-67.95793
  0
LINE
  8
別途部材
  6
CONTINUOUS
 10
-32.550388
 20
-67.95793
 11
-33.550388
 21
-66.95793
  0
LINE
  8
別途部材
  6
CONTINUOUS
 10
-34.550388
 20
-66.95793
 11
-35.550388
 21
-67.95793
  0
LINE
  8
別途部材
  6
CONTINUOUS
 10
-33.550388
 20
-66.95793
 11
-34.550388
 21
-66.95793
  0
LINE
  8
別途部材
  6
CONTINUOUS
 10
-30.550388
 20
-66.95793
 11
-30.050388
 21
-66.95793
  0
LINE
  8
別途部材
  6
CONTINUOUS
 10
-36.550388
 20
-67.95793
 11
-37.550388
 21
-66.95793
  0
LINE
  8
別途部材
  6
CONTINUOUS
 10
-38.550388
 20
-66.95793
 11
-39.550388
 21
-67.95793
  0
LINE
  8
別途部材
  6
CONTINUOUS
 10
-37.550388
 20
-66.95793
 11
-38.550388
 21
-66.95793
  0
LINE
  8
別途部材
  6
CONTINUOUS
 10
-40.550388
 20
-67.95793
 11
-41.550388
 21
-66.95793
  0
LINE
  8
別途部材
  6
CONTINUOUS
 10
-42.550388
 20
-66.95793
 11
-43.550388
 21
-67.95793
  0
LINE
  8
別途部材
  6
CONTINUOUS
 10
-41.550388
 20
-66.95793
 11
-42.550388
 21
-66.95793
  0
LINE
  8
別途部材
  6
CONTINUOUS
 10
-44.550388
 20
-67.95793
 11
-45.550388
 21
-66.95793
  0
LINE
  8
別途部材
  6
CONTINUOUS
 10
-46.550388
 20
-66.95793
 11
-47.550388
 21
-67.95793
  0
LINE
  8
別途部材
  6
CONTINUOUS
 10
-45.550388
 20
-66.95793
 11
-46.550388
 21
-66.95793
  0
LINE
  8
別途部材
  6
CONTINUOUS
 10
-48.550388
 20
-67.95793
 11
-49.550388
 21
-66.95793
  0
LINE
  8
別途部材
  6
CONTINUOUS
 10
-50.550388
 20
-66.95793
 11
-51.550388
 21
-67.95793
  0
LINE
  8
別途部材
  6
CONTINUOUS
 10
-49.550388
 20
-66.95793
 11
-50.550388
 21
-66.95793
  0
LINE
  8
別途部材
  6
CONTINUOUS
 10
-52.550388
 20
-67.95793
 11
-53.550388
 21
-66.95793
  0
LINE
  8
別途部材
  6
CONTINUOUS
 10
-54.550388
 20
-66.95793
 11
-55.550388
 21
-67.95793
  0
LINE
  8
別途部材
  6
CONTINUOUS
 10
-53.550388
 20
-66.95793
 11
-54.550388
 21
-66.95793
  0
LINE
  8
別途部材
  6
CONTINUOUS
 10
-56.550388
 20
-67.95793
 11
-57.550388
 21
-66.95793
  0
LINE
  8
別途部材
  6
CONTINUOUS
 10
-58.550388
 20
-66.95793
 11
-59.550388
 21
-67.95793
  0
LINE
  8
別途部材
  6
CONTINUOUS
 10
-57.550388
 20
-66.95793
 11
-58.550388
 21
-66.95793
  0
LINE
  8
別途部材
  6
CONTINUOUS
 10
-60.550388
 20
-67.95793
 11
-61.550388
 21
-66.95793
  0
LINE
  8
別途部材
  6
CONTINUOUS
 10
-62.550388
 20
-66.95793
 11
-63.550388
 21
-67.95793
  0
LINE
  8
別途部材
  6
CONTINUOUS
 10
-61.550388
 20
-66.95793
 11
-62.550388
 21
-66.95793
  0
LINE
  8
別途部材
  6
CONTINUOUS
 10
-64.550388
 20
-67.95793
 11
-65.550388
 21
-66.95793
  0
LINE
  8
別途部材
  6
CONTINUOUS
 10
-66.550388
 20
-66.95793
 11
-67.550388
 21
-67.95793
  0
LINE
  8
別途部材
  6
CONTINUOUS
 10
-65.550388
 20
-66.95793
 11
-66.550388
 21
-66.95793
  0
LINE
  8
別途部材
  6
CONTINUOUS
 10
-68.550388
 20
-67.95793
 11
-69.550388
 21
-66.95793
  0
LINE
  8
別途部材
  6
CONTINUOUS
 10
-70.550388
 20
-66.95793
 11
-71.550388
 21
-67.95793
  0
LINE
  8
別途部材
  6
CONTINUOUS
 10
-69.550388
 20
-66.95793
 11
-70.550388
 21
-66.95793
  0
LINE
  8
別途部材
  6
CONTINUOUS
 10
-72.550388
 20
-67.95793
 11
-73.550388
 21
-66.95793
  0
LINE
  8
別途部材
  6
CONTINUOUS
 10
-74.550388
 20
-66.95793
 11
-75.550388
 21
-67.95793
  0
LINE
  8
別途部材
  6
CONTINUOUS
 10
-73.550388
 20
-66.95793
 11
-74.550388
 21
-66.95793
  0
LINE
  8
別途部材
  6
CONTINUOUS
 10
-71.550388
 20
-67.95793
 11
-72.550388
 21
-67.95793
  0
LINE
  8
別途部材
  6
CONTINUOUS
 10
-67.550388
 20
-67.95793
 11
-68.550388
 21
-67.95793
  0
LINE
  8
別途部材
  6
CONTINUOUS
 10
-63.550388
 20
-67.95793
 11
-64.550388
 21
-67.95793
  0
LINE
  8
別途部材
  6
CONTINUOUS
 10
-59.550388
 20
-67.95793
 11
-60.550388
 21
-67.95793
  0
LINE
  8
別途部材
  6
CONTINUOUS
 10
-55.550388
 20
-67.95793
 11
-56.550388
 21
-67.95793
  0
LINE
  8
別途部材
  6
CONTINUOUS
 10
-51.550388
 20
-67.95793
 11
-52.550388
 21
-67.95793
  0
LINE
  8
別途部材
  6
CONTINUOUS
 10
-47.550388
 20
-67.95793
 11
-48.550388
 21
-67.95793
  0
LINE
  8
別途部材
  6
CONTINUOUS
 10
-43.550388
 20
-67.95793
 11
-44.550388
 21
-67.95793
  0
LINE
  8
別途部材
  6
CONTINUOUS
 10
-39.550388
 20
-67.95793
 11
-40.550388
 21
-67.95793
  0
LINE
  8
別途部材
  6
CONTINUOUS
 10
-35.550388
 20
-67.95793
 11
-36.550388
 21
-67.95793
  0
LINE
  8
別途部材
  6
CONTINUOUS
 10
-32.550388
 20
-67.95793
 11
-31.550388
 21
-67.95793
  0
LINE
  8
別途部材
  6
CONTINUOUS
 10
-72.550388
 20
-67.95793
 11
-72.550388
 21
-79.624597
  0
LINE
  8
別途部材
  6
CONTINUOUS
 10
-71.550388
 20
-67.95793
 11
-71.550388
 21
-79.624597
  0
LINE
  8
別途部材
  6
CONTINUOUS
 10
-73.550388
 20
-66.95793
 11
-73.550388
 21
-79.624597
  0
LINE
  8
別途部材
  6
CONTINUOUS
 10
-75.550388
 20
-67.95793
 11
-75.550388
 21
-79.624597
  0
LINE
  8
別途部材
  6
CONTINUOUS
 10
-74.550388
 20
-66.95793
 11
-74.550388
 21
-79.624597
  0
LINE
  8
別途部材
  6
CONTINUOUS
 10
-64.550388
 20
-67.95793
 11
-64.550388
 21
-79.624597
  0
LINE
  8
別途部材
  6
CONTINUOUS
 10
-66.550388
 20
-66.95793
 11
-66.550388
 21
-79.624597
  0
LINE
  8
別途部材
  6
CONTINUOUS
 10
-67.550388
 20
-67.95793
 11
-67.550388
 21
-79.624597
  0
LINE
  8
別途部材
  6
CONTINUOUS
 10
-69.550388
 20
-66.95793
 11
-69.550388
 21
-79.624597
  0
LINE
  8
別途部材
  6
CONTINUOUS
 10
-70.550388
 20
-66.95793
 11
-70.550388
 21
-79.624597
  0
LINE
  8
別途部材
  6
CONTINUOUS
 10
-68.550388
 20
-67.95793
 11
-68.550388
 21
-79.624597
  0
LINE
  8
別途部材
  6
CONTINUOUS
 10
-65.550388
 20
-66.95793
 11
-65.550388
 21
-79.624597
  0
LINE
  8
別途部材
  6
CONTINUOUS
 10
-63.550388
 20
-67.95793
 11
-63.550388
 21
-79.624597
  0
LINE
  8
別途部材
  6
CONTINUOUS
 10
-62.550388
 20
-66.95793
 11
-62.550388
 21
-79.624597
  0
LINE
  8
別途部材
  6
CONTINUOUS
 10
-52.550388
 20
-67.95793
 11
-52.550388
 21
-79.624597
  0
LINE
  8
別途部材
  6
CONTINUOUS
 10
-46.550388
 20
-66.95793
 11
-46.550388
 21
-79.624597
  0
LINE
  8
別途部材
  6
CONTINUOUS
 10
-45.550388
 20
-66.95793
 11
-45.550388
 21
-79.624597
  0
LINE
  8
別途部材
  6
CONTINUOUS
 10
-35.550388
 20
-67.95793
 11
-35.550388
 21
-79.624597
  0
LINE
  8
別途部材
  6
CONTINUOUS
 10
-30.550388
 20
-66.95793
 11
-30.550388
 21
-79.624597
  0
LINE
  8
別途部材
  6
CONTINUOUS
 10
-31.550388
 20
-67.95793
 11
-31.550388
 21
-79.624597
  0
LINE
  8
別途部材
  6
CONTINUOUS
 10
-33.550388
 20
-66.95793
 11
-33.550388
 21
-79.624597
  0
LINE
  8
別途部材
  6
CONTINUOUS
 10
-34.550388
 20
-66.95793
 11
-34.550388
 21
-79.624597
  0
LINE
  8
別途部材
  6
CONTINUOUS
 10
-36.550388
 20
-67.95793
 11
-36.550388
 21
-79.624597
  0
LINE
  8
別途部材
  6
CONTINUOUS
 10
-47.550388
 20
-67.95793
 11
-47.550388
 21
-79.624597
  0
LINE
  8
別途部材
  6
CONTINUOUS
 10
-48.550388
 20
-67.95793
 11
-48.550388
 21
-79.624597
  0
LINE
  8
別途部材
  6
CONTINUOUS
 10
-53.550388
 20
-66.95793
 11
-53.550388
 21
-79.624597
  0
LINE
  8
別途部材
  6
CONTINUOUS
 10
-55.550388
 20
-67.95793
 11
-55.550388
 21
-79.624597
  0
LINE
  8
別途部材
  6
CONTINUOUS
 10
-58.550388
 20
-66.95793
 11
-58.550388
 21
-79.624597
  0
LINE
  8
別途部材
  6
CONTINUOUS
 10
-61.550388
 20
-66.95793
 11
-61.550388
 21
-79.624597
  0
LINE
  8
別途部材
  6
CONTINUOUS
 10
-54.550388
 20
-66.95793
 11
-54.550388
 21
-79.624597
  0
LINE
  8
別途部材
  6
CONTINUOUS
 10
-56.550388
 20
-67.95793
 11
-56.550388
 21
-79.624597
  0
LINE
  8
別途部材
  6
CONTINUOUS
 10
-59.550388
 20
-67.95793
 11
-59.550388
 21
-79.624597
  0
LINE
  8
別途部材
  6
CONTINUOUS
 10
-60.550388
 20
-67.95793
 11
-60.550388
 21
-79.624597
  0
LINE
  8
別途部材
  6
CONTINUOUS
 10
-50.550388
 20
-66.95793
 11
-50.550388
 21
-79.624597
  0
LINE
  8
別途部材
  6
CONTINUOUS
 10
-49.550388
 20
-66.95793
 11
-49.550388
 21
-79.624597
  0
LINE
  8
別途部材
  6
CONTINUOUS
 10
-51.550388
 20
-67.95793
 11
-51.550388
 21
-79.624597
  0
LINE
  8
別途部材
  6
CONTINUOUS
 10
-57.550388
 20
-66.95793
 11
-57.550388
 21
-79.624597
  0
LINE
  8
別途部材
  6
CONTINUOUS
 10
-43.550388
 20
-67.95793
 11
-43.550388
 21
-79.624597
  0
LINE
  8
別途部材
  6
CONTINUOUS
 10
-44.550388
 20
-67.95793
 11
-44.550388
 21
-79.624597
  0
LINE
  8
別途部材
  6
CONTINUOUS
 10
-42.550388
 20
-66.95793
 11
-42.550388
 21
-79.624597
  0
LINE
  8
別途部材
  6
CONTINUOUS
 10
-40.550388
 20
-67.95793
 11
-40.550388
 21
-79.624597
  0
LINE
  8
別途部材
  6
CONTINUOUS
 10
-41.550388
 20
-66.95793
 11
-41.550388
 21
-79.624597
  0
LINE
  8
別途部材
  6
CONTINUOUS
 10
-39.550388
 20
-67.95793
 11
-39.550388
 21
-79.624597
  0
LINE
  8
別途部材
  6
CONTINUOUS
 10
-37.550388
 20
-66.95793
 11
-37.550388
 21
-79.624597
  0
LINE
  8
別途部材
  6
CONTINUOUS
 10
-38.550388
 20
-66.95793
 11
-38.550388
 21
-79.624597
  0
LINE
  8
別途部材
  6
CONTINUOUS
 10
-32.550388
 20
-67.95793
 11
-32.550388
 21
-79.624597
  0
LINE
  8
別途部材
  6
CONTINUOUS
 10
-76.550388
 20
-67.95793
 11
-77.550388
 21
-66.95793
  0
LINE
  8
別途部材
  6
CONTINUOUS
 10
-78.550388
 20
-66.95793
 11
-79.550388
 21
-67.95793
  0
LINE
  8
別途部材
  6
CONTINUOUS
 10
-77.550388
 20
-66.95793
 11
-78.550388
 21
-66.95793
  0
LINE
  8
別途部材
  6
CONTINUOUS
 10
-80.550388
 20
-67.95793
 11
-81.550388
 21
-66.95793
  0
LINE
  8
別途部材
  6
CONTINUOUS
 10
-82.550388
 20
-66.95793
 11
-83.550388
 21
-67.95793
  0
LINE
  8
別途部材
  6
CONTINUOUS
 10
-81.550388
 20
-66.95793
 11
-82.550388
 21
-66.95793
  0
LINE
  8
別途部材
  6
CONTINUOUS
 10
-84.550388
 20
-67.95793
 11
-85.550388
 21
-66.95793
  0
LINE
  8
別途部材
  6
CONTINUOUS
 10
-86.550388
 20
-66.95793
 11
-87.550388
 21
-67.95793
  0
LINE
  8
別途部材
  6
CONTINUOUS
 10
-85.550388
 20
-66.95793
 11
-86.550388
 21
-66.95793
  0
LINE
  8
別途部材
  6
CONTINUOUS
 10
-88.550388
 20
-67.95793
 11
-89.550388
 21
-66.95793
  0
LINE
  8
別途部材
  6
CONTINUOUS
 10
-90.550388
 20
-66.95793
 11
-91.550388
 21
-67.95793
  0
LINE
  8
別途部材
  6
CONTINUOUS
 10
-89.550388
 20
-66.95793
 11
-90.550388
 21
-66.95793
  0
LINE
  8
別途部材
  6
CONTINUOUS
 10
-87.550388
 20
-67.95793
 11
-88.550388
 21
-67.95793
  0
LINE
  8
別途部材
  6
CONTINUOUS
 10
-83.550388
 20
-67.95793
 11
-84.550388
 21
-67.95793
  0
LINE
  8
別途部材
  6
CONTINUOUS
 10
-79.550388
 20
-67.95793
 11
-80.550388
 21
-67.95793
  0
LINE
  8
別途部材
  6
CONTINUOUS
 10
-75.550388
 20
-67.95793
 11
-76.550388
 21
-67.95793
  0
LINE
  8
別途部材
  6
CONTINUOUS
 10
-88.550388
 20
-67.95793
 11
-88.550388
 21
-79.624597
  0
LINE
  8
別途部材
  6
CONTINUOUS
 10
-82.550388
 20
-66.95793
 11
-82.550388
 21
-79.624597
  0
LINE
  8
別途部材
  6
CONTINUOUS
 10
-81.550388
 20
-66.95793
 11
-81.550388
 21
-79.624597
  0
LINE
  8
別途部材
  6
CONTINUOUS
 10
-83.550388
 20
-67.95793
 11
-83.550388
 21
-79.624597
  0
LINE
  8
別途部材
  6
CONTINUOUS
 10
-84.550388
 20
-67.95793
 11
-84.550388
 21
-79.624597
  0
LINE
  8
別途部材
  6
CONTINUOUS
 10
-89.550388
 20
-66.95793
 11
-89.550388
 21
-79.624597
  0
LINE
  8
別途部材
  6
CONTINUOUS
 10
-91.550388
 20
-67.95793
 11
-91.550388
 21
-79.624597
  0
LINE
  8
別途部材
  6
CONTINUOUS
 10
-90.550388
 20
-66.95793
 11
-90.550388
 21
-79.624597
  0
LINE
  8
別途部材
  6
CONTINUOUS
 10
-86.550388
 20
-66.95793
 11
-86.550388
 21
-79.624597
  0
LINE
  8
別途部材
  6
CONTINUOUS
 10
-85.550388
 20
-66.95793
 11
-85.550388
 21
-79.624597
  0
LINE
  8
別途部材
  6
CONTINUOUS
 10
-87.550388
 20
-67.95793
 11
-87.550388
 21
-79.624597
  0
LINE
  8
別途部材
  6
CONTINUOUS
 10
-79.550388
 20
-67.95793
 11
-79.550388
 21
-79.624597
  0
LINE
  8
別途部材
  6
CONTINUOUS
 10
-80.550388
 20
-67.95793
 11
-80.550388
 21
-79.624597
  0
LINE
  8
別途部材
  6
CONTINUOUS
 10
-78.550388
 20
-66.95793
 11
-78.550388
 21
-79.624597
  0
LINE
  8
別途部材
  6
CONTINUOUS
 10
-76.550388
 20
-67.95793
 11
-76.550388
 21
-79.624597
  0
LINE
  8
別途部材
  6
CONTINUOUS
 10
-77.550388
 20
-66.95793
 11
-77.550388
 21
-79.624597
  0
LINE
  8
別途部材
  6
CONTINUOUS
 62
    96
 10
54.949612
 20
-79.624597
 11
55.349612
 21
-80.624597
  0
ARC
  8
別途部材
  6
CONTINUOUS
 10
31.616278
 20
-93.910313
 40
25.952382
 50
33.398488
 51
90.0
  0
LINE
  8
別途部材
  6
CONTINUOUS
 62
    96
 10
54.949612
 20
-79.624597
 11
-30.050388
 21
-79.624597
  0
LINE
  8
別途部材
  6
CONTINUOUS
 10
55.349612
 20
-80.624597
 11
-30.050388
 21
-80.624597
  0
LINE
  8
別途部材
  6
CONTINUOUS
 10
-29.550388
 20
-66.95793
 11
-28.550388
 21
-67.95793
  0
LINE
  8
別途部材
  6
CONTINUOUS
 10
-27.550388
 20
-67.95793
 11
-26.550388
 21
-66.95793
  0
LINE
  8
別途部材
  6
CONTINUOUS
 10
-25.550388
 20
-66.95793
 11
-24.550388
 21
-67.95793
  0
LINE
  8
別途部材
  6
CONTINUOUS
 10
-26.550388
 20
-66.95793
 11
-25.550388
 21
-66.95793
  0
LINE
  8
別途部材
  6
CONTINUOUS
 10
-29.550388
 20
-66.95793
 11
-30.050388
 21
-66.95793
  0
LINE
  8
別途部材
  6
CONTINUOUS
 10
-23.550388
 20
-67.95793
 11
-22.550388
 21
-66.95793
  0
LINE
  8
別途部材
  6
CONTINUOUS
 10
-21.550388
 20
-66.95793
 11
-20.550388
 21
-67.95793
  0
LINE
  8
別途部材
  6
CONTINUOUS
 10
-22.550388
 20
-66.95793
 11
-21.550388
 21
-66.95793
  0
LINE
  8
別途部材
  6
CONTINUOUS
 10
-19.550388
 20
-67.95793
 11
-18.550388
 21
-66.95793
  0
LINE
  8
別途部材
  6
CONTINUOUS
 10
-17.550388
 20
-66.95793
 11
-16.550388
 21
-67.95793
  0
LINE
  8
別途部材
  6
CONTINUOUS
 10
-18.550388
 20
-66.95793
 11
-17.550388
 21
-66.95793
  0
LINE
  8
別途部材
  6
CONTINUOUS
 10
-15.550388
 20
-67.95793
 11
-14.550388
 21
-66.95793
  0
LINE
  8
別途部材
  6
CONTINUOUS
 10
-13.550388
 20
-66.95793
 11
-12.550388
 21
-67.95793
  0
LINE
  8
別途部材
  6
CONTINUOUS
 10
-14.550388
 20
-66.95793
 11
-13.550388
 21
-66.95793
  0
LINE
  8
別途部材
  6
CONTINUOUS
 10
-11.550388
 20
-67.95793
 11
-10.550388
 21
-66.95793
  0
LINE
  8
別途部材
  6
CONTINUOUS
 10
-9.550388
 20
-66.95793
 11
-8.550388
 21
-67.95793
  0
LINE
  8
別途部材
  6
CONTINUOUS
 10
-10.550388
 20
-66.95793
 11
-9.550388
 21
-66.95793
  0
LINE
  8
別途部材
  6
CONTINUOUS
 10
-7.550388
 20
-67.95793
 11
-6.550388
 21
-66.95793
  0
LINE
  8
別途部材
  6
CONTINUOUS
 10
-5.550388
 20
-66.95793
 11
-4.550388
 21
-67.95793
  0
LINE
  8
別途部材
  6
CONTINUOUS
 10
-6.550388
 20
-66.95793
 11
-5.550388
 21
-66.95793
  0
LINE
  8
別途部材
  6
CONTINUOUS
 10
-3.550388
 20
-67.95793
 11
-2.550388
 21
-66.95793
  0
LINE
  8
別途部材
  6
CONTINUOUS
 10
-1.550388
 20
-66.95793
 11
-0.550388
 21
-67.95793
  0
LINE
  8
別途部材
  6
CONTINUOUS
 10
-2.550388
 20
-66.95793
 11
-1.550388
 21
-66.95793
  0
LINE
  8
別途部材
  6
CONTINUOUS
 10
0.449612
 20
-67.95793
 11
1.449612
 21
-66.95793
  0
LINE
  8
別途部材
  6
CONTINUOUS
 10
2.449612
 20
-66.95793
 11
3.449612
 21
-67.95793
  0
LINE
  8
別途部材
  6
CONTINUOUS
 10
1.449612
 20
-66.95793
 11
2.449612
 21
-66.95793
  0
LINE
  8
別途部材
  6
CONTINUOUS
 10
4.449612
 20
-67.95793
 11
5.449612
 21
-66.95793
  0
LINE
  8
別途部材
  6
CONTINUOUS
 10
6.449612
 20
-66.95793
 11
7.449612
 21
-67.95793
  0
LINE
  8
別途部材
  6
CONTINUOUS
 10
5.449612
 20
-66.95793
 11
6.449612
 21
-66.95793
  0
LINE
  8
別途部材
  6
CONTINUOUS
 10
8.449612
 20
-67.95793
 11
9.449612
 21
-66.95793
  0
LINE
  8
別途部材
  6
CONTINUOUS
 10
10.449612
 20
-66.95793
 11
11.449612
 21
-67.95793
  0
LINE
  8
別途部材
  6
CONTINUOUS
 10
9.449612
 20
-66.95793
 11
10.449612
 21
-66.95793
  0
LINE
  8
別途部材
  6
CONTINUOUS
 10
12.449612
 20
-67.95793
 11
13.449612
 21
-66.95793
  0
LINE
  8
別途部材
  6
CONTINUOUS
 10
14.449612
 20
-66.95793
 11
15.449612
 21
-67.95793
  0
LINE
  8
別途部材
  6
CONTINUOUS
 10
13.449612
 20
-66.95793
 11
14.449612
 21
-66.95793
  0
LINE
  8
別途部材
  6
CONTINUOUS
 10
11.449612
 20
-67.95793
 11
12.449612
 21
-67.95793
  0
LINE
  8
別途部材
  6
CONTINUOUS
 10
7.449612
 20
-67.95793
 11
8.449612
 21
-67.95793
  0
LINE
  8
別途部材
  6
CONTINUOUS
 10
3.449612
 20
-67.95793
 11
4.449612
 21
-67.95793
  0
LINE
  8
別途部材
  6
CONTINUOUS
 10
-0.550388
 20
-67.95793
 11
0.449612
 21
-67.95793
  0
LINE
  8
別途部材
  6
CONTINUOUS
 10
-4.550388
 20
-67.95793
 11
-3.550388
 21
-67.95793
  0
LINE
  8
別途部材
  6
CONTINUOUS
 10
-8.550388
 20
-67.95793
 11
-7.550388
 21
-67.95793
  0
LINE
  8
別途部材
  6
CONTINUOUS
 10
-12.550388
 20
-67.95793
 11
-11.550388
 21
-67.95793
  0
LINE
  8
別途部材
  6
CONTINUOUS
 10
-16.550388
 20
-67.95793
 11
-15.550388
 21
-67.95793
  0
LINE
  8
別途部材
  6
CONTINUOUS
 10
-20.550388
 20
-67.95793
 11
-19.550388
 21
-67.95793
  0
LINE
  8
別途部材
  6
CONTINUOUS
 10
-24.550388
 20
-67.95793
 11
-23.550388
 21
-67.95793
  0
LINE
  8
別途部材
  6
CONTINUOUS
 10
-27.550388
 20
-67.95793
 11
-28.550388
 21
-67.95793
  0
LINE
  8
別途部材
  6
CONTINUOUS
 10
12.449612
 20
-67.95793
 11
12.449612
 21
-79.624597
  0
LINE
  8
別途部材
  6
CONTINUOUS
 10
11.449612
 20
-67.95793
 11
11.449612
 21
-79.624597
  0
LINE
  8
別途部材
  6
CONTINUOUS
 10
13.449612
 20
-66.95793
 11
13.449612
 21
-79.624597
  0
LINE
  8
別途部材
  6
CONTINUOUS
 10
15.449612
 20
-67.95793
 11
15.449612
 21
-79.624597
  0
LINE
  8
別途部材
  6
CONTINUOUS
 10
14.449612
 20
-66.95793
 11
14.449612
 21
-79.624597
  0
LINE
  8
別途部材
  6
CONTINUOUS
 10
4.449612
 20
-67.95793
 11
4.449612
 21
-79.624597
  0
LINE
  8
別途部材
  6
CONTINUOUS
 10
6.449612
 20
-66.95793
 11
6.449612
 21
-79.624597
  0
LINE
  8
別途部材
  6
CONTINUOUS
 10
7.449612
 20
-67.95793
 11
7.449612
 21
-79.624597
  0
LINE
  8
別途部材
  6
CONTINUOUS
 10
9.449612
 20
-66.95793
 11
9.449612
 21
-79.624597
  0
LINE
  8
別途部材
  6
CONTINUOUS
 10
10.449612
 20
-66.95793
 11
10.449612
 21
-79.624597
  0
LINE
  8
別途部材
  6
CONTINUOUS
 10
8.449612
 20
-67.95793
 11
8.449612
 21
-79.624597
  0
LINE
  8
別途部材
  6
CONTINUOUS
 10
5.449612
 20
-66.95793
 11
5.449612
 21
-79.624597
  0
LINE
  8
別途部材
  6
CONTINUOUS
 10
3.449612
 20
-67.95793
 11
3.449612
 21
-79.624597
  0
LINE
  8
別途部材
  6
CONTINUOUS
 10
2.449612
 20
-66.95793
 11
2.449612
 21
-79.624597
  0
LINE
  8
別途部材
  6
CONTINUOUS
 10
-7.550388
 20
-67.95793
 11
-7.550388
 21
-79.624597
  0
LINE
  8
別途部材
  6
CONTINUOUS
 10
-13.550388
 20
-66.95793
 11
-13.550388
 21
-79.624597
  0
LINE
  8
別途部材
  6
CONTINUOUS
 10
-14.550388
 20
-66.95793
 11
-14.550388
 21
-79.624597
  0
LINE
  8
別途部材
  6
CONTINUOUS
 10
-24.550388
 20
-67.95793
 11
-24.550388
 21
-79.624597
  0
LINE
  8
別途部材
  6
CONTINUOUS
 10
-29.550388
 20
-66.95793
 11
-29.550388
 21
-79.624597
  0
LINE
  8
別途部材
  6
CONTINUOUS
 10
-28.550388
 20
-67.95793
 11
-28.550388
 21
-79.624597
  0
LINE
  8
別途部材
  6
CONTINUOUS
 10
-26.550388
 20
-66.95793
 11
-26.550388
 21
-79.624597
  0
LINE
  8
別途部材
  6
CONTINUOUS
 10
-25.550388
 20
-66.95793
 11
-25.550388
 21
-79.624597
  0
LINE
  8
別途部材
  6
CONTINUOUS
 10
-23.550388
 20
-67.95793
 11
-23.550388
 21
-79.624597
  0
LINE
  8
別途部材
  6
CONTINUOUS
 10
-12.550388
 20
-67.95793
 11
-12.550388
 21
-79.624597
  0
LINE
  8
別途部材
  6
CONTINUOUS
 10
-11.550388
 20
-67.95793
 11
-11.550388
 21
-79.624597
  0
LINE
  8
別途部材
  6
CONTINUOUS
 10
-6.550388
 20
-66.95793
 11
-6.550388
 21
-79.624597
  0
LINE
  8
別途部材
  6
CONTINUOUS
 10
-4.550388
 20
-67.95793
 11
-4.550388
 21
-79.624597
  0
LINE
  8
別途部材
  6
CONTINUOUS
 10
-1.550388
 20
-66.95793
 11
-1.550388
 21
-79.624597
  0
LINE
  8
別途部材
  6
CONTINUOUS
 10
1.449612
 20
-66.95793
 11
1.449612
 21
-79.624597
  0
LINE
  8
別途部材
  6
CONTINUOUS
 10
-5.550388
 20
-66.95793
 11
-5.550388
 21
-79.624597
  0
LINE
  8
別途部材
  6
CONTINUOUS
 10
-3.550388
 20
-67.95793
 11
-3.550388
 21
-79.624597
  0
LINE
  8
別途部材
  6
CONTINUOUS
 10
-0.550388
 20
-67.95793
 11
-0.550388
 21
-79.624597
  0
LINE
  8
別途部材
  6
CONTINUOUS
 10
0.449612
 20
-67.95793
 11
0.449612
 21
-79.624597
  0
LINE
  8
別途部材
  6
CONTINUOUS
 10
-9.550388
 20
-66.95793
 11
-9.550388
 21
-79.624597
  0
LINE
  8
別途部材
  6
CONTINUOUS
 10
-10.550388
 20
-66.95793
 11
-10.550388
 21
-79.624597
  0
LINE
  8
別途部材
  6
CONTINUOUS
 10
-8.550388
 20
-67.95793
 11
-8.550388
 21
-79.624597
  0
LINE
  8
別途部材
  6
CONTINUOUS
 10
-2.550388
 20
-66.95793
 11
-2.550388
 21
-79.624597
  0
LINE
  8
別途部材
  6
CONTINUOUS
 10
-16.550388
 20
-67.95793
 11
-16.550388
 21
-79.624597
  0
LINE
  8
別途部材
  6
CONTINUOUS
 10
-15.550388
 20
-67.95793
 11
-15.550388
 21
-79.624597
  0
LINE
  8
別途部材
  6
CONTINUOUS
 10
-17.550388
 20
-66.95793
 11
-17.550388
 21
-79.624597
  0
LINE
  8
別途部材
  6
CONTINUOUS
 10
-19.550388
 20
-67.95793
 11
-19.550388
 21
-79.624597
  0
LINE
  8
別途部材
  6
CONTINUOUS
 10
-18.550388
 20
-66.95793
 11
-18.550388
 21
-79.624597
  0
LINE
  8
別途部材
  6
CONTINUOUS
 10
-20.550388
 20
-67.95793
 11
-20.550388
 21
-79.624597
  0
LINE
  8
別途部材
  6
CONTINUOUS
 10
-22.550388
 20
-66.95793
 11
-22.550388
 21
-79.624597
  0
LINE
  8
別途部材
  6
CONTINUOUS
 10
-21.550388
 20
-66.95793
 11
-21.550388
 21
-79.624597
  0
LINE
  8
別途部材
  6
CONTINUOUS
 10
-27.550388
 20
-67.95793
 11
-27.550388
 21
-79.624597
  0
LINE
  8
別途部材
  6
CONTINUOUS
 10
16.449612
 20
-67.95793
 11
17.449612
 21
-66.95793
  0
LINE
  8
別途部材
  6
CONTINUOUS
 10
18.449612
 20
-66.95793
 11
19.449612
 21
-67.95793
  0
LINE
  8
別途部材
  6
CONTINUOUS
 10
17.449612
 20
-66.95793
 11
18.449612
 21
-66.95793
  0
LINE
  8
別途部材
  6
CONTINUOUS
 10
20.449612
 20
-67.95793
 11
21.449612
 21
-66.95793
  0
LINE
  8
別途部材
  6
CONTINUOUS
 10
22.449612
 20
-66.95793
 11
23.449612
 21
-67.95793
  0
LINE
  8
別途部材
  6
CONTINUOUS
 10
21.449612
 20
-66.95793
 11
22.449612
 21
-66.95793
  0
LINE
  8
別途部材
  6
CONTINUOUS
 10
24.449612
 20
-67.95793
 11
25.449612
 21
-66.95793
  0
LINE
  8
別途部材
  6
CONTINUOUS
 10
26.449612
 20
-66.95793
 11
27.449612
 21
-67.95793
  0
LINE
  8
別途部材
  6
CONTINUOUS
 10
25.449612
 20
-66.95793
 11
26.449612
 21
-66.95793
  0
LINE
  8
別途部材
  6
CONTINUOUS
 10
28.449612
 20
-67.95793
 11
29.449612
 21
-66.95793
  0
LINE
  8
別途部材
  6
CONTINUOUS
 10
30.449612
 20
-66.95793
 11
31.449612
 21
-67.95793
  0
LINE
  8
別途部材
  6
CONTINUOUS
 10
29.449612
 20
-66.95793
 11
30.449612
 21
-66.95793
  0
LINE
  8
別途部材
  6
CONTINUOUS
 10
27.449612
 20
-67.95793
 11
28.449612
 21
-67.95793
  0
LINE
  8
別途部材
  6
CONTINUOUS
 10
23.449612
 20
-67.95793
 11
24.449612
 21
-67.95793
  0
LINE
  8
別途部材
  6
CONTINUOUS
 10
19.449612
 20
-67.95793
 11
20.449612
 21
-67.95793
  0
LINE
  8
別途部材
  6
CONTINUOUS
 10
15.449612
 20
-67.95793
 11
16.449612
 21
-67.95793
  0
LINE
  8
別途部材
  6
CONTINUOUS
 10
28.449612
 20
-67.95793
 11
28.449612
 21
-79.624597
  0
LINE
  8
別途部材
  6
CONTINUOUS
 10
22.449612
 20
-66.95793
 11
22.449612
 21
-79.624597
  0
LINE
  8
別途部材
  6
CONTINUOUS
 10
21.449612
 20
-66.95793
 11
21.449612
 21
-79.624597
  0
LINE
  8
別途部材
  6
CONTINUOUS
 10
23.449612
 20
-67.95793
 11
23.449612
 21
-79.624597
  0
LINE
  8
別途部材
  6
CONTINUOUS
 10
24.449612
 20
-67.95793
 11
24.449612
 21
-79.624597
  0
LINE
  8
別途部材
  6
CONTINUOUS
 10
29.449612
 20
-66.95793
 11
29.449612
 21
-79.624597
  0
LINE
  8
別途部材
  6
CONTINUOUS
 10
31.449612
 20
-67.95793
 11
31.449612
 21
-79.624597
  0
LINE
  8
別途部材
  6
CONTINUOUS
 10
30.449612
 20
-66.95793
 11
30.449612
 21
-79.624597
  0
LINE
  8
別途部材
  6
CONTINUOUS
 10
26.449612
 20
-66.95793
 11
26.449612
 21
-79.624597
  0
LINE
  8
別途部材
  6
CONTINUOUS
 10
25.449612
 20
-66.95793
 11
25.449612
 21
-79.624597
  0
LINE
  8
別途部材
  6
CONTINUOUS
 10
27.449612
 20
-67.95793
 11
27.449612
 21
-79.624597
  0
LINE
  8
別途部材
  6
CONTINUOUS
 10
19.449612
 20
-67.95793
 11
19.449612
 21
-79.624597
  0
LINE
  8
別途部材
  6
CONTINUOUS
 10
20.449612
 20
-67.95793
 11
20.449612
 21
-79.624597
  0
LINE
  8
別途部材
  6
CONTINUOUS
 10
18.449612
 20
-66.95793
 11
18.449612
 21
-79.624597
  0
LINE
  8
別途部材
  6
CONTINUOUS
 10
16.449612
 20
-67.95793
 11
16.449612
 21
-79.624597
  0
LINE
  8
別途部材
  6
CONTINUOUS
 10
17.449612
 20
-66.95793
 11
17.449612
 21
-79.624597
  0
ENDBLK
  0
BLOCK
  2
*DIM_0015
 70
    65
 10
0.0
 20
0.0
  0
LINE
  8
寸法
  6
BYBLOCK
 62
     0
 10
145.328765
 20
-45.156955
 11
155.941423
 21
-45.156955
  0
LINE
  8
寸法
  6
BYBLOCK
 62
     0
 10
145.328765
 20
-87.823622
 11
155.941423
 21
-87.823622
  0
LINE
  8
寸法
  6
BYBLOCK
 62
     0
 10
155.941423
 20
-45.156955
 11
155.941423
 21
-87.823622
  0
POINT
  8
寸法
 62
     0
 10
155.941423
 20
-45.156955
  0
POINT
  8
寸法
 62
     0
 10
155.941423
 20
-87.823622
  0
TEXT
  7
TextStyle03
  8
寸法
  6
CONTINUOUS
 62
     0
 10
155.55
 20
-69.78125
  1
1280
 40
3.0
 50
90.0
 72
     5
 11
155.55
 21
-63.21875
  0
ENDBLK
  0
BLOCK
  2
*DIM_0016
 70
    65
 10
0.0
 20
0.0
  0
LINE
  8
寸法
  6
BYBLOCK
 62
     0
 10
-116.383723
 20
23.399048
 11
-145.328888
 21
23.399048
  0
LINE
  8
寸法
  6
BYBLOCK
 62
     0
 10
-116.383723
 20
46.732382
 11
-145.328888
 21
46.732382
  0
LINE
  8
寸法
  6
BYBLOCK
 62
     0
 10
-145.328888
 20
23.399048
 11
-145.328888
 21
46.732382
  0
POINT
  8
寸法
 62
     0
 10
-145.328888
 20
23.399048
  0
POINT
  8
寸法
 62
     0
 10
-145.328888
 20
46.732382
  0
TEXT
  7
TextStyle03
  8
寸法
  6
CONTINUOUS
 62
     0
 10
-145.75
 20
32.6125
  1
700
 40
3.0
 50
90.0
 72
     5
 11
-145.75
 21
37.4875
  0
ENDBLK
  0
BLOCK
  2
*DIM_0017
 70
    65
 10
0.0
 20
0.0
  0
LINE
  8
寸法
  6
BYBLOCK
 62
     0
 10
-105.050388
 20
59.73238
 11
-105.050388
 21
88.840452
  0
LINE
  8
寸法
  6
BYBLOCK
 62
     0
 10
-80.050388
 20
59.73238
 11
-80.050388
 21
88.840452
  0
LINE
  8
寸法
  6
BYBLOCK
 62
     0
 10
-105.050388
 20
88.840452
 11
-80.050388
 21
88.840452
  0
POINT
  8
寸法
 62
     0
 10
-105.050388
 20
88.840452
  0
POINT
  8
寸法
 62
     0
 10
-80.050388
 20
88.840452
  0
TEXT
  7
TextStyle03
  8
寸法
  6
CONTINUOUS
 62
     0
 10
-95.0125
 20
89.2
  1
750
 40
3.0
 72
     5
 11
-90.1375
 21
89.2
  0
ENDBLK
  0
BLOCK
  2
*DIM_0018
 70
    65
 10
0.0
 20
0.0
  0
LINE
  8
寸法
  6
BYBLOCK
 62
     0
 10
-55.050388
 20
59.73238
 11
-55.050388
 21
88.840452
  0
LINE
  8
寸法
  6
BYBLOCK
 62
     0
 10
-80.050388
 20
88.840452
 11
-55.050388
 21
88.840452
  0
POINT
  8
寸法
 62
     0
 10
-55.050388
 20
88.840452
  0
TEXT
  7
TextStyle03
  8
寸法
  6
CONTINUOUS
 62
     0
 10
-70.0125
 20
89.2
  1
750
 40
3.0
 72
     5
 11
-65.1375
 21
89.2
  0
ENDBLK
  0
BLOCK
  2
*DIM_0019
 70
    65
 10
0.0
 20
0.0
  0
LINE
  8
寸法
  6
BYBLOCK
 62
     0
 10
-30.050388
 20
59.73238
 11
-30.050388
 21
88.840452
  0
LINE
  8
寸法
  6
BYBLOCK
 62
     0
 10
-55.050388
 20
88.840452
 11
-30.050388
 21
88.840452
  0
POINT
  8
寸法
 62
     0
 10
-30.050388
 20
88.840452
  0
TEXT
  7
TextStyle03
  8
寸法
  6
CONTINUOUS
 62
     0
 10
-45.0125
 20
89.2
  1
750
 40
3.0
 72
     5
 11
-40.1375
 21
89.2
  0
ENDBLK
  0
BLOCK
  2
*DIM_0020
 70
    65
 10
0.0
 20
0.0
  0
LINE
  8
寸法
  6
BYBLOCK
 62
     0
 10
-5.050388
 20
59.73238
 11
-5.050388
 21
88.840452
  0
LINE
  8
寸法
  6
BYBLOCK
 62
     0
 10
-30.050388
 20
88.840452
 11
-5.050388
 21
88.840452
  0
POINT
  8
寸法
 62
     0
 10
-5.050388
 20
88.840452
  0
TEXT
  7
TextStyle03
  8
寸法
  6
CONTINUOUS
 62
     0
 10
-20.0125
 20
89.2
  1
750
 40
3.0
 72
     5
 11
-15.1375
 21
89.2
  0
ENDBLK
  0
BLOCK
  2
*DIM_0021
 70
    65
 10
0.0
 20
0.0
  0
LINE
  8
寸法
  6
BYBLOCK
 62
     0
 10
19.949612
 20
59.73238
 11
19.949612
 21
88.840452
  0
LINE
  8
寸法
  6
BYBLOCK
 62
     0
 10
-5.050388
 20
88.840452
 11
19.949612
 21
88.840452
  0
POINT
  8
寸法
 62
     0
 10
19.949612
 20
88.840452
  0
TEXT
  7
TextStyle03
  8
寸法
  6
CONTINUOUS
 62
     0
 10
4.9875
 20
89.2
  1
750
 40
3.0
 72
     5
 11
9.8625
 21
89.2
  0
ENDBLK
  0
BLOCK
  2
*DIM_0022
 70
    65
 10
0.0
 20
0.0
  0
LINE
  8
寸法
  6
BYBLOCK
 62
     0
 10
44.949612
 20
59.73238
 11
44.949612
 21
88.840452
  0
LINE
  8
寸法
  6
BYBLOCK
 62
     0
 10
19.949612
 20
88.840452
 11
44.949612
 21
88.840452
  0
POINT
  8
寸法
 62
     0
 10
44.949612
 20
88.840452
  0
TEXT
  7
TextStyle03
  8
寸法
  6
CONTINUOUS
 62
     0
 10
29.9875
 20
89.2
  1
750
 40
3.0
 72
     5
 11
34.8625
 21
89.2
  0
ENDBLK
  0
BLOCK
  2
*DIM_0023
 70
    65
 10
0.0
 20
0.0
  0
LINE
  8
寸法
  6
CONTINUOUS
 10
110.542098
 20
-43.476625
 11
110.542098
 21
-32.602303
  0
LINE
  8
寸法
  6
CONTINUOUS
 10
142.862097
 20
-43.476625
 11
142.862097
 21
-32.602303
  0
LINE
  8
寸法
  6
CONTINUOUS
 10
110.542098
 20
-32.602303
 11
142.862097
 21
-32.602303
  0
POINT
  8
寸法
 10
110.542098
 20
-32.602303
  0
POINT
  8
寸法
 10
142.862097
 20
-32.602303
  0
TEXT
  7
TextStyle03
  8
寸法
  6
CONTINUOUS
 10
122.575
 20
-32.25
  1
969.6
 40
3.0
 72
     5
 11
130.825
 21
-32.25
  0
ENDBLK
  0
BLOCK
  2
*GRP_0024
 70
    65
 10
0.0
 20
0.0
  0
LINE
  8
ボルト／ビス
  6
CONTINUOUS
 10
-114.050388
 20
-79.624597
 11
-114.050388
 21
-79.15793
  0
LINE
  8
ボルト／ビス
  6
CONTINUOUS
 10
-114.417053
 20
-79.624597
 11
-114.417053
 21
-79.55793
  0
LINE
  8
ボルト／ビス
  6
CONTINUOUS
 10
-114.417053
 20
-79.55793
 11
-113.68372
 21
-79.55793
  0
LINE
  8
ボルト／ビス
  6
CONTINUOUS
 10
-113.68372
 20
-79.55793
 11
-113.68372
 21
-79.624597
  0
LINE
  8
ボルト／ビス
  6
CONTINUOUS
 10
-114.417053
 20
-79.624597
 11
-113.68372
 21
-79.624597
  0
LINE
  8
ボルト／ビス
  6
CONTINUOUS
 10
-114.350388
 20
-79.524597
 11
-114.350388
 21
-79.55793
  0
LINE
  8
ボルト／ビス
  6
CONTINUOUS
 10
-114.350388
 20
-79.524597
 11
-113.750388
 21
-79.524597
  0
LINE
  8
ボルト／ビス
  6
CONTINUOUS
 10
-113.750388
 20
-79.524597
 11
-113.750388
 21
-79.55793
  0
LINE
  8
ボルト／ビス
  6
CONTINUOUS
 62
    64
 10
-114.210762
 20
-79.324597
 11
-114.242838
 21
-79.336272
  0
ARC
  8
ボルト／ビス
  6
CONTINUOUS
 62
    64
 10
-114.194723
 20
-79.429575
 40
0.104978
 50
62.721967
 51
90.0
  0
ARC
  8
ボルト／ビス
  6
CONTINUOUS
 62
    64
 10
-114.050386
 20
-79.726999
 40
0.402402
 50
76.165002
 51
103.834985
  0
LINE
  8
ボルト／ビス
  6
CONTINUOUS
 62
    64
 10
-113.890013
 20
-79.324597
 11
-113.857938
 21
-79.336272
  0
ARC
  8
ボルト／ビス
  6
CONTINUOUS
 62
    64
 10
-113.906048
 20
-79.429575
 40
0.104978
 50
90.0
 51
117.278033
  0
LINE
  8
ボルト／ビス
  6
CONTINUOUS
 62
    64
 10
-114.210762
 20
-79.324597
 11
-113.890013
 21
-79.324597
  0
LINE
  8
ボルト／ビス
  6
CONTINUOUS
 62
    64
 10
-113.857938
 20
-79.336272
 11
-113.857938
 21
-79.45793
  0
LINE
  8
ボルト／ビス
  6
CONTINUOUS
 62
    64
 10
-113.954162
 20
-79.336272
 11
-113.954162
 21
-79.45793
  0
LINE
  8
ボルト／ビス
  6
CONTINUOUS
 62
    64
 10
-114.242838
 20
-79.336272
 11
-114.242838
 21
-79.45793
  0
LINE
  8
ボルト／ビス
  6
CONTINUOUS
 62
    64
 10
-114.146612
 20
-79.336272
 11
-114.146612
 21
-79.45793
  0
LINE
  8
ボルト／ビス
  6
CONTINUOUS
 10
-114.242838
 20
-79.45793
 11
-113.857938
 21
-79.45793
  0
LINE
  8
ボルト／ビス
  6
CONTINUOUS
 10
-114.250388
 20
-79.45793
 11
-114.250388
 21
-79.524597
  0
LINE
  8
ボルト／ビス
  6
CONTINUOUS
 10
-114.250388
 20
-79.45793
 11
-113.850388
 21
-79.45793
  0
LINE
  8
ボルト／ビス
  6
CONTINUOUS
 10
-113.850388
 20
-79.45793
 11
-113.850388
 21
-79.524597
  0
ENDBLK
  0
BLOCK
  2
*GRP_0025
 70
    65
 10
0.0
 20
0.0
  0
LINE
  8
ボルト／ビス
  6
CONTINUOUS
 10
53.949612
 20
-79.624597
 11
53.949612
 21
-79.15793
  0
LINE
  8
ボルト／ビス
  6
CONTINUOUS
 10
53.582948
 20
-79.624597
 11
53.582948
 21
-79.55793
  0
LINE
  8
ボルト／ビス
  6
CONTINUOUS
 10
53.582948
 20
-79.55793
 11
54.31628
 21
-79.55793
  0
LINE
  8
ボルト／ビス
  6
CONTINUOUS
 10
54.31628
 20
-79.55793
 11
54.31628
 21
-79.624597
  0
LINE
  8
ボルト／ビス
  6
CONTINUOUS
 10
53.582948
 20
-79.624597
 11
54.31628
 21
-79.624597
  0
LINE
  8
ボルト／ビス
  6
CONTINUOUS
 10
53.649612
 20
-79.524597
 11
53.649612
 21
-79.55793
  0
LINE
  8
ボルト／ビス
  6
CONTINUOUS
 10
53.649612
 20
-79.524597
 11
54.249612
 21
-79.524597
  0
LINE
  8
ボルト／ビス
  6
CONTINUOUS
 10
54.249612
 20
-79.524597
 11
54.249612
 21
-79.55793
  0
LINE
  8
ボルト／ビス
  6
CONTINUOUS
 62
    64
 10
53.789237
 20
-79.324597
 11
53.757163
 21
-79.336272
  0
ARC
  8
ボルト／ビス
  6
CONTINUOUS
 62
    64
 10
53.805277
 20
-79.429575
 40
0.104978
 50
62.721967
 51
90.0
  0
ARC
  8
ボルト／ビス
  6
CONTINUOUS
 62
    64
 10
53.949614
 20
-79.726999
 40
0.402402
 50
76.165002
 51
103.834985
  0
LINE
  8
ボルト／ビス
  6
CONTINUOUS
 62
    64
 10
54.109987
 20
-79.324597
 11
54.142063
 21
-79.336272
  0
ARC
  8
ボルト／ビス
  6
CONTINUOUS
 62
    64
 10
54.093952
 20
-79.429575
 40
0.104978
 50
90.0
 51
117.278033
  0
LINE
  8
ボルト／ビス
  6
CONTINUOUS
 62
    64
 10
53.789237
 20
-79.324597
 11
54.109987
 21
-79.324597
  0
LINE
  8
ボルト／ビス
  6
CONTINUOUS
 62
    64
 10
54.142063
 20
-79.336272
 11
54.142063
 21
-79.45793
  0
LINE
  8
ボルト／ビス
  6
CONTINUOUS
 62
    64
 10
54.045838
 20
-79.336272
 11
54.045838
 21
-79.45793
  0
LINE
  8
ボルト／ビス
  6
CONTINUOUS
 62
    64
 10
53.757163
 20
-79.336272
 11
53.757163
 21
-79.45793
  0
LINE
  8
ボルト／ビス
  6
CONTINUOUS
 62
    64
 10
53.853387
 20
-79.336272
 11
53.853387
 21
-79.45793
  0
LINE
  8
ボルト／ビス
  6
CONTINUOUS
 10
53.757163
 20
-79.45793
 11
54.142063
 21
-79.45793
  0
LINE
  8
ボルト／ビス
  6
CONTINUOUS
 10
53.749612
 20
-79.45793
 11
53.749612
 21
-79.524597
  0
LINE
  8
ボルト／ビス
  6
CONTINUOUS
 10
53.749612
 20
-79.45793
 11
54.149612
 21
-79.45793
  0
LINE
  8
ボルト／ビス
  6
CONTINUOUS
 10
54.149612
 20
-79.45793
 11
54.149612
 21
-79.524597
  0
ENDBLK
  0
BLOCK
  2
*GRP_0026
 70
    65
 10
0.0
 20
0.0
  0
LINE
  8
ボルト／ビス
  6
CONTINUOUS
 10
142.81621
 20
12.73238
 11
142.349542
 21
12.73238
  0
LINE
  8
ボルト／ビス
  6
CONTINUOUS
 10
142.81621
 20
12.365715
 11
142.749542
 21
12.365715
  0
LINE
  8
ボルト／ビス
  6
CONTINUOUS
 10
142.749542
 20
12.365715
 11
142.749542
 21
13.099048
  0
LINE
  8
ボルト／ビス
  6
CONTINUOUS
 10
142.749542
 20
13.099048
 11
142.81621
 21
13.099048
  0
LINE
  8
ボルト／ビス
  6
CONTINUOUS
 10
142.81621
 20
12.365715
 11
142.81621
 21
13.099048
  0
LINE
  8
ボルト／ビス
  6
CONTINUOUS
 10
142.71621
 20
12.43238
 11
142.749542
 21
12.43238
  0
LINE
  8
ボルト／ビス
  6
CONTINUOUS
 10
142.71621
 20
12.43238
 11
142.71621
 21
13.03238
  0
LINE
  8
ボルト／ビス
  6
CONTINUOUS
 10
142.71621
 20
13.03238
 11
142.749542
 21
13.03238
  0
LINE
  8
ボルト／ビス
  6
CONTINUOUS
 62
    64
 10
142.51621
 20
12.572005
 11
142.527885
 21
12.53993
  0
ARC
  8
ボルト／ビス
  6
CONTINUOUS
 62
    64
 10
142.621186
 20
12.588041
 40
0.104978
 50
152.721967
 51
180.0
  0
ARC
  8
ボルト／ビス
  6
CONTINUOUS
 62
    64
 10
142.91861
 20
12.732378
 40
0.402402
 50
166.165002
 51
193.834985
  0
LINE
  8
ボルト／ビス
  6
CONTINUOUS
 62
    64
 10
142.51621
 20
12.892755
 11
142.527885
 21
12.92483
  0
ARC
  8
ボルト／ビス
  6
CONTINUOUS
 62
    64
 10
142.621186
 20
12.876716
 40
0.104978
 50
180.0
 51
207.278033
  0
LINE
  8
ボルト／ビス
  6
CONTINUOUS
 62
    64
 10
142.51621
 20
12.572005
 11
142.51621
 21
12.892755
  0
LINE
  8
ボルト／ビス
  6
CONTINUOUS
 62
    64
 10
142.527885
 20
12.92483
 11
142.649542
 21
12.92483
  0
LINE
  8
ボルト／ビス
  6
CONTINUOUS
 62
    64
 10
142.527885
 20
12.828605
 11
142.649542
 21
12.828605
  0
LINE
  8
ボルト／ビス
  6
CONTINUOUS
 62
    64
 10
142.527885
 20
12.53993
 11
142.649542
 21
12.53993
  0
LINE
  8
ボルト／ビス
  6
CONTINUOUS
 62
    64
 10
142.527885
 20
12.636155
 11
142.649542
 21
12.636155
  0
LINE
  8
ボルト／ビス
  6
CONTINUOUS
 10
142.649542
 20
12.53993
 11
142.649542
 21
12.92483
  0
LINE
  8
ボルト／ビス
  6
CONTINUOUS
 10
142.649542
 20
12.53238
 11
142.71621
 21
12.53238
  0
LINE
  8
ボルト／ビス
  6
CONTINUOUS
 10
142.649542
 20
12.53238
 11
142.649542
 21
12.93238
  0
LINE
  8
ボルト／ビス
  6
CONTINUOUS
 10
142.649542
 20
12.93238
 11
142.71621
 21
12.93238
  0
ENDBLK
  0
BLOCK
  2
*GRP_0027
 70
    65
 10
0.0
 20
0.0
  0
LINE
  8
ボルト／ビス
  6
CONTINUOUS
 10
142.81621
 20
57.39905
 11
142.349542
 21
57.39905
  0
LINE
  8
ボルト／ビス
  6
CONTINUOUS
 10
142.81621
 20
57.032385
 11
142.749542
 21
57.032385
  0
LINE
  8
ボルト／ビス
  6
CONTINUOUS
 10
142.749542
 20
57.032385
 11
142.749542
 21
57.765718
  0
LINE
  8
ボルト／ビス
  6
CONTINUOUS
 10
142.749542
 20
57.765718
 11
142.81621
 21
57.765718
  0
LINE
  8
ボルト／ビス
  6
CONTINUOUS
 10
142.81621
 20
57.032385
 11
142.81621
 21
57.765718
  0
LINE
  8
ボルト／ビス
  6
CONTINUOUS
 10
142.71621
 20
57.09905
 11
142.749542
 21
57.09905
  0
LINE
  8
ボルト／ビス
  6
CONTINUOUS
 10
142.71621
 20
57.09905
 11
142.71621
 21
57.69905
  0
LINE
  8
ボルト／ビス
  6
CONTINUOUS
 10
142.71621
 20
57.69905
 11
142.749542
 21
57.69905
  0
LINE
  8
ボルト／ビス
  6
CONTINUOUS
 62
    64
 10
142.51621
 20
57.238675
 11
142.527885
 21
57.2066
  0
ARC
  8
ボルト／ビス
  6
CONTINUOUS
 62
    64
 10
142.621186
 20
57.254711
 40
0.104978
 50
152.721967
 51
180.0
  0
ARC
  8
ボルト／ビス
  6
CONTINUOUS
 62
    64
 10
142.91861
 20
57.399048
 40
0.402402
 50
166.165002
 51
193.834985
  0
LINE
  8
ボルト／ビス
  6
CONTINUOUS
 62
    64
 10
142.51621
 20
57.559425
 11
142.527885
 21
57.5915
  0
ARC
  8
ボルト／ビス
  6
CONTINUOUS
 62
    64
 10
142.621186
 20
57.543386
 40
0.104978
 50
180.0
 51
207.278033
  0
LINE
  8
ボルト／ビス
  6
CONTINUOUS
 62
    64
 10
142.51621
 20
57.238675
 11
142.51621
 21
57.559425
  0
LINE
  8
ボルト／ビス
  6
CONTINUOUS
 62
    64
 10
142.527885
 20
57.5915
 11
142.649542
 21
57.5915
  0
LINE
  8
ボルト／ビス
  6
CONTINUOUS
 62
    64
 10
142.527885
 20
57.495275
 11
142.649542
 21
57.495275
  0
LINE
  8
ボルト／ビス
  6
CONTINUOUS
 62
    64
 10
142.527885
 20
57.2066
 11
142.649542
 21
57.2066
  0
LINE
  8
ボルト／ビス
  6
CONTINUOUS
 62
    64
 10
142.527885
 20
57.302825
 11
142.649542
 21
57.302825
  0
LINE
  8
ボルト／ビス
  6
CONTINUOUS
 10
142.649542
 20
57.2066
 11
142.649542
 21
57.5915
  0
LINE
  8
ボルト／ビス
  6
CONTINUOUS
 10
142.649542
 20
57.19905
 11
142.71621
 21
57.19905
  0
LINE
  8
ボルト／ビス
  6
CONTINUOUS
 10
142.649542
 20
57.19905
 11
142.649542
 21
57.59905
  0
LINE
  8
ボルト／ビス
  6
CONTINUOUS
 10
142.649542
 20
57.59905
 11
142.71621
 21
57.59905
  0
ENDBLK
  0
ENDSEC
  0
SECTION
  2
ENTITIES
  0
POLYLINE
  8
通り芯
  6
CONTINUOUS
 66
     1
 70
     1
  0
VERTEX
  8
通り芯
 10
-210.0
 20
-148.5
  0
VERTEX
  8
通り芯
 10
210.0
 20
-148.5
  0
VERTEX
  8
通り芯
 10
210.0
 20
148.5
  0
VERTEX
  8
通り芯
 10
-210.0
 20
148.5
  0
SEQEND
  0
INSERT
  2
*GRP_0001
  8
型材断面
  6
CONTINUOUS
 10
0.0
 20
0.0
  0
LINE
  8
型材断面
  6
DASHDOT
 10
53.282945
 20
-87.251428
 11
53.282945
 21
56.73238
  0
LINE
  8
型材断面
  6
DASHDOT
 10
-30.050388
 20
-87.251428
 11
-30.050388
 21
56.73238
  0
LINE
  8
型材断面
  6
DASHDOT
 10
-113.383723
 20
-87.251428
 11
-113.383723
 21
56.73238
  0
LINE
  8
型材断面
  6
DASHDOT
 10
150.959707
 20
56.73238
 11
-113.383723
 21
56.73238
  0
LINE
  8
型材断面
  6
DASHDOT
 10
150.959707
 20
35.065715
 11
-113.383723
 21
35.065715
  0
LINE
  8
型材断面
  6
DASHDOT
 10
150.959707
 20
13.399048
 11
-113.383723
 21
13.399048
  0
LINE
  8
型材断面
  6
CONTINUOUS
 10
-116.013853
 20
35.065715
 11
-118.60436
 21
36.561345
  0
LINE
  8
型材断面
  6
CONTINUOUS
 10
-116.013853
 20
35.065715
 11
-118.60436
 21
33.570085
  0
LINE
  8
型材断面
  6
CONTINUOUS
 10
-118.60436
 20
33.570085
 11
-118.60436
 21
36.561345
  0
LINE
  8
型材断面
  6
CONTINUOUS
 10
-96.717055
 20
59.36251
 11
-98.212685
 21
61.953017
  0
LINE
  8
型材断面
  6
CONTINUOUS
 10
-96.717055
 20
59.36251
 11
-95.221425
 21
61.953017
  0
LINE
  8
型材断面
  6
CONTINUOUS
 10
-95.221425
 20
61.953017
 11
-98.212685
 21
61.953017
  0
LINE
  8
型材断面
  6
CONTINUOUS
 10
-154.23593
 20
101.239727
 11
-155.73156
 21
98.64922
  0
LINE
  8
型材断面
  6
CONTINUOUS
 10
-154.23593
 20
101.239727
 11
-152.7403
 21
98.64922
  0
LINE
  8
型材断面
  6
CONTINUOUS
 10
-152.7403
 20
98.64922
 11
-155.73156
 21
98.64922
  0
LINE
  8
型材断面
  6
CONTINUOUS
 10
-160.258518
 20
97.710625
 11
-114.01674
 21
97.710625
  0
LINE
  8
型材断面
  6
CONTINUOUS
 10
-96.717055
 20
10.76892
 11
-98.212685
 21
8.178413
  0
LINE
  8
型材断面
  6
CONTINUOUS
 10
-96.717055
 20
10.76892
 11
-95.221425
 21
8.178413
  0
LINE
  8
型材断面
  6
CONTINUOUS
 10
-95.221425
 20
8.178413
 11
-98.212685
 21
8.178413
  0
LINE
  8
型材断面
  6
CONTINUOUS
 10
55.913077
 20
35.065715
 11
58.503585
 21
36.561345
  0
LINE
  8
型材断面
  6
CONTINUOUS
 10
55.913077
 20
35.065715
 11
58.503585
 21
33.570085
  0
LINE
  8
型材断面
  6
CONTINUOUS
 10
58.503585
 20
33.570085
 11
58.503585
 21
36.561345
  0
LINE
  8
型材断面
  6
CONTINUOUS
 10
36.61628
 20
59.36251
 11
38.11191
 21
61.953017
  0
LINE
  8
型材断面
  6
CONTINUOUS
 10
36.61628
 20
59.36251
 11
35.12065
 21
61.953017
  0
LINE
  8
型材断面
  6
CONTINUOUS
 10
35.12065
 20
61.953017
 11
38.11191
 21
61.953017
  0
LINE
  8
型材断面
  6
CONTINUOUS
 10
36.61628
 20
10.76892
 11
38.11191
 21
8.178413
  0
LINE
  8
型材断面
  6
CONTINUOUS
 10
36.61628
 20
10.76892
 11
35.12065
 21
8.178413
  0
LINE
  8
型材断面
  6
CONTINUOUS
 10
35.12065
 20
8.178413
 11
38.11191
 21
8.178413
  0
LINE
  8
型材断面
  6
CONTINUOUS
 10
-30.050388
 20
59.36251
 11
-31.546018
 21
61.953017
  0
LINE
  8
型材断面
  6
CONTINUOUS
 10
-30.050388
 20
59.36251
 11
-28.554757
 21
61.953017
  0
LINE
  8
型材断面
  6
CONTINUOUS
 10
-28.554757
 20
61.953017
 11
-31.546018
 21
61.953017
  0
LINE
  8
型材断面
  6
CONTINUOUS
 10
-30.050388
 20
10.76892
 11
-31.546018
 21
8.178413
  0
LINE
  8
型材断面
  6
CONTINUOUS
 10
-30.050388
 20
10.76892
 11
-28.554757
 21
8.178413
  0
LINE
  8
型材断面
  6
CONTINUOUS
 10
-28.554757
 20
8.178413
 11
-31.546018
 21
8.178413
  0
LINE
  8
型材断面
  6
CONTINUOUS
 10
-160.258518
 20
92.29242
 11
-114.01674
 21
92.29242
  0
LINE
  8
型材断面
  6
CONTINUOUS
 10
145.349495
 20
58.889195
 11
144.899495
 21
58.889195
  0
LINE
  8
型材断面
  6
CONTINUOUS
 62
    47
 10
144.899495
 20
59.339195
 11
144.399495
 21
59.339195
  0
LINE
  8
型材断面
  6
CONTINUOUS
 62
    47
 10
144.399495
 20
59.339195
 11
143.81621
 21
57.464738
  0
LINE
  8
型材断面
  6
CONTINUOUS
 10
144.399495
 20
59.339195
 11
144.399495
 21
35.065715
  0
LINE
  8
型材断面
  6
CONTINUOUS
 10
145.349495
 20
58.889195
 11
145.349495
 21
35.065715
  0
LINE
  8
型材断面
  6
CONTINUOUS
 10
145.349495
 20
11.242235
 11
144.899495
 21
11.242235
  0
LINE
  8
型材断面
  6
CONTINUOUS
 62
    47
 10
144.899495
 20
10.792235
 11
144.399495
 21
10.792235
  0
LINE
  8
型材断面
  6
CONTINUOUS
 62
    47
 10
144.399495
 20
10.792235
 11
143.81621
 21
12.666692
  0
LINE
  8
型材断面
  6
CONTINUOUS
 10
144.399495
 20
10.792235
 11
144.399495
 21
35.065715
  0
LINE
  8
型材断面
  6
CONTINUOUS
 10
145.349495
 20
11.242235
 11
145.349495
 21
35.065715
  0
LINE
  8
型材断面
  6
CONTINUOUS
 10
55.439758
 20
-82.157882
 11
55.439758
 21
-81.707882
  0
LINE
  8
型材断面
  6
CONTINUOUS
 62
    47
 10
55.889758
 20
-81.707882
 11
55.889758
 21
-81.207882
  0
LINE
  8
型材断面
  6
CONTINUOUS
 62
    47
 10
55.889758
 20
-81.207882
 11
54.0153
 21
-80.624597
  0
LINE
  8
型材断面
  6
CONTINUOUS
 10
55.349612
 20
11.33238
 11
55.889758
 21
10.792235
  0
LINE
  8
型材断面
  6
CONTINUOUS
 10
55.889758
 20
10.792235
 11
55.889758
 21
35.065715
  0
LINE
  8
型材断面
  6
CONTINUOUS
 10
55.889758
 20
10.792235
 11
-30.050388
 21
10.79226
  0
LINE
  8
型材断面
  6
CONTINUOUS
 10
55.349612
 20
58.79905
 11
55.889758
 21
59.339195
  0
LINE
  8
型材断面
  6
CONTINUOUS
 10
55.889758
 20
59.339195
 11
55.889758
 21
35.065715
  0
LINE
  8
型材断面
  6
CONTINUOUS
 10
55.889758
 20
59.339195
 11
-30.050388
 21
59.33917
  0
LINE
  8
型材断面
  6
CONTINUOUS
 10
-115.450388
 20
58.79905
 11
-115.990532
 21
59.339195
  0
LINE
  8
型材断面
  6
CONTINUOUS
 10
-115.990532
 20
59.339195
 11
-115.990532
 21
35.065715
  0
LINE
  8
型材断面
  6
CONTINUOUS
 10
-115.990532
 20
59.339195
 11
-30.050388
 21
59.33917
  0
LINE
  8
型材断面
  6
CONTINUOUS
 10
-115.450388
 20
11.33238
 11
-115.990532
 21
10.792235
  0
LINE
  8
型材断面
  6
CONTINUOUS
 10
-115.990532
 20
10.792235
 11
-115.990532
 21
35.065715
  0
LINE
  8
型材断面
  6
CONTINUOUS
 10
-115.990532
 20
10.792235
 11
-30.050388
 21
10.79226
  0
LINE
  8
型材断面
  6
CONTINUOUS
 10
55.889758
 20
-81.207882
 11
-30.050388
 21
-81.207882
  0
LINE
  8
型材断面
  6
CONTINUOUS
 10
55.439758
 20
-82.157882
 11
-30.050388
 21
-82.157882
  0
LINE
  8
型材断面
  6
CONTINUOUS
 10
-115.540532
 20
-82.157882
 11
-115.540532
 21
-81.707882
  0
LINE
  8
型材断面
  6
CONTINUOUS
 62
    47
 10
-115.990532
 20
-81.707882
 11
-115.990532
 21
-81.207882
  0
LINE
  8
型材断面
  6
CONTINUOUS
 62
    47
 10
-115.990532
 20
-81.207882
 11
-114.116075
 21
-80.624597
  0
LINE
  8
型材断面
  6
CONTINUOUS
 10
-115.990532
 20
-81.207882
 11
-30.050388
 21
-81.207882
  0
LINE
  8
型材断面
  6
CONTINUOUS
 10
-115.540532
 20
-82.157882
 11
-30.050388
 21
-82.157882
  0
LINE
  8
型材断面
  6
DASHDOT
 10
-80.18039
 20
13.399048
 11
-80.18039
 21
56.73238
  0
LINE
  8
型材断面
  6
DOT
 10
-78.93039
 20
13.399048
 11
-78.93039
 21
56.73238
  0
LINE
  8
型材断面
  6
DOT
 10
-81.43039
 20
13.399048
 11
-81.43039
 21
56.73238
  0
LINE
  8
型材断面
  6
DASHDOT
 10
-46.76039
 20
13.399048
 11
-46.76039
 21
56.73238
  0
LINE
  8
型材断面
  6
DOT
 10
-45.51039
 20
13.399048
 11
-45.51039
 21
56.73238
  0
LINE
  8
型材断面
  6
DOT
 10
-48.01039
 20
13.399048
 11
-48.01039
 21
56.73238
  0
LINE
  8
型材断面
  6
DASHDOT
 10
20.079615
 20
13.399048
 11
20.079615
 21
56.73238
  0
LINE
  8
型材断面
  6
DOT
 10
18.829615
 20
13.399048
 11
18.829615
 21
56.73238
  0
LINE
  8
型材断面
  6
DOT
 10
21.329615
 20
13.399048
 11
21.329615
 21
56.73238
  0
LINE
  8
型材断面
  6
DASHDOT
 10
-13.340385
 20
13.399048
 11
-13.340385
 21
56.73238
  0
LINE
  8
型材断面
  6
DOT
 10
-14.590385
 20
13.399048
 11
-14.590385
 21
56.73238
  0
LINE
  8
型材断面
  6
DOT
 10
-12.090385
 20
13.399048
 11
-12.090385
 21
56.73238
  0
LINE
  8
ガラス
  6
CONTINUOUS
 10
110.542098
 20
-45.156955
 11
110.542098
 21
-87.823622
  0
LINE
  8
ガラス
  6
CONTINUOUS
 10
142.862097
 20
-45.156955
 11
142.862097
 21
-87.823622
  0
LINE
  8
ガラス
  6
CONTINUOUS
 10
110.542098
 20
-45.156955
 11
142.862097
 21
-45.156955
  0
LINE
  8
ガラス
  6
CONTINUOUS
 10
110.542098
 20
-87.823622
 11
142.862097
 21
-87.823622
  0
TEXT
  7
TextStyle03
  8
文字
  6
CONTINUOUS
 10
-151.425
 20
98.85
  1
は排水穴位置を示す
 40
3.0
 72
     5
 11
-121.425
 21
98.85
  0
TEXT
  7
TextStyle03
  8
文字
  6
CONTINUOUS
 10
124.05
 20
-81.275
  1
網入り6.8t
 40
3.0
 72
     5
 11
140.7375
 21
-81.275
  0
TEXT
  7
TextStyle03
  8
文字
  6
CONTINUOUS
 10
130.725
 20
-85.95
  1
×５枚
 40
3.0
 72
     5
 11
140.475
 21
-85.95
  0
TEXT
  7
TextStyle03
  8
文字
  6
CONTINUOUS
 10
-150.95
 20
23.975
  1
アンカーピッチ
 40
3.0
 50
90.0
 72
     5
 11
-150.95
 21
47.225
  0
TEXT
  7
TextStyle03
  8
文字
  6
CONTINUOUS
 10
-102.65
 20
94.175
  1
アンカーピッチ
 40
3.0
 72
     5
 11
-79.4
 21
94.175
  0
TEXT
  7
TextStyle03
  8
文字
  6
CONTINUOUS
 10
-155.15
 20
93.2
  1
アンカー数量　１８ヶ所
 40
3.0
 72
     5
 11
-118.4
 21
93.2
  0
TEXT
  7
TextStyle03
  8
文字
  6
CONTINUOUS
 10
78.1
 20
125.25
  1
シリーズ：ＳＴＤＫＬ
 40
5.0
 72
     5
 11
133.725
 21
125.25
  0
TEXT
  7
TextStyle03
  8
文字
  6
CONTINUOUS
 10
78.1
 20
119.625
  1
　　　　　（固定）1300×5000タイプ
 40
5.0
 72
     5
 11
173.1
 21
119.625
  0
TEXT
  7
TextStyle03
  8
文字
  6
CONTINUOUS
 10
78.1
 20
114.0
  1
図面名　：外観姿図
 40
5.0
 72
     5
 11
128.1
 21
114.0
  0
TEXT
  7
TextStyle03
  8
文字
  6
CONTINUOUS
 10
78.1
 20
108.375
  1
　　　　　　
 40
5.0
 72
     5
 11
111.225
 21
108.375
  0
TEXT
  7
TextStyle03
  8
文字
  6
CONTINUOUS
 10
77.4
 20
104.5
  1
ＮＳコード：ＮＳＫＳＬ
 40
5.0
 72
     5
 11
138.65
 21
104.5
  0
INSERT
  2
*DIM_0002
  8
寸法
  6
CONTINUOUS
 10
0.0
 20
0.0
  0
INSERT
  2
*DIM_0003
  8
寸法
  6
CONTINUOUS
 10
0.0
 20
0.0
  0
INSERT
  2
*DIM_0004
  8
寸法
  6
CONTINUOUS
 10
0.0
 20
0.0
  0
INSERT
  2
*DIM_0005
  8
寸法
  6
CONTINUOUS
 10
0.0
 20
0.0
  0
INSERT
  2
*DIM_0006
  8
寸法
  6
CONTINUOUS
 10
0.0
 20
0.0
  0
INSERT
  2
*DIM_0007
  8
寸法
  6
CONTINUOUS
 10
0.0
 20
0.0
  0
INSERT
  2
*DIM_0008
  8
寸法
  6
CONTINUOUS
 10
0.0
 20
0.0
  0
INSERT
  2
*DIM_0009
  8
寸法
  6
CONTINUOUS
 10
0.0
 20
0.0
  0
INSERT
  2
*DIM_0010
  8
寸法
  6
CONTINUOUS
 10
0.0
 20
0.0
  0
INSERT
  2
*DIM_0011
  8
寸法
  6
CONTINUOUS
 10
0.0
 20
0.0
  0
INSERT
  2
*DIM_0012
  8
寸法
  6
CONTINUOUS
 10
0.0
 20
0.0
  0
INSERT
  2
*DIM_0013
  8
寸法
  6
CONTINUOUS
 10
0.0
 20
0.0
  0
INSERT
  2
*DIM_0015
  8
寸法
  6
CONTINUOUS
 10
0.0
 20
0.0
  0
INSERT
  2
*DIM_0016
  8
寸法
  6
CONTINUOUS
 10
0.0
 20
0.0
  0
INSERT
  2
*DIM_0017
  8
寸法
  6
CONTINUOUS
 10
0.0
 20
0.0
  0
INSERT
  2
*DIM_0018
  8
寸法
  6
CONTINUOUS
 10
0.0
 20
0.0
  0
INSERT
  2
*DIM_0019
  8
寸法
  6
CONTINUOUS
 10
0.0
 20
0.0
  0
INSERT
  2
*DIM_0020
  8
寸法
  6
CONTINUOUS
 10
0.0
 20
0.0
  0
INSERT
  2
*DIM_0021
  8
寸法
  6
CONTINUOUS
 10
0.0
 20
0.0
  0
INSERT
  2
*DIM_0022
  8
寸法
  6
CONTINUOUS
 10
0.0
 20
0.0
  0
INSERT
  2
*DIM_0023
  8
寸法
  6
CONTINUOUS
 10
0.0
 20
0.0
  0
LINE
  8
別途部材
  6
CONTINUOUS
 10
55.349612
 20
11.33238
 11
54.949612
 21
11.73238
  0
LINE
  8
別途部材
  6
CONTINUOUS
 10
53.282945
 20
13.399048
 11
45.22369
 21
21.458305
  0
LINE
  8
別途部材
  6
CONTINUOUS
 10
54.949612
 20
11.73238
 11
54.949612
 21
35.065715
  0
LINE
  8
別途部材
  6
CONTINUOUS
 10
55.349612
 20
11.33238
 11
55.349612
 21
35.065715
  0
LINE
  8
別途部材
  6
CONTINUOUS
 10
55.349612
 20
58.79905
 11
54.949612
 21
58.39905
  0
LINE
  8
別途部材
  6
CONTINUOUS
 10
53.282945
 20
56.732382
 11
45.22369
 21
48.673125
  0
LINE
  8
別途部材
  6
CONTINUOUS
 10
54.949612
 20
58.39905
 11
54.949612
 21
35.065715
  0
LINE
  8
別途部材
  6
CONTINUOUS
 10
55.349612
 20
58.79905
 11
55.349612
 21
35.065715
  0
LINE
  8
別途部材
  6
CONTINUOUS
 10
55.349612
 20
58.79905
 11
-30.050388
 21
58.79905
  0
LINE
  8
別途部材
  6
CONTINUOUS
 10
54.949612
 20
58.39905
 11
-30.050388
 21
58.39905
  0
LINE
  8
別途部材
  6
CONTINUOUS
 10
54.949612
 20
11.73238
 11
-30.050388
 21
11.73238
  0
LINE
  8
別途部材
  6
CONTINUOUS
 10
55.349612
 20
11.33238
 11
-30.050388
 21
11.33238
  0
LINE
  8
別途部材
  6
CONTINUOUS
 10
-115.450388
 20
11.33238
 11
-115.050388
 21
11.73238
  0
LINE
  8
別途部材
  6
CONTINUOUS
 10
-113.38372
 20
13.399048
 11
-105.324465
 21
21.458305
  0
LINE
  8
別途部材
  6
CONTINUOUS
 10
-115.050388
 20
11.73238
 11
-115.050388
 21
35.065715
  0
LINE
  8
別途部材
  6
CONTINUOUS
 10
-115.450388
 20
11.33238
 11
-115.450388
 21
35.065715
  0
LINE
  8
別途部材
  6
CONTINUOUS
 10
-115.450388
 20
58.79905
 11
-115.050388
 21
58.39905
  0
LINE
  8
別途部材
  6
CONTINUOUS
 10
-113.38372
 20
56.732382
 11
-105.324465
 21
48.673125
  0
LINE
  8
別途部材
  6
CONTINUOUS
 10
-115.050388
 20
58.39905
 11
-115.050388
 21
35.065715
  0
LINE
  8
別途部材
  6
CONTINUOUS
 10
-115.450388
 20
58.79905
 11
-115.450388
 21
35.065715
  0
LINE
  8
別途部材
  6
CONTINUOUS
 10
-115.450388
 20
58.79905
 11
-30.050388
 21
58.79905
  0
LINE
  8
別途部材
  6
CONTINUOUS
 10
-115.050388
 20
58.39905
 11
-30.050388
 21
58.39905
  0
LINE
  8
別途部材
  6
CONTINUOUS
 10
-115.050388
 20
11.73238
 11
-30.050388
 21
11.73238
  0
LINE
  8
別途部材
  6
CONTINUOUS
 10
-115.450388
 20
11.33238
 11
-30.050388
 21
11.33238
  0
LINE
  8
別途部材
  6
CONTINUOUS
 62
    96
 10
142.81621
 20
11.73238
 11
143.81621
 21
11.33238
  0
LINE
  8
別途部材
  6
CONTINUOUS
 10
143.81621
 20
11.33238
 11
143.81621
 21
35.065715
  0
LINE
  8
別途部材
  6
CONTINUOUS
 62
    96
 10
142.81621
 20
11.73238
 11
142.81621
 21
35.065715
  0
LINE
  8
別途部材
  6
CONTINUOUS
 62
    96
 10
142.81621
 20
58.39905
 11
143.81621
 21
58.79905
  0
LINE
  8
別途部材
  6
CONTINUOUS
 10
143.81621
 20
58.79905
 11
143.81621
 21
35.065715
  0
LINE
  8
別途部材
  6
CONTINUOUS
 62
    96
 10
142.81621
 20
58.39905
 11
142.81621
 21
35.065715
  0
ARC
  8
別途部材
  6
CONTINUOUS
 10
157.101922
 20
35.065713
 40
25.95238
 50
123.398485
 51
236.601515
  0
INSERT
  2
*GRP_0014
  8
別途部材
  6
CONTINUOUS
 10
0.0
 20
0.0
  0
INSERT
  2
*GRP_0024
  8
別途部材
  6
DOT
 10
0.0
 20
0.0
  0
INSERT
  2
*GRP_0025
  8
別途部材
  6
DOT
 10
0.0
 20
0.0
  0
INSERT
  2
*GRP_0026
  8
別途部材
  6
DOT
 10
0.0
 20
0.0
  0
INSERT
  2
*GRP_0027
  8
別途部材
  6
DOT
 10
0.0
 20
0.0
  0
LINE
  8
St
  6
CONTINUOUS
 62
    47
 10
144.899495
 20
59.339195
 11
144.899495
 21
35.065715
  0
LINE
  8
St
  6
CONTINUOUS
 62
    47
 10
144.899495
 20
10.792235
 11
144.899495
 21
35.065715
  0
LINE
  8
St
  6
CONTINUOUS
 62
    47
 10
55.889758
 20
-81.707882
 11
-30.050388
 21
-81.707882
  0
LINE
  8
St
  6
CONTINUOUS
 62
    47
 10
-115.990532
 20
-81.707882
 11
-30.050388
 21
-81.707882
  0
ENDSEC
  0
EOF
