  0
SECTION
  2
HEADER
  9
$EXTMIN
 10
-210.0
 20
-148.5
  9
$EXTMAX
 10
210.0
 20
148.5
  9
$PDMODE
 70
    32
  9
$PDSIZE
 40
1.5
  9
$LTSCALE
 40
10.0
  0
ENDSEC
  0
SECTION
  2
TABLES
  0
TABLE
  2
LTYPE
 70
    15
  0
LTYPE
  2
CONTINUOUS
 70
    64
  3
実線
 72
    65
 73
     0
 40
0.0
  0
LTYPE
  2
DASHED
 70
    64
  3
破線A
 72
    65
 73
     2
 40
0.6
 49
0.4
 49
-0.2
  0
LTYPE
  2
DASHEDX2
 70
    64
  3
破線B
 72
    65
 73
     2
 40
1.3
 49
0.9
 49
-0.4
  0
LTYPE
  2
DASHDOT
 70
    64
  3
１点鎖線A
 72
    65
 73
     4
 40
0.5375
 49
0.375
 49
-0.05
 49
0.0625
 49
-0.05
  0
LTYPE
  2
DASHDOTX2
 70
    64
  3
１点鎖線B
 72
    65
 73
     4
 40
1.075
 49
0.75
 49
-0.1
 49
0.125
 49
-0.1
  0
LTYPE
  2
DIVIDE2
 70
    64
  3
２点鎖線A
 72
    65
 73
     6
 40
0.5125
 49
0.3
 49
-0.0375
 49
0.05
 49
-0.0375
 49
0.05
 49
-0.0375
  0
LTYPE
  2
DIVIDE
 70
    64
  3
２点鎖線B
 72
    65
 73
     6
 40
1.05
 49
0.55
 49
-0.1
 49
0.1
 49
-0.1
 49
0.1
 49
-0.1
  0
LTYPE
  2
DOT
 70
    64
  3
点線A
 72
    65
 73
     2
 40
0.1125
 49
0.0625
 49
-0.05
  0
LTYPE
  2
DOTX2
 70
    64
  3
点線B
 72
    65
 73
     2
 40
0.275
 49
0.15
 49
-0.125
  0
LTYPE
  2
CONTINUOUS
 70
    64
  3
実線
 72
    65
 73
     0
 40
0.0
  0
LTYPE
  2
CONTINUOUS
 70
    64
  3
実線
 72
    65
 73
     0
 40
0.0
  0
LTYPE
  2
CONTINUOUS
 70
    64
  3
実線
 72
    65
 73
     0
 40
0.0
  0
LTYPE
  2
CONTINUOUS
 70
    64
  3
実線
 72
    65
 73
     0
 40
0.0
  0
LTYPE
  2
CONTINUOUS
 70
    64
  3
実線
 72
    65
 73
     0
 40
0.0
  0
LTYPE
  2
CONTINUOUS
 70
    64
  3
実線
 72
    65
 73
     0
 40
0.0
  0
ENDTAB
  0
TABLE
  2
LAYER
 70
    34
  0
LAYER
  2
通り芯
 70
     0
 62
    15
  6
CONTINUOUS
  0
LAYER
  2
補助線
 70
     0
 62
    16
  6
DOT
  0
LAYER
  2
躯体
 70
     0
 62
    31
  6
CONTINUOUS
  0
LAYER
  2
型材
 70
     0
 62
    32
  6
CONTINUOUS
  0
LAYER
  2
型材断面
 70
     0
 62
    47
  6
CONTINUOUS
  0
LAYER
  2
ガラス
 70
     0
 62
    48
  6
CONTINUOUS
  0
LAYER
  2
ゴム等
 70
     0
 62
    63
  6
CONTINUOUS
  0
LAYER
  2
ボルト／ビス
 70
     0
 62
    64
  6
CONTINUOUS
  0
LAYER
  2
文字
 70
     0
 62
    79
  6
CONTINUOUS
  0
LAYER
  2
寸法
 70
     0
 62
    80
  6
CONTINUOUS
  0
LAYER
  2
ﾊｯﾁﾝｸﾞ
 70
     0
 62
    95
  6
CONTINUOUS
  0
LAYER
  2
別途部材
 70
     0
 62
    96
  6
CONTINUOUS
  0
LAYER
  2
曲げ物
 70
     0
 62
   111
  6
CONTINUOUS
  0
LAYER
  2
鉄骨等
 70
     0
 62
   112
  6
CONTINUOUS
  0
LAYER
  2
St
 70
     0
 62
   127
  6
CONTINUOUS
  0
LAYER
  2
その他部品等
 70
     0
 62
   128
  6
CONTINUOUS
  0
LAYER
  2
ｶﾞｽｹｯﾄ
 70
     0
 62
   143
  6
CONTINUOUS
  0
LAYER
  2
ｽｹｯﾁ
 70
     0
 62
    14
  6
CONTINUOUS
  0
LAYER
  2
0
 70
     0
 62
    17
  6
CONTINUOUS
  0
LAYER
  2
1
 70
     0
 62
    30
  6
CONTINUOUS
  0
LAYER
  2
4
 70
     0
 62
    33
  6
CONTINUOUS
  0
LAYER
  2
ﾚｲﾔ3
 70
     0
 62
    46
  6
CONTINUOUS
  0
LAYER
  2
外形線
 70
     0
 62
    49
  6
CONTINUOUS
  0
LAYER
  2
部品
 70
     0
 62
    14
  6
CONTINUOUS
  0
LAYER
  2
サッシ芯
 70
     0
 62
    17
  6
DASHDOTX2
  0
LAYER
  2
寸法線
 70
     0
 62
    62
  6
CONTINUOUS
  0
LAYER
  2
姿図外形線
 70
     0
 62
    65
  6
CONTINUOUS
  0
LAYER
  2
姿補助線
 70
     0
 62
    30
  6
CONTINUOUS
  0
LAYER
  2
透視線
 70
     0
 62
    78
  6
DOT
  0
LAYER
  2
用紙
 70
     0
 62
    81
  6
CONTINUOUS
  0
LAYER
  2
実線図枠
 70
     0
 62
    94
  6
CONTINUOUS
  0
LAYER
  2
補助図枠
 70
     0
 62
    97
  6
CONTINUOUS
  0
LAYER
  2
建具記号
 70
     0
 62
   110
  6
CONTINUOUS
  0
LAYER
  2
補助文字
 70
     0
 62
   113
  6
CONTINUOUS
  0
ENDTAB
  0
TABLE
  2
STYLE
 70
    10
  0
STYLE
  2
STANDARD
 70
     0
 40
1.0
 41
1.0
 42
1.0
 50
0.0
 71
     0
  3
TXT
  4
BIGFONT
  0
STYLE
  2
TATE
 70
     4
 40
1.0
 41
1.0
 42
1.0
 50
0.0
 71
     0
  3
TXT
  4
BIGFONT
  0
STYLE
  2
TextStyle03
 70
     0
 40
1.0
 41
1.0
 42
1.0
 50
0.0
 71
     0
  3
MONOTXT
  4
BIGFONT
  0
STYLE
  2
TextStyle04
 70
     0
 40
1.0
 41
1.0
 42
1.0
 50
0.0
 71
     0
  3
MONOTXT
  4
BIGFONT
  0
STYLE
  2
TextStyle05
 70
     0
 40
1.0
 41
1.0
 42
1.0
 50
0.0
 71
     0
  3
MONOTXT
  4
BIGFONT
  0
STYLE
  2
TextStyle06
 70
     0
 40
1.0
 41
1.0
 42
1.0
 50
0.0
 71
     0
  3
MONOTXT
  4
BIGFONT
  0
STYLE
  2
TextStyle07
 70
     0
 40
1.0
 41
1.0
 42
1.0
 50
0.0
 71
     0
  3
MONOTXT
  4
BIGFONT
  0
STYLE
  2
TextStyle08
 70
     0
 40
1.0
 41
1.0
 42
1.0
 50
0.0
 71
     0
  3
MONOTXT
  4
BIGFONT
  0
STYLE
  2
TextStyle09
 70
     0
 40
1.0
 41
1.0
 42
1.0
 50
0.0
 71
     0
  3
MONOTXT
  4
BIGFONT
  0
STYLE
  2
TextStyle10
 70
     0
 40
1.0
 41
1.0
 42
1.0
 50
0.0
 71
     0
  3
MONOTXT
  4
BIGFONT
  0
ENDTAB
  0
ENDSEC
  0
SECTION
  2
BLOCKS
  0
BLOCK
  2
*GRP_0001
 70
    65
 10
0.0
 20
0.0
  0
LINE
  8
型材断面
  6
CONTINUOUS
 10
195.0
 20
133.5
 11
195.0
 21
-133.5
  0
LINE
  8
型材断面
  6
CONTINUOUS
 10
195.0
 20
-133.5
 11
-185.0
 21
-133.5
  0
LINE
  8
型材断面
  6
CONTINUOUS
 10
-185.0
 20
-133.5
 11
-185.0
 21
133.5
  0
LINE
  8
型材断面
  6
CONTINUOUS
 10
195.0
 20
133.5
 11
-185.0
 21
133.5
  0
LINE
  8
型材断面
  6
CONTINUOUS
 10
145.0
 20
-133.5
 11
145.0
 21
-118.5
  0
LINE
  8
型材断面
  6
CONTINUOUS
 10
195.0
 20
-118.5
 11
145.0
 21
-118.5
  0
ENDBLK
  0
BLOCK
  2
*DIM_0002
 70
    65
 10
0.0
 20
0.0
  0
LINE
  8
寸法
  6
BYBLOCK
 62
     0
 10
-128.742993
 20
-22.207025
 11
-128.742993
 21
-22.536362
  0
LINE
  8
寸法
  6
BYBLOCK
 62
     0
 10
71.257007
 20
-22.207025
 11
71.257007
 21
-22.536362
  0
LINE
  8
寸法
  6
BYBLOCK
 62
     0
 10
-128.742993
 20
-22.536362
 11
71.257007
 21
-22.536362
  0
POINT
  8
寸法
 62
     0
 10
-128.742993
 20
-22.536362
  0
POINT
  8
寸法
 62
     0
 10
71.257007
 20
-22.536362
  0
TEXT
  7
TextStyle03
  8
寸法
  6
CONTINUOUS
 62
     0
 10
-40.46875
 20
-22.175
  1
呼称寸法　6000
 40
3.0
 72
     5
 11
-17.03125
 21
-22.175
  0
ENDBLK
  0
BLOCK
  2
*DIM_0003
 70
    65
 10
0.0
 20
0.0
  0
LINE
  8
寸法
  6
BYBLOCK
 62
     0
 10
50.59034
 20
-67.95793
 11
87.226657
 21
-67.95793
  0
LINE
  8
寸法
  6
BYBLOCK
 62
     0
 10
87.226657
 20
-79.624597
 11
87.226657
 21
-67.95793
  0
POINT
  8
寸法
 62
     0
 10
87.226657
 20
-79.624597
  0
POINT
  8
寸法
 62
     0
 10
87.226657
 20
-67.95793
  0
TEXT
  7
TextStyle03
  8
寸法
  6
CONTINUOUS
 62
     0
 10
86.85
 20
-76.2375
  1
350
 40
3.0
 50
90.0
 72
     5
 11
86.85
 21
-71.3625
  0
ENDBLK
  0
BLOCK
  2
*DIM_0004
 70
    65
 10
0.0
 20
0.0
  0
LINE
  8
寸法
  6
BYBLOCK
 62
     0
 10
-112.076325
 20
9.76892
 11
-112.076325
 21
4.684867
  0
LINE
  8
寸法
  6
BYBLOCK
 62
     0
 10
-28.742993
 20
9.76892
 11
-28.742993
 21
4.684867
  0
LINE
  8
寸法
  6
BYBLOCK
 62
     0
 10
-112.076325
 20
4.684867
 11
-28.742993
 21
4.684867
  0
POINT
  8
寸法
 62
     0
 10
-112.076325
 20
4.684867
  0
POINT
  8
寸法
 62
     0
 10
-28.742993
 20
4.684867
  0
TEXT
  7
TextStyle03
  8
寸法
  6
CONTINUOUS
 62
     0
 10
-73.70625
 20
5.05
  1
2500
 40
3.0
 72
     5
 11
-67.14375
 21
5.05
  0
ENDBLK
  0
BLOCK
  2
*DIM_0005
 70
    65
 10
0.0
 20
0.0
  0
LINE
  8
寸法
  6
BYBLOCK
 62
     0
 10
54.59034
 20
9.76892
 11
54.59034
 21
4.684867
  0
LINE
  8
寸法
  6
BYBLOCK
 62
     0
 10
-28.742993
 20
4.684867
 11
54.59034
 21
4.684867
  0
POINT
  8
寸法
 62
     0
 10
54.59034
 20
4.684867
  0
TEXT
  7
TextStyle03
  8
寸法
  6
CONTINUOUS
 62
     0
 10
9.61875
 20
5.05
  1
2500
 40
3.0
 72
     5
 11
16.18125
 21
5.05
  0
ENDBLK
  0
BLOCK
  2
*DIM_0006
 70
    65
 10
0.0
 20
0.0
  0
LINE
  8
寸法
  6
BYBLOCK
 62
     0
 10
105.276657
 20
13.399048
 11
105.276657
 21
56.73238
  0
POINT
  8
寸法
 62
     0
 10
105.276657
 20
13.399048
  0
POINT
  8
寸法
 62
     0
 10
105.276657
 20
56.73238
  0
TEXT
  7
TextStyle03
  8
寸法
  6
CONTINUOUS
 62
     0
 10
104.9
 20
23.33125
  1
呼称寸法　1300
 40
3.0
 50
90.0
 72
     5
 11
104.9
 21
46.76875
  0
ENDBLK
  0
BLOCK
  2
*DIM_0007
 70
    65
 10
0.0
 20
0.0
  0
LINE
  8
寸法
  6
BYBLOCK
 62
     0
 10
149.123605
 20
36.065715
 11
149.123605
 21
72.668433
  0
LINE
  8
寸法
  6
BYBLOCK
 62
     0
 10
160.790272
 20
72.668433
 11
149.123605
 21
72.668433
  0
POINT
  8
寸法
 62
     0
 10
149.123605
 20
72.668433
  0
TEXT
  7
TextStyle03
  8
寸法
  6
CONTINUOUS
 62
     0
 10
152.5125
 20
73.025
  1
350
 40
3.0
 72
     5
 11
157.3875
 21
73.025
  0
ENDBLK
  0
BLOCK
  2
*DIM_0008
 70
    65
 10
0.0
 20
0.0
  0
LINE
  8
寸法
  6
BYBLOCK
 62
     0
 10
160.790272
 20
59.39905
 11
160.790272
 21
72.668433
  0
LINE
  8
寸法
  6
BYBLOCK
 62
     0
 10
162.873558
 20
60.339195
 11
162.873558
 21
72.668433
  0
LINE
  8
寸法
  6
BYBLOCK
 62
     0
 10
160.790272
 20
72.668433
 11
162.873558
 21
72.668433
  0
POINT
  8
寸法
 62
     0
 10
160.790272
 20
72.668433
  0
POINT
  8
寸法
 62
     0
 10
162.873558
 20
72.668433
  0
TEXT
  7
TextStyle03
  8
寸法
  6
CONTINUOUS
 62
     0
 10
165.24375
 20
73.025
  1
62.5
 40
3.0
 72
     5
 11
171.80625
 21
73.025
  0
ENDBLK
  0
BLOCK
  2
*DIM_0009
 70
    65
 10
0.0
 20
0.0
  0
LINE
  8
寸法
  6
BYBLOCK
 62
     0
 10
161.373558
 20
59.339195
 11
105.276657
 21
59.339195
  0
LINE
  8
寸法
  6
BYBLOCK
 62
     0
 10
105.276657
 20
56.73238
 11
105.276657
 21
59.339195
  0
POINT
  8
寸法
 62
     0
 10
105.276657
 20
56.73238
  0
POINT
  8
寸法
 62
     0
 10
105.276657
 20
59.339195
  0
TEXT
  7
TextStyle03
  8
寸法
  6
CONTINUOUS
 62
     0
 10
104.85
 20
61.49375
  1
78.2
 40
3.0
 50
90.0
 72
     5
 11
104.85
 21
68.05625
  0
ENDBLK
  0
BLOCK
  2
*DIM_0010
 70
    65
 10
0.0
 20
0.0
  0
LINE
  8
寸法
  6
BYBLOCK
 62
     0
 10
161.373558
 20
10.792235
 11
105.276657
 21
10.792235
  0
LINE
  8
寸法
  6
BYBLOCK
 62
     0
 10
105.276657
 20
13.399048
 11
105.276657
 21
10.792235
  0
POINT
  8
寸法
 62
     0
 10
105.276657
 20
13.399048
  0
POINT
  8
寸法
 62
     0
 10
105.276657
 20
10.792235
  0
TEXT
  7
TextStyle03
  8
寸法
  6
CONTINUOUS
 62
     0
 10
104.85
 20
2.04375
  1
78.2
 40
3.0
 50
90.0
 72
     5
 11
104.85
 21
8.60625
  0
ENDBLK
  0
BLOCK
  2
*DIM_0011
 70
    65
 10
0.0
 20
0.0
  0
LINE
  8
寸法
  6
BYBLOCK
 62
     0
 10
73.923675
 20
-79.624597
 11
87.226657
 21
-79.624597
  0
LINE
  8
寸法
  6
BYBLOCK
 62
     0
 10
74.86382
 20
-81.707882
 11
87.226657
 21
-81.707882
  0
LINE
  8
寸法
  6
BYBLOCK
 62
     0
 10
87.226657
 20
-79.624597
 11
87.226657
 21
-81.707882
  0
POINT
  8
寸法
 62
     0
 10
87.226657
 20
-79.624597
  0
POINT
  8
寸法
 62
     0
 10
87.226657
 20
-81.707882
  0
TEXT
  7
TextStyle03
  8
寸法
  6
CONTINUOUS
 62
     0
 10
86.8
 20
-90.70625
  1
62.5
 40
3.0
 50
90.0
 72
     5
 11
86.8
 21
-84.14375
  0
ENDBLK
  0
BLOCK
  2
*DIM_0012
 70
    65
 10
0.0
 20
0.0
  0
LINE
  8
寸法
  6
BYBLOCK
 62
     0
 10
73.86382
 20
-80.207882
 11
73.86382
 21
-22.536362
  0
LINE
  8
寸法
  6
BYBLOCK
 62
     0
 10
71.257007
 20
-22.536362
 11
73.86382
 21
-22.536362
  0
POINT
  8
寸法
 62
     0
 10
71.257007
 20
-22.536362
  0
POINT
  8
寸法
 62
     0
 10
73.86382
 20
-22.536362
  0
TEXT
  7
TextStyle03
  8
寸法
  6
CONTINUOUS
 62
     0
 10
75.96875
 20
-22.175
  1
78.2
 40
3.0
 72
     5
 11
82.53125
 21
-22.175
  0
ENDBLK
  0
BLOCK
  2
*DIM_0013
 70
    65
 10
0.0
 20
0.0
  0
LINE
  8
寸法
  6
BYBLOCK
 62
     0
 10
-131.349805
 20
-80.207882
 11
-131.349805
 21
-22.536362
  0
LINE
  8
寸法
  6
BYBLOCK
 62
     0
 10
-128.742993
 20
-22.536362
 11
-131.349805
 21
-22.536362
  0
POINT
  8
寸法
 62
     0
 10
-128.742993
 20
-22.536362
  0
POINT
  8
寸法
 62
     0
 10
-131.349805
 20
-22.536362
  0
TEXT
  7
TextStyle03
  8
寸法
  6
CONTINUOUS
 62
     0
 10
-140.08125
 20
-22.175
  1
78.2
 40
3.0
 72
     5
 11
-133.51875
 21
-22.175
  0
ENDBLK
  0
BLOCK
  2
*GRP_0014
 70
    65
 10
0.0
 20
0.0
  0
LINE
  8
別途部材
  6
CONTINUOUS
 62
    96
 10
-130.409657
 20
-79.624597
 11
-130.809657
 21
-80.624597
  0
LINE
  8
別途部材
  6
CONTINUOUS
 62
    96
 10
-130.409657
 20
-79.624597
 11
-28.742993
 21
-79.624597
  0
LINE
  8
別途部材
  6
CONTINUOUS
 10
-130.809657
 20
-80.624597
 11
-28.742993
 21
-80.624597
  0
ARC
  8
別途部材
  6
CONTINUOUS
 10
-107.076324
 20
-93.910312
 40
25.952382
 50
90.0
 51
146.601512
  0
LINE
  8
別途部材
  6
CONTINUOUS
 10
-29.242993
 20
-66.95793
 11
-30.242993
 21
-67.95793
  0
LINE
  8
別途部材
  6
CONTINUOUS
 10
-31.242993
 20
-67.95793
 11
-32.242993
 21
-66.95793
  0
LINE
  8
別途部材
  6
CONTINUOUS
 10
-33.242993
 20
-66.95793
 11
-34.242993
 21
-67.95793
  0
LINE
  8
別途部材
  6
CONTINUOUS
 10
-32.242993
 20
-66.95793
 11
-33.242993
 21
-66.95793
  0
LINE
  8
別途部材
  6
CONTINUOUS
 10
-29.242993
 20
-66.95793
 11
-28.742993
 21
-66.95793
  0
LINE
  8
別途部材
  6
CONTINUOUS
 10
-35.242993
 20
-67.95793
 11
-36.242993
 21
-66.95793
  0
LINE
  8
別途部材
  6
CONTINUOUS
 10
-37.242993
 20
-66.95793
 11
-38.242993
 21
-67.95793
  0
LINE
  8
別途部材
  6
CONTINUOUS
 10
-36.242993
 20
-66.95793
 11
-37.242993
 21
-66.95793
  0
LINE
  8
別途部材
  6
CONTINUOUS
 10
-39.242993
 20
-67.95793
 11
-40.242993
 21
-66.95793
  0
LINE
  8
別途部材
  6
CONTINUOUS
 10
-41.242993
 20
-66.95793
 11
-42.242993
 21
-67.95793
  0
LINE
  8
別途部材
  6
CONTINUOUS
 10
-40.242993
 20
-66.95793
 11
-41.242993
 21
-66.95793
  0
LINE
  8
別途部材
  6
CONTINUOUS
 10
-43.242993
 20
-67.95793
 11
-44.242993
 21
-66.95793
  0
LINE
  8
別途部材
  6
CONTINUOUS
 10
-45.242993
 20
-66.95793
 11
-46.242993
 21
-67.95793
  0
LINE
  8
別途部材
  6
CONTINUOUS
 10
-44.242993
 20
-66.95793
 11
-45.242993
 21
-66.95793
  0
LINE
  8
別途部材
  6
CONTINUOUS
 10
-47.242993
 20
-67.95793
 11
-48.242993
 21
-66.95793
  0
LINE
  8
別途部材
  6
CONTINUOUS
 10
-49.242993
 20
-66.95793
 11
-50.242993
 21
-67.95793
  0
LINE
  8
別途部材
  6
CONTINUOUS
 10
-48.242993
 20
-66.95793
 11
-49.242993
 21
-66.95793
  0
LINE
  8
別途部材
  6
CONTINUOUS
 10
-51.242993
 20
-67.95793
 11
-52.242993
 21
-66.95793
  0
LINE
  8
別途部材
  6
CONTINUOUS
 10
-53.242993
 20
-66.95793
 11
-54.242993
 21
-67.95793
  0
LINE
  8
別途部材
  6
CONTINUOUS
 10
-52.242993
 20
-66.95793
 11
-53.242993
 21
-66.95793
  0
LINE
  8
別途部材
  6
CONTINUOUS
 10
-55.242993
 20
-67.95793
 11
-56.242993
 21
-66.95793
  0
LINE
  8
別途部材
  6
CONTINUOUS
 10
-57.242993
 20
-66.95793
 11
-58.242993
 21
-67.95793
  0
LINE
  8
別途部材
  6
CONTINUOUS
 10
-56.242993
 20
-66.95793
 11
-57.242993
 21
-66.95793
  0
LINE
  8
別途部材
  6
CONTINUOUS
 10
-59.242993
 20
-67.95793
 11
-60.242993
 21
-66.95793
  0
LINE
  8
別途部材
  6
CONTINUOUS
 10
-61.242993
 20
-66.95793
 11
-62.242993
 21
-67.95793
  0
LINE
  8
別途部材
  6
CONTINUOUS
 10
-60.242993
 20
-66.95793
 11
-61.242993
 21
-66.95793
  0
LINE
  8
別途部材
  6
CONTINUOUS
 10
-63.242993
 20
-67.95793
 11
-64.242993
 21
-66.95793
  0
LINE
  8
別途部材
  6
CONTINUOUS
 10
-65.242993
 20
-66.95793
 11
-66.242993
 21
-67.95793
  0
LINE
  8
別途部材
  6
CONTINUOUS
 10
-64.242993
 20
-66.95793
 11
-65.242993
 21
-66.95793
  0
LINE
  8
別途部材
  6
CONTINUOUS
 10
-67.242993
 20
-67.95793
 11
-68.242993
 21
-66.95793
  0
LINE
  8
別途部材
  6
CONTINUOUS
 10
-69.242993
 20
-66.95793
 11
-70.242993
 21
-67.95793
  0
LINE
  8
別途部材
  6
CONTINUOUS
 10
-68.242993
 20
-66.95793
 11
-69.242993
 21
-66.95793
  0
LINE
  8
別途部材
  6
CONTINUOUS
 10
-71.242993
 20
-67.95793
 11
-72.242993
 21
-66.95793
  0
LINE
  8
別途部材
  6
CONTINUOUS
 10
-73.242993
 20
-66.95793
 11
-74.242993
 21
-67.95793
  0
LINE
  8
別途部材
  6
CONTINUOUS
 10
-72.242993
 20
-66.95793
 11
-73.242993
 21
-66.95793
  0
LINE
  8
別途部材
  6
CONTINUOUS
 10
-70.242993
 20
-67.95793
 11
-71.242993
 21
-67.95793
  0
LINE
  8
別途部材
  6
CONTINUOUS
 10
-66.242993
 20
-67.95793
 11
-67.242993
 21
-67.95793
  0
LINE
  8
別途部材
  6
CONTINUOUS
 10
-62.242993
 20
-67.95793
 11
-63.242993
 21
-67.95793
  0
LINE
  8
別途部材
  6
CONTINUOUS
 10
-58.242993
 20
-67.95793
 11
-59.242993
 21
-67.95793
  0
LINE
  8
別途部材
  6
CONTINUOUS
 10
-54.242993
 20
-67.95793
 11
-55.242993
 21
-67.95793
  0
LINE
  8
別途部材
  6
CONTINUOUS
 10
-50.242993
 20
-67.95793
 11
-51.242993
 21
-67.95793
  0
LINE
  8
別途部材
  6
CONTINUOUS
 10
-46.242993
 20
-67.95793
 11
-47.242993
 21
-67.95793
  0
LINE
  8
別途部材
  6
CONTINUOUS
 10
-42.242993
 20
-67.95793
 11
-43.242993
 21
-67.95793
  0
LINE
  8
別途部材
  6
CONTINUOUS
 10
-38.242993
 20
-67.95793
 11
-39.242993
 21
-67.95793
  0
LINE
  8
別途部材
  6
CONTINUOUS
 10
-34.242993
 20
-67.95793
 11
-35.242993
 21
-67.95793
  0
LINE
  8
別途部材
  6
CONTINUOUS
 10
-31.242993
 20
-67.95793
 11
-30.242993
 21
-67.95793
  0
LINE
  8
別途部材
  6
CONTINUOUS
 10
-71.242993
 20
-67.95793
 11
-71.242993
 21
-79.624597
  0
LINE
  8
別途部材
  6
CONTINUOUS
 10
-70.242993
 20
-67.95793
 11
-70.242993
 21
-79.624597
  0
LINE
  8
別途部材
  6
CONTINUOUS
 10
-72.242993
 20
-66.95793
 11
-72.242993
 21
-79.624597
  0
LINE
  8
別途部材
  6
CONTINUOUS
 10
-74.242993
 20
-67.95793
 11
-74.242993
 21
-79.624597
  0
LINE
  8
別途部材
  6
CONTINUOUS
 10
-73.242993
 20
-66.95793
 11
-73.242993
 21
-79.624597
  0
LINE
  8
別途部材
  6
CONTINUOUS
 10
-63.242993
 20
-67.95793
 11
-63.242993
 21
-79.624597
  0
LINE
  8
別途部材
  6
CONTINUOUS
 10
-65.242993
 20
-66.95793
 11
-65.242993
 21
-79.624597
  0
LINE
  8
別途部材
  6
CONTINUOUS
 10
-66.242993
 20
-67.95793
 11
-66.242993
 21
-79.624597
  0
LINE
  8
別途部材
  6
CONTINUOUS
 10
-68.242993
 20
-66.95793
 11
-68.242993
 21
-79.624597
  0
LINE
  8
別途部材
  6
CONTINUOUS
 10
-69.242993
 20
-66.95793
 11
-69.242993
 21
-79.624597
  0
LINE
  8
別途部材
  6
CONTINUOUS
 10
-67.242993
 20
-67.95793
 11
-67.242993
 21
-79.624597
  0
LINE
  8
別途部材
  6
CONTINUOUS
 10
-64.242993
 20
-66.95793
 11
-64.242993
 21
-79.624597
  0
LINE
  8
別途部材
  6
CONTINUOUS
 10
-62.242993
 20
-67.95793
 11
-62.242993
 21
-79.624597
  0
LINE
  8
別途部材
  6
CONTINUOUS
 10
-61.242993
 20
-66.95793
 11
-61.242993
 21
-79.624597
  0
LINE
  8
別途部材
  6
CONTINUOUS
 10
-51.242993
 20
-67.95793
 11
-51.242993
 21
-79.624597
  0
LINE
  8
別途部材
  6
CONTINUOUS
 10
-45.242993
 20
-66.95793
 11
-45.242993
 21
-79.624597
  0
LINE
  8
別途部材
  6
CONTINUOUS
 10
-44.242993
 20
-66.95793
 11
-44.242993
 21
-79.624597
  0
LINE
  8
別途部材
  6
CONTINUOUS
 10
-34.242993
 20
-67.95793
 11
-34.242993
 21
-79.624597
  0
LINE
  8
別途部材
  6
CONTINUOUS
 10
-29.242993
 20
-66.95793
 11
-29.242993
 21
-79.624597
  0
LINE
  8
別途部材
  6
CONTINUOUS
 10
-30.242993
 20
-67.95793
 11
-30.242993
 21
-79.624597
  0
LINE
  8
別途部材
  6
CONTINUOUS
 10
-32.242993
 20
-66.95793
 11
-32.242993
 21
-79.624597
  0
LINE
  8
別途部材
  6
CONTINUOUS
 10
-33.242993
 20
-66.95793
 11
-33.242993
 21
-79.624597
  0
LINE
  8
別途部材
  6
CONTINUOUS
 10
-35.242993
 20
-67.95793
 11
-35.242993
 21
-79.624597
  0
LINE
  8
別途部材
  6
CONTINUOUS
 10
-46.242993
 20
-67.95793
 11
-46.242993
 21
-79.624597
  0
LINE
  8
別途部材
  6
CONTINUOUS
 10
-47.242993
 20
-67.95793
 11
-47.242993
 21
-79.624597
  0
LINE
  8
別途部材
  6
CONTINUOUS
 10
-52.242993
 20
-66.95793
 11
-52.242993
 21
-79.624597
  0
LINE
  8
別途部材
  6
CONTINUOUS
 10
-54.242993
 20
-67.95793
 11
-54.242993
 21
-79.624597
  0
LINE
  8
別途部材
  6
CONTINUOUS
 10
-57.242993
 20
-66.95793
 11
-57.242993
 21
-79.624597
  0
LINE
  8
別途部材
  6
CONTINUOUS
 10
-60.242993
 20
-66.95793
 11
-60.242993
 21
-79.624597
  0
LINE
  8
別途部材
  6
CONTINUOUS
 10
-53.242993
 20
-66.95793
 11
-53.242993
 21
-79.624597
  0
LINE
  8
別途部材
  6
CONTINUOUS
 10
-55.242993
 20
-67.95793
 11
-55.242993
 21
-79.624597
  0
LINE
  8
別途部材
  6
CONTINUOUS
 10
-58.242993
 20
-67.95793
 11
-58.242993
 21
-79.624597
  0
LINE
  8
別途部材
  6
CONTINUOUS
 10
-59.242993
 20
-67.95793
 11
-59.242993
 21
-79.624597
  0
LINE
  8
別途部材
  6
CONTINUOUS
 10
-49.242993
 20
-66.95793
 11
-49.242993
 21
-79.624597
  0
LINE
  8
別途部材
  6
CONTINUOUS
 10
-48.242993
 20
-66.95793
 11
-48.242993
 21
-79.624597
  0
LINE
  8
別途部材
  6
CONTINUOUS
 10
-50.242993
 20
-67.95793
 11
-50.242993
 21
-79.624597
  0
LINE
  8
別途部材
  6
CONTINUOUS
 10
-56.242993
 20
-66.95793
 11
-56.242993
 21
-79.624597
  0
LINE
  8
別途部材
  6
CONTINUOUS
 10
-42.242993
 20
-67.95793
 11
-42.242993
 21
-79.624597
  0
LINE
  8
別途部材
  6
CONTINUOUS
 10
-43.242993
 20
-67.95793
 11
-43.242993
 21
-79.624597
  0
LINE
  8
別途部材
  6
CONTINUOUS
 10
-41.242993
 20
-66.95793
 11
-41.242993
 21
-79.624597
  0
LINE
  8
別途部材
  6
CONTINUOUS
 10
-39.242993
 20
-67.95793
 11
-39.242993
 21
-79.624597
  0
LINE
  8
別途部材
  6
CONTINUOUS
 10
-40.242993
 20
-66.95793
 11
-40.242993
 21
-79.624597
  0
LINE
  8
別途部材
  6
CONTINUOUS
 10
-38.242993
 20
-67.95793
 11
-38.242993
 21
-79.624597
  0
LINE
  8
別途部材
  6
CONTINUOUS
 10
-36.242993
 20
-66.95793
 11
-36.242993
 21
-79.624597
  0
LINE
  8
別途部材
  6
CONTINUOUS
 10
-37.242993
 20
-66.95793
 11
-37.242993
 21
-79.624597
  0
LINE
  8
別途部材
  6
CONTINUOUS
 10
-31.242993
 20
-67.95793
 11
-31.242993
 21
-79.624597
  0
LINE
  8
別途部材
  6
CONTINUOUS
 10
-75.242993
 20
-67.95793
 11
-76.242993
 21
-66.95793
  0
LINE
  8
別途部材
  6
CONTINUOUS
 10
-77.242993
 20
-66.95793
 11
-78.242993
 21
-67.95793
  0
LINE
  8
別途部材
  6
CONTINUOUS
 10
-76.242993
 20
-66.95793
 11
-77.242993
 21
-66.95793
  0
LINE
  8
別途部材
  6
CONTINUOUS
 10
-79.242993
 20
-67.95793
 11
-80.242993
 21
-66.95793
  0
LINE
  8
別途部材
  6
CONTINUOUS
 10
-81.242993
 20
-66.95793
 11
-82.242993
 21
-67.95793
  0
LINE
  8
別途部材
  6
CONTINUOUS
 10
-80.242993
 20
-66.95793
 11
-81.242993
 21
-66.95793
  0
LINE
  8
別途部材
  6
CONTINUOUS
 10
-83.242993
 20
-67.95793
 11
-84.242993
 21
-66.95793
  0
LINE
  8
別途部材
  6
CONTINUOUS
 10
-85.242993
 20
-66.95793
 11
-86.242993
 21
-67.95793
  0
LINE
  8
別途部材
  6
CONTINUOUS
 10
-84.242993
 20
-66.95793
 11
-85.242993
 21
-66.95793
  0
LINE
  8
別途部材
  6
CONTINUOUS
 10
-87.242993
 20
-67.95793
 11
-88.242993
 21
-66.95793
  0
LINE
  8
別途部材
  6
CONTINUOUS
 10
-89.242993
 20
-66.95793
 11
-90.242993
 21
-67.95793
  0
LINE
  8
別途部材
  6
CONTINUOUS
 10
-88.242993
 20
-66.95793
 11
-89.242993
 21
-66.95793
  0
LINE
  8
別途部材
  6
CONTINUOUS
 10
-91.242993
 20
-67.95793
 11
-92.242993
 21
-66.95793
  0
LINE
  8
別途部材
  6
CONTINUOUS
 10
-93.242993
 20
-66.95793
 11
-94.242993
 21
-67.95793
  0
LINE
  8
別途部材
  6
CONTINUOUS
 10
-92.242993
 20
-66.95793
 11
-93.242993
 21
-66.95793
  0
LINE
  8
別途部材
  6
CONTINUOUS
 10
-95.242993
 20
-67.95793
 11
-96.242993
 21
-66.95793
  0
LINE
  8
別途部材
  6
CONTINUOUS
 10
-97.242993
 20
-66.95793
 11
-98.242993
 21
-67.95793
  0
LINE
  8
別途部材
  6
CONTINUOUS
 10
-96.242993
 20
-66.95793
 11
-97.242993
 21
-66.95793
  0
LINE
  8
別途部材
  6
CONTINUOUS
 10
-99.242993
 20
-67.95793
 11
-100.242993
 21
-66.95793
  0
LINE
  8
別途部材
  6
CONTINUOUS
 10
-101.242993
 20
-66.95793
 11
-102.242993
 21
-67.95793
  0
LINE
  8
別途部材
  6
CONTINUOUS
 10
-100.242993
 20
-66.95793
 11
-101.242993
 21
-66.95793
  0
LINE
  8
別途部材
  6
CONTINUOUS
 10
-103.242993
 20
-67.95793
 11
-104.242993
 21
-66.95793
  0
LINE
  8
別途部材
  6
CONTINUOUS
 10
-105.242993
 20
-66.95793
 11
-106.242993
 21
-67.95793
  0
LINE
  8
別途部材
  6
CONTINUOUS
 10
-104.242993
 20
-66.95793
 11
-105.242993
 21
-66.95793
  0
LINE
  8
別途部材
  6
CONTINUOUS
 10
-106.242993
 20
-67.95793
 11
-107.242993
 21
-67.95793
  0
LINE
  8
別途部材
  6
CONTINUOUS
 10
-102.242993
 20
-67.95793
 11
-103.242993
 21
-67.95793
  0
LINE
  8
別途部材
  6
CONTINUOUS
 10
-98.242993
 20
-67.95793
 11
-99.242993
 21
-67.95793
  0
LINE
  8
別途部材
  6
CONTINUOUS
 10
-94.242993
 20
-67.95793
 11
-95.242993
 21
-67.95793
  0
LINE
  8
別途部材
  6
CONTINUOUS
 10
-90.242993
 20
-67.95793
 11
-91.242993
 21
-67.95793
  0
LINE
  8
別途部材
  6
CONTINUOUS
 10
-86.242993
 20
-67.95793
 11
-87.242993
 21
-67.95793
  0
LINE
  8
別途部材
  6
CONTINUOUS
 10
-82.242993
 20
-67.95793
 11
-83.242993
 21
-67.95793
  0
LINE
  8
別途部材
  6
CONTINUOUS
 10
-78.242993
 20
-67.95793
 11
-79.242993
 21
-67.95793
  0
LINE
  8
別途部材
  6
CONTINUOUS
 10
-74.242993
 20
-67.95793
 11
-75.242993
 21
-67.95793
  0
LINE
  8
別途部材
  6
CONTINUOUS
 10
-106.242993
 20
-67.95793
 11
-106.242993
 21
-79.624597
  0
LINE
  8
別途部材
  6
CONTINUOUS
 10
-99.242993
 20
-67.95793
 11
-99.242993
 21
-79.624597
  0
LINE
  8
別途部材
  6
CONTINUOUS
 10
-101.242993
 20
-66.95793
 11
-101.242993
 21
-79.624597
  0
LINE
  8
別途部材
  6
CONTINUOUS
 10
-102.242993
 20
-67.95793
 11
-102.242993
 21
-79.624597
  0
LINE
  8
別途部材
  6
CONTINUOUS
 10
-104.242993
 20
-66.95793
 11
-104.242993
 21
-79.624597
  0
LINE
  8
別途部材
  6
CONTINUOUS
 10
-105.242993
 20
-66.95793
 11
-105.242993
 21
-79.624597
  0
LINE
  8
別途部材
  6
CONTINUOUS
 10
-103.242993
 20
-67.95793
 11
-103.242993
 21
-79.624597
  0
LINE
  8
別途部材
  6
CONTINUOUS
 10
-100.242993
 20
-66.95793
 11
-100.242993
 21
-79.624597
  0
LINE
  8
別途部材
  6
CONTINUOUS
 10
-98.242993
 20
-67.95793
 11
-98.242993
 21
-79.624597
  0
LINE
  8
別途部材
  6
CONTINUOUS
 10
-97.242993
 20
-66.95793
 11
-97.242993
 21
-79.624597
  0
LINE
  8
別途部材
  6
CONTINUOUS
 10
-87.242993
 20
-67.95793
 11
-87.242993
 21
-79.624597
  0
LINE
  8
別途部材
  6
CONTINUOUS
 10
-81.242993
 20
-66.95793
 11
-81.242993
 21
-79.624597
  0
LINE
  8
別途部材
  6
CONTINUOUS
 10
-80.242993
 20
-66.95793
 11
-80.242993
 21
-79.624597
  0
LINE
  8
別途部材
  6
CONTINUOUS
 10
-82.242993
 20
-67.95793
 11
-82.242993
 21
-79.624597
  0
LINE
  8
別途部材
  6
CONTINUOUS
 10
-83.242993
 20
-67.95793
 11
-83.242993
 21
-79.624597
  0
LINE
  8
別途部材
  6
CONTINUOUS
 10
-88.242993
 20
-66.95793
 11
-88.242993
 21
-79.624597
  0
LINE
  8
別途部材
  6
CONTINUOUS
 10
-90.242993
 20
-67.95793
 11
-90.242993
 21
-79.624597
  0
LINE
  8
別途部材
  6
CONTINUOUS
 10
-93.242993
 20
-66.95793
 11
-93.242993
 21
-79.624597
  0
LINE
  8
別途部材
  6
CONTINUOUS
 10
-96.242993
 20
-66.95793
 11
-96.242993
 21
-79.624597
  0
LINE
  8
別途部材
  6
CONTINUOUS
 10
-89.242993
 20
-66.95793
 11
-89.242993
 21
-79.624597
  0
LINE
  8
別途部材
  6
CONTINUOUS
 10
-91.242993
 20
-67.95793
 11
-91.242993
 21
-79.624597
  0
LINE
  8
別途部材
  6
CONTINUOUS
 10
-94.242993
 20
-67.95793
 11
-94.242993
 21
-79.624597
  0
LINE
  8
別途部材
  6
CONTINUOUS
 10
-95.242993
 20
-67.95793
 11
-95.242993
 21
-79.624597
  0
LINE
  8
別途部材
  6
CONTINUOUS
 10
-85.242993
 20
-66.95793
 11
-85.242993
 21
-79.624597
  0
LINE
  8
別途部材
  6
CONTINUOUS
 10
-84.242993
 20
-66.95793
 11
-84.242993
 21
-79.624597
  0
LINE
  8
別途部材
  6
CONTINUOUS
 10
-86.242993
 20
-67.95793
 11
-86.242993
 21
-79.624597
  0
LINE
  8
別途部材
  6
CONTINUOUS
 10
-92.242993
 20
-66.95793
 11
-92.242993
 21
-79.624597
  0
LINE
  8
別途部材
  6
CONTINUOUS
 10
-78.242993
 20
-67.95793
 11
-78.242993
 21
-79.624597
  0
LINE
  8
別途部材
  6
CONTINUOUS
 10
-79.242993
 20
-67.95793
 11
-79.242993
 21
-79.624597
  0
LINE
  8
別途部材
  6
CONTINUOUS
 10
-77.242993
 20
-66.95793
 11
-77.242993
 21
-79.624597
  0
LINE
  8
別途部材
  6
CONTINUOUS
 10
-75.242993
 20
-67.95793
 11
-75.242993
 21
-79.624597
  0
LINE
  8
別途部材
  6
CONTINUOUS
 10
-76.242993
 20
-66.95793
 11
-76.242993
 21
-79.624597
  0
LINE
  8
別途部材
  6
CONTINUOUS
 62
    96
 10
72.923675
 20
-79.624597
 11
73.323675
 21
-80.624597
  0
LINE
  8
別途部材
  6
CONTINUOUS
 62
    96
 10
72.923675
 20
-79.624597
 11
-28.742993
 21
-79.624597
  0
LINE
  8
別途部材
  6
CONTINUOUS
 10
73.323675
 20
-80.624597
 11
-28.742993
 21
-80.624597
  0
ARC
  8
別途部材
  6
CONTINUOUS
 10
49.590341
 20
-93.910312
 40
25.952382
 50
33.398488
 51
90.0
  0
LINE
  8
別途部材
  6
CONTINUOUS
 10
-28.242993
 20
-66.95793
 11
-27.242993
 21
-67.95793
  0
LINE
  8
別途部材
  6
CONTINUOUS
 10
-26.242993
 20
-67.95793
 11
-25.242993
 21
-66.95793
  0
LINE
  8
別途部材
  6
CONTINUOUS
 10
-24.242993
 20
-66.95793
 11
-23.242993
 21
-67.95793
  0
LINE
  8
別途部材
  6
CONTINUOUS
 10
-25.242993
 20
-66.95793
 11
-24.242993
 21
-66.95793
  0
LINE
  8
別途部材
  6
CONTINUOUS
 10
-28.242993
 20
-66.95793
 11
-28.742993
 21
-66.95793
  0
LINE
  8
別途部材
  6
CONTINUOUS
 10
-22.242993
 20
-67.95793
 11
-21.242993
 21
-66.95793
  0
LINE
  8
別途部材
  6
CONTINUOUS
 10
-20.242993
 20
-66.95793
 11
-19.242993
 21
-67.95793
  0
LINE
  8
別途部材
  6
CONTINUOUS
 10
-21.242993
 20
-66.95793
 11
-20.242993
 21
-66.95793
  0
LINE
  8
別途部材
  6
CONTINUOUS
 10
-18.242993
 20
-67.95793
 11
-17.242993
 21
-66.95793
  0
LINE
  8
別途部材
  6
CONTINUOUS
 10
-16.242993
 20
-66.95793
 11
-15.242993
 21
-67.95793
  0
LINE
  8
別途部材
  6
CONTINUOUS
 10
-17.242993
 20
-66.95793
 11
-16.242993
 21
-66.95793
  0
LINE
  8
別途部材
  6
CONTINUOUS
 10
-14.242993
 20
-67.95793
 11
-13.242993
 21
-66.95793
  0
LINE
  8
別途部材
  6
CONTINUOUS
 10
-12.242993
 20
-66.95793
 11
-11.242993
 21
-67.95793
  0
LINE
  8
別途部材
  6
CONTINUOUS
 10
-13.242993
 20
-66.95793
 11
-12.242993
 21
-66.95793
  0
LINE
  8
別途部材
  6
CONTINUOUS
 10
-10.242993
 20
-67.95793
 11
-9.242993
 21
-66.95793
  0
LINE
  8
別途部材
  6
CONTINUOUS
 10
-8.242993
 20
-66.95793
 11
-7.242993
 21
-67.95793
  0
LINE
  8
別途部材
  6
CONTINUOUS
 10
-9.242993
 20
-66.95793
 11
-8.242993
 21
-66.95793
  0
LINE
  8
別途部材
  6
CONTINUOUS
 10
-6.242993
 20
-67.95793
 11
-5.242993
 21
-66.95793
  0
LINE
  8
別途部材
  6
CONTINUOUS
 10
-4.242993
 20
-66.95793
 11
-3.242993
 21
-67.95793
  0
LINE
  8
別途部材
  6
CONTINUOUS
 10
-5.242993
 20
-66.95793
 11
-4.242993
 21
-66.95793
  0
LINE
  8
別途部材
  6
CONTINUOUS
 10
-2.242993
 20
-67.95793
 11
-1.242993
 21
-66.95793
  0
LINE
  8
別途部材
  6
CONTINUOUS
 10
-0.242993
 20
-66.95793
 11
0.757007
 21
-67.95793
  0
LINE
  8
別途部材
  6
CONTINUOUS
 10
-1.242993
 20
-66.95793
 11
-0.242993
 21
-66.95793
  0
LINE
  8
別途部材
  6
CONTINUOUS
 10
1.757007
 20
-67.95793
 11
2.757007
 21
-66.95793
  0
LINE
  8
別途部材
  6
CONTINUOUS
 10
3.757007
 20
-66.95793
 11
4.757007
 21
-67.95793
  0
LINE
  8
別途部材
  6
CONTINUOUS
 10
2.757007
 20
-66.95793
 11
3.757007
 21
-66.95793
  0
LINE
  8
別途部材
  6
CONTINUOUS
 10
5.757007
 20
-67.95793
 11
6.757007
 21
-66.95793
  0
LINE
  8
別途部材
  6
CONTINUOUS
 10
7.757007
 20
-66.95793
 11
8.757007
 21
-67.95793
  0
LINE
  8
別途部材
  6
CONTINUOUS
 10
6.757007
 20
-66.95793
 11
7.757007
 21
-66.95793
  0
LINE
  8
別途部材
  6
CONTINUOUS
 10
9.757007
 20
-67.95793
 11
10.757007
 21
-66.95793
  0
LINE
  8
別途部材
  6
CONTINUOUS
 10
11.757007
 20
-66.95793
 11
12.757007
 21
-67.95793
  0
LINE
  8
別途部材
  6
CONTINUOUS
 10
10.757007
 20
-66.95793
 11
11.757007
 21
-66.95793
  0
LINE
  8
別途部材
  6
CONTINUOUS
 10
13.757007
 20
-67.95793
 11
14.757007
 21
-66.95793
  0
LINE
  8
別途部材
  6
CONTINUOUS
 10
15.757007
 20
-66.95793
 11
16.757007
 21
-67.95793
  0
LINE
  8
別途部材
  6
CONTINUOUS
 10
14.757007
 20
-66.95793
 11
15.757007
 21
-66.95793
  0
LINE
  8
別途部材
  6
CONTINUOUS
 10
12.757007
 20
-67.95793
 11
13.757007
 21
-67.95793
  0
LINE
  8
別途部材
  6
CONTINUOUS
 10
8.757007
 20
-67.95793
 11
9.757007
 21
-67.95793
  0
LINE
  8
別途部材
  6
CONTINUOUS
 10
4.757007
 20
-67.95793
 11
5.757007
 21
-67.95793
  0
LINE
  8
別途部材
  6
CONTINUOUS
 10
0.757007
 20
-67.95793
 11
1.757007
 21
-67.95793
  0
LINE
  8
別途部材
  6
CONTINUOUS
 10
-3.242993
 20
-67.95793
 11
-2.242993
 21
-67.95793
  0
LINE
  8
別途部材
  6
CONTINUOUS
 10
-7.242993
 20
-67.95793
 11
-6.242993
 21
-67.95793
  0
LINE
  8
別途部材
  6
CONTINUOUS
 10
-11.242993
 20
-67.95793
 11
-10.242993
 21
-67.95793
  0
LINE
  8
別途部材
  6
CONTINUOUS
 10
-15.242993
 20
-67.95793
 11
-14.242993
 21
-67.95793
  0
LINE
  8
別途部材
  6
CONTINUOUS
 10
-19.242993
 20
-67.95793
 11
-18.242993
 21
-67.95793
  0
LINE
  8
別途部材
  6
CONTINUOUS
 10
-23.242993
 20
-67.95793
 11
-22.242993
 21
-67.95793
  0
LINE
  8
別途部材
  6
CONTINUOUS
 10
-26.242993
 20
-67.95793
 11
-27.242993
 21
-67.95793
  0
LINE
  8
別途部材
  6
CONTINUOUS
 10
13.757007
 20
-67.95793
 11
13.757007
 21
-79.624597
  0
LINE
  8
別途部材
  6
CONTINUOUS
 10
12.757007
 20
-67.95793
 11
12.757007
 21
-79.624597
  0
LINE
  8
別途部材
  6
CONTINUOUS
 10
14.757007
 20
-66.95793
 11
14.757007
 21
-79.624597
  0
LINE
  8
別途部材
  6
CONTINUOUS
 10
16.757007
 20
-67.95793
 11
16.757007
 21
-79.624597
  0
LINE
  8
別途部材
  6
CONTINUOUS
 10
15.757007
 20
-66.95793
 11
15.757007
 21
-79.624597
  0
LINE
  8
別途部材
  6
CONTINUOUS
 10
5.757007
 20
-67.95793
 11
5.757007
 21
-79.624597
  0
LINE
  8
別途部材
  6
CONTINUOUS
 10
7.757007
 20
-66.95793
 11
7.757007
 21
-79.624597
  0
LINE
  8
別途部材
  6
CONTINUOUS
 10
8.757007
 20
-67.95793
 11
8.757007
 21
-79.624597
  0
LINE
  8
別途部材
  6
CONTINUOUS
 10
10.757007
 20
-66.95793
 11
10.757007
 21
-79.624597
  0
LINE
  8
別途部材
  6
CONTINUOUS
 10
11.757007
 20
-66.95793
 11
11.757007
 21
-79.624597
  0
LINE
  8
別途部材
  6
CONTINUOUS
 10
9.757007
 20
-67.95793
 11
9.757007
 21
-79.624597
  0
LINE
  8
別途部材
  6
CONTINUOUS
 10
6.757007
 20
-66.95793
 11
6.757007
 21
-79.624597
  0
LINE
  8
別途部材
  6
CONTINUOUS
 10
4.757007
 20
-67.95793
 11
4.757007
 21
-79.624597
  0
LINE
  8
別途部材
  6
CONTINUOUS
 10
3.757007
 20
-66.95793
 11
3.757007
 21
-79.624597
  0
LINE
  8
別途部材
  6
CONTINUOUS
 10
-6.242993
 20
-67.95793
 11
-6.242993
 21
-79.624597
  0
LINE
  8
別途部材
  6
CONTINUOUS
 10
-12.242993
 20
-66.95793
 11
-12.242993
 21
-79.624597
  0
LINE
  8
別途部材
  6
CONTINUOUS
 10
-13.242993
 20
-66.95793
 11
-13.242993
 21
-79.624597
  0
LINE
  8
別途部材
  6
CONTINUOUS
 10
-23.242993
 20
-67.95793
 11
-23.242993
 21
-79.624597
  0
LINE
  8
別途部材
  6
CONTINUOUS
 10
-28.242993
 20
-66.95793
 11
-28.242993
 21
-79.624597
  0
LINE
  8
別途部材
  6
CONTINUOUS
 10
-27.242993
 20
-67.95793
 11
-27.242993
 21
-79.624597
  0
LINE
  8
別途部材
  6
CONTINUOUS
 10
-25.242993
 20
-66.95793
 11
-25.242993
 21
-79.624597
  0
LINE
  8
別途部材
  6
CONTINUOUS
 10
-24.242993
 20
-66.95793
 11
-24.242993
 21
-79.624597
  0
LINE
  8
別途部材
  6
CONTINUOUS
 10
-22.242993
 20
-67.95793
 11
-22.242993
 21
-79.624597
  0
LINE
  8
別途部材
  6
CONTINUOUS
 10
-11.242993
 20
-67.95793
 11
-11.242993
 21
-79.624597
  0
LINE
  8
別途部材
  6
CONTINUOUS
 10
-10.242993
 20
-67.95793
 11
-10.242993
 21
-79.624597
  0
LINE
  8
別途部材
  6
CONTINUOUS
 10
-5.242993
 20
-66.95793
 11
-5.242993
 21
-79.624597
  0
LINE
  8
別途部材
  6
CONTINUOUS
 10
-3.242993
 20
-67.95793
 11
-3.242993
 21
-79.624597
  0
LINE
  8
別途部材
  6
CONTINUOUS
 10
-0.242993
 20
-66.95793
 11
-0.242993
 21
-79.624597
  0
LINE
  8
別途部材
  6
CONTINUOUS
 10
2.757007
 20
-66.95793
 11
2.757007
 21
-79.624597
  0
LINE
  8
別途部材
  6
CONTINUOUS
 10
-4.242993
 20
-66.95793
 11
-4.242993
 21
-79.624597
  0
LINE
  8
別途部材
  6
CONTINUOUS
 10
-2.242993
 20
-67.95793
 11
-2.242993
 21
-79.624597
  0
LINE
  8
別途部材
  6
CONTINUOUS
 10
0.757007
 20
-67.95793
 11
0.757007
 21
-79.624597
  0
LINE
  8
別途部材
  6
CONTINUOUS
 10
1.757007
 20
-67.95793
 11
1.757007
 21
-79.624597
  0
LINE
  8
別途部材
  6
CONTINUOUS
 10
-8.242993
 20
-66.95793
 11
-8.242993
 21
-79.624597
  0
LINE
  8
別途部材
  6
CONTINUOUS
 10
-9.242993
 20
-66.95793
 11
-9.242993
 21
-79.624597
  0
LINE
  8
別途部材
  6
CONTINUOUS
 10
-7.242993
 20
-67.95793
 11
-7.242993
 21
-79.624597
  0
LINE
  8
別途部材
  6
CONTINUOUS
 10
-1.242993
 20
-66.95793
 11
-1.242993
 21
-79.624597
  0
LINE
  8
別途部材
  6
CONTINUOUS
 10
-15.242993
 20
-67.95793
 11
-15.242993
 21
-79.624597
  0
LINE
  8
別途部材
  6
CONTINUOUS
 10
-14.242993
 20
-67.95793
 11
-14.242993
 21
-79.624597
  0
LINE
  8
別途部材
  6
CONTINUOUS
 10
-16.242993
 20
-66.95793
 11
-16.242993
 21
-79.624597
  0
LINE
  8
別途部材
  6
CONTINUOUS
 10
-18.242993
 20
-67.95793
 11
-18.242993
 21
-79.624597
  0
LINE
  8
別途部材
  6
CONTINUOUS
 10
-17.242993
 20
-66.95793
 11
-17.242993
 21
-79.624597
  0
LINE
  8
別途部材
  6
CONTINUOUS
 10
-19.242993
 20
-67.95793
 11
-19.242993
 21
-79.624597
  0
LINE
  8
別途部材
  6
CONTINUOUS
 10
-21.242993
 20
-66.95793
 11
-21.242993
 21
-79.624597
  0
LINE
  8
別途部材
  6
CONTINUOUS
 10
-20.242993
 20
-66.95793
 11
-20.242993
 21
-79.624597
  0
LINE
  8
別途部材
  6
CONTINUOUS
 10
-26.242993
 20
-67.95793
 11
-26.242993
 21
-79.624597
  0
LINE
  8
別途部材
  6
CONTINUOUS
 10
17.757007
 20
-67.95793
 11
18.757007
 21
-66.95793
  0
LINE
  8
別途部材
  6
CONTINUOUS
 10
19.757007
 20
-66.95793
 11
20.757007
 21
-67.95793
  0
LINE
  8
別途部材
  6
CONTINUOUS
 10
18.757007
 20
-66.95793
 11
19.757007
 21
-66.95793
  0
LINE
  8
別途部材
  6
CONTINUOUS
 10
21.757007
 20
-67.95793
 11
22.757007
 21
-66.95793
  0
LINE
  8
別途部材
  6
CONTINUOUS
 10
23.757007
 20
-66.95793
 11
24.757007
 21
-67.95793
  0
LINE
  8
別途部材
  6
CONTINUOUS
 10
22.757007
 20
-66.95793
 11
23.757007
 21
-66.95793
  0
LINE
  8
別途部材
  6
CONTINUOUS
 10
25.757007
 20
-67.95793
 11
26.757007
 21
-66.95793
  0
LINE
  8
別途部材
  6
CONTINUOUS
 10
27.757007
 20
-66.95793
 11
28.757007
 21
-67.95793
  0
LINE
  8
別途部材
  6
CONTINUOUS
 10
26.757007
 20
-66.95793
 11
27.757007
 21
-66.95793
  0
LINE
  8
別途部材
  6
CONTINUOUS
 10
29.757007
 20
-67.95793
 11
30.757007
 21
-66.95793
  0
LINE
  8
別途部材
  6
CONTINUOUS
 10
31.757007
 20
-66.95793
 11
32.757007
 21
-67.95793
  0
LINE
  8
別途部材
  6
CONTINUOUS
 10
30.757007
 20
-66.95793
 11
31.757007
 21
-66.95793
  0
LINE
  8
別途部材
  6
CONTINUOUS
 10
33.757007
 20
-67.95793
 11
34.757007
 21
-66.95793
  0
LINE
  8
別途部材
  6
CONTINUOUS
 10
35.757007
 20
-66.95793
 11
36.757007
 21
-67.95793
  0
LINE
  8
別途部材
  6
CONTINUOUS
 10
34.757007
 20
-66.95793
 11
35.757007
 21
-66.95793
  0
LINE
  8
別途部材
  6
CONTINUOUS
 10
37.757007
 20
-67.95793
 11
38.757007
 21
-66.95793
  0
LINE
  8
別途部材
  6
CONTINUOUS
 10
39.757007
 20
-66.95793
 11
40.757007
 21
-67.95793
  0
LINE
  8
別途部材
  6
CONTINUOUS
 10
38.757007
 20
-66.95793
 11
39.757007
 21
-66.95793
  0
LINE
  8
別途部材
  6
CONTINUOUS
 10
41.757007
 20
-67.95793
 11
42.757007
 21
-66.95793
  0
LINE
  8
別途部材
  6
CONTINUOUS
 10
43.757007
 20
-66.95793
 11
44.757007
 21
-67.95793
  0
LINE
  8
別途部材
  6
CONTINUOUS
 10
42.757007
 20
-66.95793
 11
43.757007
 21
-66.95793
  0
LINE
  8
別途部材
  6
CONTINUOUS
 10
45.757007
 20
-67.95793
 11
46.757007
 21
-66.95793
  0
LINE
  8
別途部材
  6
CONTINUOUS
 10
47.757007
 20
-66.95793
 11
48.757007
 21
-67.95793
  0
LINE
  8
別途部材
  6
CONTINUOUS
 10
46.757007
 20
-66.95793
 11
47.757007
 21
-66.95793
  0
LINE
  8
別途部材
  6
CONTINUOUS
 10
48.757007
 20
-67.95793
 11
49.757007
 21
-67.95793
  0
LINE
  8
別途部材
  6
CONTINUOUS
 10
44.757007
 20
-67.95793
 11
45.757007
 21
-67.95793
  0
LINE
  8
別途部材
  6
CONTINUOUS
 10
40.757007
 20
-67.95793
 11
41.757007
 21
-67.95793
  0
LINE
  8
別途部材
  6
CONTINUOUS
 10
36.757007
 20
-67.95793
 11
37.757007
 21
-67.95793
  0
LINE
  8
別途部材
  6
CONTINUOUS
 10
32.757007
 20
-67.95793
 11
33.757007
 21
-67.95793
  0
LINE
  8
別途部材
  6
CONTINUOUS
 10
28.757007
 20
-67.95793
 11
29.757007
 21
-67.95793
  0
LINE
  8
別途部材
  6
CONTINUOUS
 10
24.757007
 20
-67.95793
 11
25.757007
 21
-67.95793
  0
LINE
  8
別途部材
  6
CONTINUOUS
 10
20.757007
 20
-67.95793
 11
21.757007
 21
-67.95793
  0
LINE
  8
別途部材
  6
CONTINUOUS
 10
16.757007
 20
-67.95793
 11
17.757007
 21
-67.95793
  0
LINE
  8
別途部材
  6
CONTINUOUS
 10
48.757007
 20
-67.95793
 11
48.757007
 21
-79.624597
  0
LINE
  8
別途部材
  6
CONTINUOUS
 10
41.757007
 20
-67.95793
 11
41.757007
 21
-79.624597
  0
LINE
  8
別途部材
  6
CONTINUOUS
 10
43.757007
 20
-66.95793
 11
43.757007
 21
-79.624597
  0
LINE
  8
別途部材
  6
CONTINUOUS
 10
44.757007
 20
-67.95793
 11
44.757007
 21
-79.624597
  0
LINE
  8
別途部材
  6
CONTINUOUS
 10
46.757007
 20
-66.95793
 11
46.757007
 21
-79.624597
  0
LINE
  8
別途部材
  6
CONTINUOUS
 10
47.757007
 20
-66.95793
 11
47.757007
 21
-79.624597
  0
LINE
  8
別途部材
  6
CONTINUOUS
 10
45.757007
 20
-67.95793
 11
45.757007
 21
-79.624597
  0
LINE
  8
別途部材
  6
CONTINUOUS
 10
42.757007
 20
-66.95793
 11
42.757007
 21
-79.624597
  0
LINE
  8
別途部材
  6
CONTINUOUS
 10
40.757007
 20
-67.95793
 11
40.757007
 21
-79.624597
  0
LINE
  8
別途部材
  6
CONTINUOUS
 10
39.757007
 20
-66.95793
 11
39.757007
 21
-79.624597
  0
LINE
  8
別途部材
  6
CONTINUOUS
 10
29.757007
 20
-67.95793
 11
29.757007
 21
-79.624597
  0
LINE
  8
別途部材
  6
CONTINUOUS
 10
23.757007
 20
-66.95793
 11
23.757007
 21
-79.624597
  0
LINE
  8
別途部材
  6
CONTINUOUS
 10
22.757007
 20
-66.95793
 11
22.757007
 21
-79.624597
  0
LINE
  8
別途部材
  6
CONTINUOUS
 10
24.757007
 20
-67.95793
 11
24.757007
 21
-79.624597
  0
LINE
  8
別途部材
  6
CONTINUOUS
 10
25.757007
 20
-67.95793
 11
25.757007
 21
-79.624597
  0
LINE
  8
別途部材
  6
CONTINUOUS
 10
30.757007
 20
-66.95793
 11
30.757007
 21
-79.624597
  0
LINE
  8
別途部材
  6
CONTINUOUS
 10
32.757007
 20
-67.95793
 11
32.757007
 21
-79.624597
  0
LINE
  8
別途部材
  6
CONTINUOUS
 10
35.757007
 20
-66.95793
 11
35.757007
 21
-79.624597
  0
LINE
  8
別途部材
  6
CONTINUOUS
 10
38.757007
 20
-66.95793
 11
38.757007
 21
-79.624597
  0
LINE
  8
別途部材
  6
CONTINUOUS
 10
31.757007
 20
-66.95793
 11
31.757007
 21
-79.624597
  0
LINE
  8
別途部材
  6
CONTINUOUS
 10
33.757007
 20
-67.95793
 11
33.757007
 21
-79.624597
  0
LINE
  8
別途部材
  6
CONTINUOUS
 10
36.757007
 20
-67.95793
 11
36.757007
 21
-79.624597
  0
LINE
  8
別途部材
  6
CONTINUOUS
 10
37.757007
 20
-67.95793
 11
37.757007
 21
-79.624597
  0
LINE
  8
別途部材
  6
CONTINUOUS
 10
27.757007
 20
-66.95793
 11
27.757007
 21
-79.624597
  0
LINE
  8
別途部材
  6
CONTINUOUS
 10
26.757007
 20
-66.95793
 11
26.757007
 21
-79.624597
  0
LINE
  8
別途部材
  6
CONTINUOUS
 10
28.757007
 20
-67.95793
 11
28.757007
 21
-79.624597
  0
LINE
  8
別途部材
  6
CONTINUOUS
 10
34.757007
 20
-66.95793
 11
34.757007
 21
-79.624597
  0
LINE
  8
別途部材
  6
CONTINUOUS
 10
20.757007
 20
-67.95793
 11
20.757007
 21
-79.624597
  0
LINE
  8
別途部材
  6
CONTINUOUS
 10
21.757007
 20
-67.95793
 11
21.757007
 21
-79.624597
  0
LINE
  8
別途部材
  6
CONTINUOUS
 10
19.757007
 20
-66.95793
 11
19.757007
 21
-79.624597
  0
LINE
  8
別途部材
  6
CONTINUOUS
 10
17.757007
 20
-67.95793
 11
17.757007
 21
-79.624597
  0
LINE
  8
別途部材
  6
CONTINUOUS
 10
18.757007
 20
-66.95793
 11
18.757007
 21
-79.624597
  0
ENDBLK
  0
BLOCK
  2
*DIM_0015
 70
    65
 10
0.0
 20
0.0
  0
LINE
  8
寸法
  6
BYBLOCK
 62
     0
 10
145.328765
 20
-45.156955
 11
155.941423
 21
-45.156955
  0
LINE
  8
寸法
  6
BYBLOCK
 62
     0
 10
145.328765
 20
-87.823622
 11
155.941423
 21
-87.823622
  0
LINE
  8
寸法
  6
BYBLOCK
 62
     0
 10
155.941423
 20
-45.156955
 11
155.941423
 21
-87.823622
  0
POINT
  8
寸法
 62
     0
 10
155.941423
 20
-45.156955
  0
POINT
  8
寸法
 62
     0
 10
155.941423
 20
-87.823622
  0
TEXT
  7
TextStyle03
  8
寸法
  6
CONTINUOUS
 62
     0
 10
155.55
 20
-69.78125
  1
1280
 40
3.0
 50
90.0
 72
     5
 11
155.55
 21
-63.21875
  0
ENDBLK
  0
BLOCK
  2
*DIM_0016
 70
    65
 10
0.0
 20
0.0
  0
LINE
  8
寸法
  6
BYBLOCK
 62
     0
 10
-131.742993
 20
23.399048
 11
-160.688158
 21
23.399048
  0
LINE
  8
寸法
  6
BYBLOCK
 62
     0
 10
-131.742993
 20
46.732382
 11
-160.688158
 21
46.732382
  0
LINE
  8
寸法
  6
BYBLOCK
 62
     0
 10
-160.688158
 20
23.399048
 11
-160.688158
 21
46.732382
  0
POINT
  8
寸法
 62
     0
 10
-160.688158
 20
23.399048
  0
POINT
  8
寸法
 62
     0
 10
-160.688158
 20
46.732382
  0
TEXT
  7
TextStyle03
  8
寸法
  6
CONTINUOUS
 62
     0
 10
-161.1
 20
32.6125
  1
700
 40
3.0
 50
90.0
 72
     5
 11
-161.1
 21
37.4875
  0
ENDBLK
  0
BLOCK
  2
*DIM_0017
 70
    65
 10
0.0
 20
0.0
  0
LINE
  8
寸法
  6
BYBLOCK
 62
     0
 10
-122.076325
 20
59.73238
 11
-122.076325
 21
88.840452
  0
LINE
  8
寸法
  6
BYBLOCK
 62
     0
 10
-98.742993
 20
59.73238
 11
-98.742993
 21
88.840452
  0
LINE
  8
寸法
  6
BYBLOCK
 62
     0
 10
-122.076325
 20
88.840452
 11
-98.742993
 21
88.840452
  0
POINT
  8
寸法
 62
     0
 10
-122.076325
 20
88.840452
  0
POINT
  8
寸法
 62
     0
 10
-98.742993
 20
88.840452
  0
TEXT
  7
TextStyle03
  8
寸法
  6
CONTINUOUS
 62
     0
 10
-112.8625
 20
89.2
  1
700
 40
3.0
 72
     5
 11
-107.9875
 21
89.2
  0
ENDBLK
  0
BLOCK
  2
*DIM_0018
 70
    65
 10
0.0
 20
0.0
  0
LINE
  8
寸法
  6
BYBLOCK
 62
     0
 10
-75.40966
 20
59.73238
 11
-75.40966
 21
88.840452
  0
LINE
  8
寸法
  6
BYBLOCK
 62
     0
 10
-98.742993
 20
88.840452
 11
-75.40966
 21
88.840452
  0
POINT
  8
寸法
 62
     0
 10
-75.40966
 20
88.840452
  0
TEXT
  7
TextStyle03
  8
寸法
  6
CONTINUOUS
 62
     0
 10
-89.5375
 20
89.2
  1
700
 40
3.0
 72
     5
 11
-84.6625
 21
89.2
  0
ENDBLK
  0
BLOCK
  2
*DIM_0019
 70
    65
 10
0.0
 20
0.0
  0
LINE
  8
寸法
  6
BYBLOCK
 62
     0
 10
-52.076325
 20
59.73238
 11
-52.076325
 21
88.840452
  0
LINE
  8
寸法
  6
BYBLOCK
 62
     0
 10
-75.40966
 20
88.840452
 11
-52.076325
 21
88.840452
  0
POINT
  8
寸法
 62
     0
 10
-52.076325
 20
88.840452
  0
TEXT
  7
TextStyle03
  8
寸法
  6
CONTINUOUS
 62
     0
 10
-66.1875
 20
89.2
  1
700
 40
3.0
 72
     5
 11
-61.3125
 21
89.2
  0
ENDBLK
  0
BLOCK
  2
*DIM_0020
 70
    65
 10
0.0
 20
0.0
  0
LINE
  8
寸法
  6
BYBLOCK
 62
     0
 10
-28.742993
 20
59.73238
 11
-28.742993
 21
88.840452
  0
LINE
  8
寸法
  6
BYBLOCK
 62
     0
 10
-52.076325
 20
88.840452
 11
-28.742993
 21
88.840452
  0
POINT
  8
寸法
 62
     0
 10
-28.742993
 20
88.840452
  0
TEXT
  7
TextStyle03
  8
寸法
  6
CONTINUOUS
 62
     0
 10
-42.8625
 20
89.2
  1
700
 40
3.0
 72
     5
 11
-37.9875
 21
89.2
  0
ENDBLK
  0
BLOCK
  2
*DIM_0021
 70
    65
 10
0.0
 20
0.0
  0
LINE
  8
寸法
  6
BYBLOCK
 62
     0
 10
-5.40966
 20
59.73238
 11
-5.40966
 21
88.840452
  0
LINE
  8
寸法
  6
BYBLOCK
 62
     0
 10
-28.742993
 20
88.840452
 11
-5.40966
 21
88.840452
  0
POINT
  8
寸法
 62
     0
 10
-5.40966
 20
88.840452
  0
TEXT
  7
TextStyle03
  8
寸法
  6
CONTINUOUS
 62
     0
 10
-19.5375
 20
89.2
  1
700
 40
3.0
 72
     5
 11
-14.6625
 21
89.2
  0
ENDBLK
  0
BLOCK
  2
*DIM_0022
 70
    65
 10
0.0
 20
0.0
  0
LINE
  8
寸法
  6
BYBLOCK
 62
     0
 10
17.923675
 20
59.73238
 11
17.923675
 21
88.840452
  0
LINE
  8
寸法
  6
BYBLOCK
 62
     0
 10
-5.40966
 20
88.840452
 11
17.923675
 21
88.840452
  0
POINT
  8
寸法
 62
     0
 10
17.923675
 20
88.840452
  0
TEXT
  7
TextStyle03
  8
寸法
  6
CONTINUOUS
 62
     0
 10
3.8125
 20
89.2
  1
700
 40
3.0
 72
     5
 11
8.6875
 21
89.2
  0
ENDBLK
  0
BLOCK
  2
*DIM_0023
 70
    65
 10
0.0
 20
0.0
  0
LINE
  8
寸法
  6
BYBLOCK
 62
     0
 10
41.257007
 20
59.73238
 11
41.257007
 21
88.840452
  0
LINE
  8
寸法
  6
BYBLOCK
 62
     0
 10
17.923675
 20
88.840452
 11
41.257007
 21
88.840452
  0
POINT
  8
寸法
 62
     0
 10
41.257007
 20
88.840452
  0
TEXT
  7
TextStyle03
  8
寸法
  6
CONTINUOUS
 62
     0
 10
27.1375
 20
89.2
  1
700
 40
3.0
 72
     5
 11
32.0125
 21
89.2
  0
ENDBLK
  0
BLOCK
  2
*DIM_0024
 70
    65
 10
0.0
 20
0.0
  0
LINE
  8
寸法
  6
BYBLOCK
 62
     0
 10
64.59034
 20
59.73238
 11
64.59034
 21
88.840452
  0
LINE
  8
寸法
  6
BYBLOCK
 62
     0
 10
41.257007
 20
88.840452
 11
64.59034
 21
88.840452
  0
POINT
  8
寸法
 62
     0
 10
64.59034
 20
88.840452
  0
TEXT
  7
TextStyle03
  8
寸法
  6
CONTINUOUS
 62
     0
 10
50.4625
 20
89.2
  1
700
 40
3.0
 72
     5
 11
55.3375
 21
89.2
  0
ENDBLK
  0
BLOCK
  2
*DIM_0025
 70
    65
 10
0.0
 20
0.0
  0
LINE
  8
寸法
  6
CONTINUOUS
 10
110.578652
 20
-40.156955
 11
110.578652
 21
-33.792385
  0
LINE
  8
寸法
  6
CONTINUOUS
 10
142.88432
 20
-40.156955
 11
142.88432
 21
-33.792385
  0
LINE
  8
寸法
  6
CONTINUOUS
 10
110.578652
 20
-33.792385
 11
142.88432
 21
-33.792385
  0
POINT
  8
寸法
 10
110.578652
 20
-33.792385
  0
POINT
  8
寸法
 10
142.88432
 20
-33.792385
  0
TEXT
  7
TextStyle03
  8
寸法
  6
CONTINUOUS
 10
122.6
 20
-33.425
  1
969.2
 40
3.0
 72
     5
 11
130.85
 21
-33.425
  0
ENDBLK
  0
BLOCK
  2
*GRP_0026
 70
    65
 10
0.0
 20
0.0
  0
LINE
  8
ボルト／ビス
  6
CONTINUOUS
 10
-129.40966
 20
-79.624597
 11
-129.40966
 21
-79.15793
  0
LINE
  8
ボルト／ビス
  6
CONTINUOUS
 10
-129.776325
 20
-79.624597
 11
-129.776325
 21
-79.55793
  0
LINE
  8
ボルト／ビス
  6
CONTINUOUS
 10
-129.776325
 20
-79.55793
 11
-129.042993
 21
-79.55793
  0
LINE
  8
ボルト／ビス
  6
CONTINUOUS
 10
-129.042993
 20
-79.55793
 11
-129.042993
 21
-79.624597
  0
LINE
  8
ボルト／ビス
  6
CONTINUOUS
 10
-129.776325
 20
-79.624597
 11
-129.042993
 21
-79.624597
  0
LINE
  8
ボルト／ビス
  6
CONTINUOUS
 10
-129.70966
 20
-79.524597
 11
-129.70966
 21
-79.55793
  0
LINE
  8
ボルト／ビス
  6
CONTINUOUS
 10
-129.70966
 20
-79.524597
 11
-129.10966
 21
-79.524597
  0
LINE
  8
ボルト／ビス
  6
CONTINUOUS
 10
-129.10966
 20
-79.524597
 11
-129.10966
 21
-79.55793
  0
LINE
  8
ボルト／ビス
  6
CONTINUOUS
 62
    64
 10
-129.570035
 20
-79.324597
 11
-129.60211
 21
-79.336272
  0
ARC
  8
ボルト／ビス
  6
CONTINUOUS
 62
    64
 10
-129.553996
 20
-79.429575
 40
0.104978
 50
62.721967
 51
90.0
  0
ARC
  8
ボルト／ビス
  6
CONTINUOUS
 62
    64
 10
-129.409658
 20
-79.726998
 40
0.402402
 50
76.165002
 51
103.834985
  0
LINE
  8
ボルト／ビス
  6
CONTINUOUS
 62
    64
 10
-129.249285
 20
-79.324597
 11
-129.21721
 21
-79.336272
  0
ARC
  8
ボルト／ビス
  6
CONTINUOUS
 62
    64
 10
-129.265321
 20
-79.429575
 40
0.104978
 50
90.0
 51
117.278033
  0
LINE
  8
ボルト／ビス
  6
CONTINUOUS
 62
    64
 10
-129.570035
 20
-79.324597
 11
-129.249285
 21
-79.324597
  0
LINE
  8
ボルト／ビス
  6
CONTINUOUS
 62
    64
 10
-129.21721
 20
-79.336272
 11
-129.21721
 21
-79.45793
  0
LINE
  8
ボルト／ビス
  6
CONTINUOUS
 62
    64
 10
-129.313435
 20
-79.336272
 11
-129.313435
 21
-79.45793
  0
LINE
  8
ボルト／ビス
  6
CONTINUOUS
 62
    64
 10
-129.60211
 20
-79.336272
 11
-129.60211
 21
-79.45793
  0
LINE
  8
ボルト／ビス
  6
CONTINUOUS
 62
    64
 10
-129.505885
 20
-79.336272
 11
-129.505885
 21
-79.45793
  0
LINE
  8
ボルト／ビス
  6
CONTINUOUS
 10
-129.60211
 20
-79.45793
 11
-129.21721
 21
-79.45793
  0
LINE
  8
ボルト／ビス
  6
CONTINUOUS
 10
-129.60966
 20
-79.45793
 11
-129.60966
 21
-79.524597
  0
LINE
  8
ボルト／ビス
  6
CONTINUOUS
 10
-129.60966
 20
-79.45793
 11
-129.20966
 21
-79.45793
  0
LINE
  8
ボルト／ビス
  6
CONTINUOUS
 10
-129.20966
 20
-79.45793
 11
-129.20966
 21
-79.524597
  0
ENDBLK
  0
BLOCK
  2
*GRP_0027
 70
    65
 10
0.0
 20
0.0
  0
LINE
  8
ボルト／ビス
  6
CONTINUOUS
 10
71.923675
 20
-79.624597
 11
71.923675
 21
-79.15793
  0
LINE
  8
ボルト／ビス
  6
CONTINUOUS
 10
71.55701
 20
-79.624597
 11
71.55701
 21
-79.55793
  0
LINE
  8
ボルト／ビス
  6
CONTINUOUS
 10
71.55701
 20
-79.55793
 11
72.290343
 21
-79.55793
  0
LINE
  8
ボルト／ビス
  6
CONTINUOUS
 10
72.290343
 20
-79.55793
 11
72.290343
 21
-79.624597
  0
LINE
  8
ボルト／ビス
  6
CONTINUOUS
 10
71.55701
 20
-79.624597
 11
72.290343
 21
-79.624597
  0
LINE
  8
ボルト／ビス
  6
CONTINUOUS
 10
71.623675
 20
-79.524597
 11
71.623675
 21
-79.55793
  0
LINE
  8
ボルト／ビス
  6
CONTINUOUS
 10
71.623675
 20
-79.524597
 11
72.223675
 21
-79.524597
  0
LINE
  8
ボルト／ビス
  6
CONTINUOUS
 10
72.223675
 20
-79.524597
 11
72.223675
 21
-79.55793
  0
LINE
  8
ボルト／ビス
  6
CONTINUOUS
 62
    64
 10
71.7633
 20
-79.324597
 11
71.731225
 21
-79.336272
  0
ARC
  8
ボルト／ビス
  6
CONTINUOUS
 62
    64
 10
71.779339
 20
-79.429575
 40
0.104978
 50
62.721967
 51
90.0
  0
ARC
  8
ボルト／ビス
  6
CONTINUOUS
 62
    64
 10
71.923677
 20
-79.726998
 40
0.402402
 50
76.165002
 51
103.834985
  0
LINE
  8
ボルト／ビス
  6
CONTINUOUS
 62
    64
 10
72.08405
 20
-79.324597
 11
72.116125
 21
-79.336272
  0
ARC
  8
ボルト／ビス
  6
CONTINUOUS
 62
    64
 10
72.068014
 20
-79.429575
 40
0.104978
 50
90.0
 51
117.278033
  0
LINE
  8
ボルト／ビス
  6
CONTINUOUS
 62
    64
 10
71.7633
 20
-79.324597
 11
72.08405
 21
-79.324597
  0
LINE
  8
ボルト／ビス
  6
CONTINUOUS
 62
    64
 10
72.116125
 20
-79.336272
 11
72.116125
 21
-79.45793
  0
LINE
  8
ボルト／ビス
  6
CONTINUOUS
 62
    64
 10
72.0199
 20
-79.336272
 11
72.0199
 21
-79.45793
  0
LINE
  8
ボルト／ビス
  6
CONTINUOUS
 62
    64
 10
71.731225
 20
-79.336272
 11
71.731225
 21
-79.45793
  0
LINE
  8
ボルト／ビス
  6
CONTINUOUS
 62
    64
 10
71.82745
 20
-79.336272
 11
71.82745
 21
-79.45793
  0
LINE
  8
ボルト／ビス
  6
CONTINUOUS
 10
71.731225
 20
-79.45793
 11
72.116125
 21
-79.45793
  0
LINE
  8
ボルト／ビス
  6
CONTINUOUS
 10
71.723675
 20
-79.45793
 11
71.723675
 21
-79.524597
  0
LINE
  8
ボルト／ビス
  6
CONTINUOUS
 10
71.723675
 20
-79.45793
 11
72.123675
 21
-79.45793
  0
LINE
  8
ボルト／ビス
  6
CONTINUOUS
 10
72.123675
 20
-79.45793
 11
72.123675
 21
-79.524597
  0
ENDBLK
  0
BLOCK
  2
*GRP_0028
 70
    65
 10
0.0
 20
0.0
  0
LINE
  8
ボルト／ビス
  6
CONTINUOUS
 10
160.790272
 20
12.73238
 11
160.323605
 21
12.73238
  0
LINE
  8
ボルト／ビス
  6
CONTINUOUS
 10
160.790272
 20
12.365715
 11
160.723605
 21
12.365715
  0
LINE
  8
ボルト／ビス
  6
CONTINUOUS
 10
160.723605
 20
12.365715
 11
160.723605
 21
13.099048
  0
LINE
  8
ボルト／ビス
  6
CONTINUOUS
 10
160.723605
 20
13.099048
 11
160.790272
 21
13.099048
  0
LINE
  8
ボルト／ビス
  6
CONTINUOUS
 10
160.790272
 20
12.365715
 11
160.790272
 21
13.099048
  0
LINE
  8
ボルト／ビス
  6
CONTINUOUS
 10
160.690272
 20
12.43238
 11
160.723605
 21
12.43238
  0
LINE
  8
ボルト／ビス
  6
CONTINUOUS
 10
160.690272
 20
12.43238
 11
160.690272
 21
13.03238
  0
LINE
  8
ボルト／ビス
  6
CONTINUOUS
 10
160.690272
 20
13.03238
 11
160.723605
 21
13.03238
  0
LINE
  8
ボルト／ビス
  6
CONTINUOUS
 62
    64
 10
160.490273
 20
12.572005
 11
160.501947
 21
12.53993
  0
ARC
  8
ボルト／ビス
  6
CONTINUOUS
 62
    64
 10
160.595249
 20
12.588045
 40
0.104978
 50
152.721967
 51
180.0
  0
ARC
  8
ボルト／ビス
  6
CONTINUOUS
 62
    64
 10
160.892673
 20
12.732382
 40
0.402402
 50
166.165002
 51
193.834985
  0
LINE
  8
ボルト／ビス
  6
CONTINUOUS
 62
    64
 10
160.490273
 20
12.892755
 11
160.501947
 21
12.92483
  0
ARC
  8
ボルト／ビス
  6
CONTINUOUS
 62
    64
 10
160.595249
 20
12.87672
 40
0.104978
 50
180.0
 51
207.278033
  0
LINE
  8
ボルト／ビス
  6
CONTINUOUS
 62
    64
 10
160.490273
 20
12.572005
 11
160.490273
 21
12.892755
  0
LINE
  8
ボルト／ビス
  6
CONTINUOUS
 62
    64
 10
160.501947
 20
12.92483
 11
160.623605
 21
12.92483
  0
LINE
  8
ボルト／ビス
  6
CONTINUOUS
 62
    64
 10
160.501947
 20
12.828605
 11
160.623605
 21
12.828605
  0
LINE
  8
ボルト／ビス
  6
CONTINUOUS
 62
    64
 10
160.501947
 20
12.53993
 11
160.623605
 21
12.53993
  0
LINE
  8
ボルト／ビス
  6
CONTINUOUS
 62
    64
 10
160.501947
 20
12.636155
 11
160.623605
 21
12.636155
  0
LINE
  8
ボルト／ビス
  6
CONTINUOUS
 10
160.623605
 20
12.53993
 11
160.623605
 21
12.92483
  0
LINE
  8
ボルト／ビス
  6
CONTINUOUS
 10
160.623605
 20
12.53238
 11
160.690272
 21
12.53238
  0
LINE
  8
ボルト／ビス
  6
CONTINUOUS
 10
160.623605
 20
12.53238
 11
160.623605
 21
12.93238
  0
LINE
  8
ボルト／ビス
  6
CONTINUOUS
 10
160.623605
 20
12.93238
 11
160.690272
 21
12.93238
  0
ENDBLK
  0
BLOCK
  2
*GRP_0029
 70
    65
 10
0.0
 20
0.0
  0
LINE
  8
ボルト／ビス
  6
CONTINUOUS
 10
160.790272
 20
57.39905
 11
160.323605
 21
57.39905
  0
LINE
  8
ボルト／ビス
  6
CONTINUOUS
 10
160.790272
 20
57.032385
 11
160.723605
 21
57.032385
  0
LINE
  8
ボルト／ビス
  6
CONTINUOUS
 10
160.723605
 20
57.032385
 11
160.723605
 21
57.765718
  0
LINE
  8
ボルト／ビス
  6
CONTINUOUS
 10
160.723605
 20
57.765718
 11
160.790272
 21
57.765718
  0
LINE
  8
ボルト／ビス
  6
CONTINUOUS
 10
160.790272
 20
57.032385
 11
160.790272
 21
57.765718
  0
LINE
  8
ボルト／ビス
  6
CONTINUOUS
 10
160.690272
 20
57.09905
 11
160.723605
 21
57.09905
  0
LINE
  8
ボルト／ビス
  6
CONTINUOUS
 10
160.690272
 20
57.09905
 11
160.690272
 21
57.69905
  0
LINE
  8
ボルト／ビス
  6
CONTINUOUS
 10
160.690272
 20
57.69905
 11
160.723605
 21
57.69905
  0
LINE
  8
ボルト／ビス
  6
CONTINUOUS
 62
    64
 10
160.490273
 20
57.238675
 11
160.501947
 21
57.2066
  0
ARC
  8
ボルト／ビス
  6
CONTINUOUS
 62
    64
 10
160.595249
 20
57.254715
 40
0.104978
 50
152.721967
 51
180.0
  0
ARC
  8
ボルト／ビス
  6
CONTINUOUS
 62
    64
 10
160.892673
 20
57.399052
 40
0.402402
 50
166.165002
 51
193.834985
  0
LINE
  8
ボルト／ビス
  6
CONTINUOUS
 62
    64
 10
160.490273
 20
57.559425
 11
160.501947
 21
57.5915
  0
ARC
  8
ボルト／ビス
  6
CONTINUOUS
 62
    64
 10
160.595249
 20
57.54339
 40
0.104978
 50
180.0
 51
207.278033
  0
LINE
  8
ボルト／ビス
  6
CONTINUOUS
 62
    64
 10
160.490273
 20
57.238675
 11
160.490273
 21
57.559425
  0
LINE
  8
ボルト／ビス
  6
CONTINUOUS
 62
    64
 10
160.501947
 20
57.5915
 11
160.623605
 21
57.5915
  0
LINE
  8
ボルト／ビス
  6
CONTINUOUS
 62
    64
 10
160.501947
 20
57.495275
 11
160.623605
 21
57.495275
  0
LINE
  8
ボルト／ビス
  6
CONTINUOUS
 62
    64
 10
160.501947
 20
57.2066
 11
160.623605
 21
57.2066
  0
LINE
  8
ボルト／ビス
  6
CONTINUOUS
 62
    64
 10
160.501947
 20
57.302825
 11
160.623605
 21
57.302825
  0
LINE
  8
ボルト／ビス
  6
CONTINUOUS
 10
160.623605
 20
57.2066
 11
160.623605
 21
57.5915
  0
LINE
  8
ボルト／ビス
  6
CONTINUOUS
 10
160.623605
 20
57.19905
 11
160.690272
 21
57.19905
  0
LINE
  8
ボルト／ビス
  6
CONTINUOUS
 10
160.623605
 20
57.19905
 11
160.623605
 21
57.59905
  0
LINE
  8
ボルト／ビス
  6
CONTINUOUS
 10
160.623605
 20
57.59905
 11
160.690272
 21
57.59905
  0
ENDBLK
  0
ENDSEC
  0
SECTION
  2
ENTITIES
  0
POLYLINE
  8
通り芯
  6
CONTINUOUS
 66
     1
 70
     1
  0
VERTEX
  8
通り芯
 10
-210.0
 20
-148.5
  0
VERTEX
  8
通り芯
 10
210.0
 20
-148.5
  0
VERTEX
  8
通り芯
 10
210.0
 20
148.5
  0
VERTEX
  8
通り芯
 10
-210.0
 20
148.5
  0
SEQEND
  0
INSERT
  2
*GRP_0001
  8
型材断面
  6
CONTINUOUS
 10
0.0
 20
0.0
  0
LINE
  8
型材断面
  6
DASHDOT
 10
-128.742993
 20
13.399048
 11
168.93377
 21
13.399048
  0
LINE
  8
型材断面
  6
DASHDOT
 10
-128.742993
 20
56.73238
 11
168.93377
 21
56.73238
  0
LINE
  8
型材断面
  6
DOT
 10
-29.992993
 20
13.399048
 11
-29.992993
 21
56.73238
  0
LINE
  8
型材断面
  6
DOT
 10
-27.492993
 20
13.399048
 11
-27.492993
 21
56.73238
  0
LINE
  8
型材断面
  6
DASHDOT
 10
-128.742993
 20
35.065715
 11
168.93377
 21
35.065715
  0
LINE
  8
型材断面
  6
DASHDOT
 10
-128.742993
 20
-87.251428
 11
-128.742993
 21
56.73238
  0
LINE
  8
型材断面
  6
DASHDOT
 10
-28.742993
 20
-87.251428
 11
-28.742993
 21
56.73238
  0
LINE
  8
型材断面
  6
DASHDOT
 10
71.257007
 20
-87.251428
 11
71.257007
 21
56.73238
  0
LINE
  8
型材断面
  6
CONTINUOUS
 10
-131.373123
 20
35.065715
 11
-133.96363
 21
36.561345
  0
LINE
  8
型材断面
  6
CONTINUOUS
 10
-131.373123
 20
35.065715
 11
-133.96363
 21
33.570085
  0
LINE
  8
型材断面
  6
CONTINUOUS
 10
-133.96363
 20
33.570085
 11
-133.96363
 21
36.561345
  0
LINE
  8
型材断面
  6
CONTINUOUS
 10
-112.076325
 20
59.36251
 11
-113.571955
 21
61.953017
  0
LINE
  8
型材断面
  6
CONTINUOUS
 10
-112.076325
 20
59.36251
 11
-110.580695
 21
61.953017
  0
LINE
  8
型材断面
  6
CONTINUOUS
 10
-110.580695
 20
61.953017
 11
-113.571955
 21
61.953017
  0
LINE
  8
型材断面
  6
CONTINUOUS
 10
-28.742993
 20
59.36251
 11
-30.238623
 21
61.953017
  0
LINE
  8
型材断面
  6
CONTINUOUS
 10
-28.742993
 20
59.36251
 11
-27.247362
 21
61.953017
  0
LINE
  8
型材断面
  6
CONTINUOUS
 10
-27.247362
 20
61.953017
 11
-30.238623
 21
61.953017
  0
LINE
  8
型材断面
  6
CONTINUOUS
 10
54.59034
 20
59.36251
 11
53.09471
 21
61.953017
  0
LINE
  8
型材断面
  6
CONTINUOUS
 10
54.59034
 20
59.36251
 11
56.08597
 21
61.953017
  0
LINE
  8
型材断面
  6
CONTINUOUS
 10
56.08597
 20
61.953017
 11
53.09471
 21
61.953017
  0
LINE
  8
型材断面
  6
CONTINUOUS
 10
-169.5952
 20
101.239727
 11
-171.09083
 21
98.64922
  0
LINE
  8
型材断面
  6
CONTINUOUS
 10
-169.5952
 20
101.239727
 11
-168.09957
 21
98.64922
  0
LINE
  8
型材断面
  6
CONTINUOUS
 10
-168.09957
 20
98.64922
 11
-171.09083
 21
98.64922
  0
LINE
  8
型材断面
  6
CONTINUOUS
 10
-175.617788
 20
97.710625
 11
-129.37601
 21
97.710625
  0
LINE
  8
型材断面
  6
CONTINUOUS
 10
-112.076325
 20
10.76892
 11
-113.571955
 21
8.178413
  0
LINE
  8
型材断面
  6
CONTINUOUS
 10
-112.076325
 20
10.76892
 11
-110.580695
 21
8.178413
  0
LINE
  8
型材断面
  6
CONTINUOUS
 10
-110.580695
 20
8.178413
 11
-113.571955
 21
8.178413
  0
LINE
  8
型材断面
  6
CONTINUOUS
 10
-28.742993
 20
10.76892
 11
-30.238623
 21
8.178413
  0
LINE
  8
型材断面
  6
CONTINUOUS
 10
-28.742993
 20
10.76892
 11
-27.247362
 21
8.178413
  0
LINE
  8
型材断面
  6
CONTINUOUS
 10
-27.247362
 20
8.178413
 11
-30.238623
 21
8.178413
  0
LINE
  8
型材断面
  6
CONTINUOUS
 10
54.59034
 20
10.76892
 11
53.09471
 21
8.178413
  0
LINE
  8
型材断面
  6
CONTINUOUS
 10
54.59034
 20
10.76892
 11
56.08597
 21
8.178413
  0
LINE
  8
型材断面
  6
CONTINUOUS
 10
56.08597
 20
8.178413
 11
53.09471
 21
8.178413
  0
LINE
  8
型材断面
  6
CONTINUOUS
 10
73.887138
 20
35.065715
 11
76.477645
 21
36.561345
  0
LINE
  8
型材断面
  6
CONTINUOUS
 10
73.887138
 20
35.065715
 11
76.477645
 21
33.570085
  0
LINE
  8
型材断面
  6
CONTINUOUS
 10
76.477645
 20
33.570085
 11
76.477645
 21
36.561345
  0
LINE
  8
型材断面
  6
CONTINUOUS
 10
-175.617788
 20
91.63242
 11
-129.37601
 21
91.63242
  0
LINE
  8
型材断面
  6
CONTINUOUS
 10
163.323558
 20
58.889195
 11
162.873558
 21
58.889195
  0
LINE
  8
型材断面
  6
CONTINUOUS
 62
    47
 10
162.873558
 20
59.339195
 11
162.373558
 21
59.339195
  0
LINE
  8
型材断面
  6
CONTINUOUS
 62
    47
 10
162.373558
 20
59.339195
 11
161.790272
 21
57.464738
  0
LINE
  8
型材断面
  6
CONTINUOUS
 10
162.373558
 20
59.339195
 11
162.373558
 21
35.065715
  0
LINE
  8
型材断面
  6
CONTINUOUS
 10
163.323558
 20
58.889195
 11
163.323558
 21
35.065715
  0
LINE
  8
型材断面
  6
CONTINUOUS
 10
163.323558
 20
11.242235
 11
162.873558
 21
11.242235
  0
LINE
  8
型材断面
  6
CONTINUOUS
 62
    47
 10
162.873558
 20
10.792235
 11
162.373558
 21
10.792235
  0
LINE
  8
型材断面
  6
CONTINUOUS
 62
    47
 10
162.373558
 20
10.792235
 11
161.790272
 21
12.666692
  0
LINE
  8
型材断面
  6
CONTINUOUS
 10
162.373558
 20
10.792235
 11
162.373558
 21
35.065715
  0
LINE
  8
型材断面
  6
CONTINUOUS
 10
163.323558
 20
11.242235
 11
163.323558
 21
35.065715
  0
LINE
  8
型材断面
  6
CONTINUOUS
 10
73.41382
 20
-82.157882
 11
73.41382
 21
-81.707882
  0
LINE
  8
型材断面
  6
CONTINUOUS
 62
    47
 10
73.86382
 20
-81.707882
 11
73.86382
 21
-81.207882
  0
LINE
  8
型材断面
  6
CONTINUOUS
 62
    47
 10
73.86382
 20
-81.207882
 11
71.989363
 21
-80.624597
  0
LINE
  8
型材断面
  6
CONTINUOUS
 10
73.323675
 20
11.33238
 11
73.86382
 21
10.792235
  0
LINE
  8
型材断面
  6
CONTINUOUS
 10
73.86382
 20
10.792235
 11
73.86382
 21
35.065715
  0
LINE
  8
型材断面
  6
CONTINUOUS
 10
73.86382
 20
10.792235
 11
-28.742993
 21
10.792265
  0
LINE
  8
型材断面
  6
CONTINUOUS
 10
73.323675
 20
58.79905
 11
73.86382
 21
59.339195
  0
LINE
  8
型材断面
  6
CONTINUOUS
 10
73.86382
 20
59.339195
 11
73.86382
 21
35.065715
  0
LINE
  8
型材断面
  6
CONTINUOUS
 10
73.86382
 20
59.339195
 11
-28.742993
 21
59.339165
  0
LINE
  8
型材断面
  6
CONTINUOUS
 10
-130.80966
 20
58.79905
 11
-131.349805
 21
59.339195
  0
LINE
  8
型材断面
  6
CONTINUOUS
 10
-131.349805
 20
59.339195
 11
-131.349805
 21
35.065715
  0
LINE
  8
型材断面
  6
CONTINUOUS
 10
-131.349805
 20
59.339195
 11
-28.742993
 21
59.339165
  0
LINE
  8
型材断面
  6
CONTINUOUS
 10
-130.80966
 20
11.33238
 11
-131.349805
 21
10.792235
  0
LINE
  8
型材断面
  6
CONTINUOUS
 10
-131.349805
 20
10.792235
 11
-131.349805
 21
35.065715
  0
LINE
  8
型材断面
  6
CONTINUOUS
 10
-131.349805
 20
10.792235
 11
-28.742993
 21
10.792265
  0
LINE
  8
型材断面
  6
CONTINUOUS
 10
73.86382
 20
-81.207882
 11
-28.742993
 21
-81.207882
  0
LINE
  8
型材断面
  6
CONTINUOUS
 10
73.41382
 20
-82.157882
 11
-28.742993
 21
-82.157882
  0
LINE
  8
型材断面
  6
CONTINUOUS
 10
-130.899805
 20
-82.157882
 11
-130.899805
 21
-81.707882
  0
LINE
  8
型材断面
  6
CONTINUOUS
 62
    47
 10
-131.349805
 20
-81.707882
 11
-131.349805
 21
-81.207882
  0
LINE
  8
型材断面
  6
CONTINUOUS
 62
    47
 10
-131.349805
 20
-81.207882
 11
-129.475348
 21
-80.624597
  0
LINE
  8
型材断面
  6
CONTINUOUS
 10
-131.349805
 20
-81.207882
 11
-28.742993
 21
-81.207882
  0
LINE
  8
型材断面
  6
CONTINUOUS
 10
-130.899805
 20
-82.157882
 11
-28.742993
 21
-82.157882
  0
LINE
  8
型材断面
  6
DASHDOT
 10
-95.554103
 20
13.399048
 11
-95.554103
 21
56.73238
  0
LINE
  8
型材断面
  6
DOT
 10
-96.804103
 20
13.399048
 11
-96.804103
 21
56.73238
  0
LINE
  8
型材断面
  6
DOT
 10
-94.304103
 20
13.399048
 11
-94.304103
 21
56.73238
  0
LINE
  8
型材断面
  6
DASHDOT
 10
-62.148548
 20
13.399048
 11
-62.148548
 21
56.73238
  0
LINE
  8
型材断面
  6
DOT
 10
-63.398548
 20
13.399048
 11
-63.398548
 21
56.73238
  0
LINE
  8
型材断面
  6
DOT
 10
-60.898548
 20
13.399048
 11
-60.898548
 21
56.73238
  0
LINE
  8
型材断面
  6
DASHDOT
 10
38.068117
 20
13.399048
 11
38.068117
 21
56.73238
  0
LINE
  8
型材断面
  6
DOT
 10
39.318117
 20
13.399048
 11
39.318117
 21
56.73238
  0
LINE
  8
型材断面
  6
DOT
 10
36.818117
 20
13.399048
 11
36.818117
 21
56.73238
  0
LINE
  8
型材断面
  6
DASHDOT
 10
4.662563
 20
13.399048
 11
4.662563
 21
56.73238
  0
LINE
  8
型材断面
  6
DOT
 10
5.912563
 20
13.399048
 11
5.912563
 21
56.73238
  0
LINE
  8
型材断面
  6
DOT
 10
3.412563
 20
13.399048
 11
3.412563
 21
56.73238
  0
LINE
  8
ガラス
  6
CONTINUOUS
 10
142.88432
 20
-45.156955
 11
142.88432
 21
-87.823622
  0
LINE
  8
ガラス
  6
CONTINUOUS
 10
142.88432
 20
-87.823622
 11
110.578652
 21
-87.823622
  0
LINE
  8
ガラス
  6
CONTINUOUS
 10
110.578652
 20
-87.823622
 11
110.578652
 21
-45.156955
  0
LINE
  8
ガラス
  6
CONTINUOUS
 10
142.88432
 20
-45.156955
 11
110.578652
 21
-45.156955
  0
TEXT
  7
TextStyle03
  8
文字
  6
CONTINUOUS
 10
-166.775
 20
98.85
  1
は排水穴位置を示す
 40
3.0
 72
     5
 11
-136.775
 21
98.85
  0
TEXT
  7
TextStyle03
  8
文字
  6
CONTINUOUS
 10
124.05
 20
-81.275
  1
網入り6.8t
 40
3.0
 72
     5
 11
140.7375
 21
-81.275
  0
TEXT
  7
TextStyle03
  8
文字
  6
CONTINUOUS
 10
130.725
 20
-85.95
  1
×６枚
 40
3.0
 72
     5
 11
140.475
 21
-85.95
  0
TEXT
  7
TextStyle03
  8
文字
  6
CONTINUOUS
 10
-166.3
 20
23.975
  1
アンカーピッチ
 40
3.0
 50
90.0
 72
     5
 11
-166.3
 21
47.225
  0
TEXT
  7
TextStyle03
  8
文字
  6
CONTINUOUS
 10
-115.3
 20
93.875
  1
アンカーピッチ
 40
3.0
 72
     5
 11
-92.05
 21
93.875
  0
TEXT
  7
TextStyle03
  8
文字
  6
CONTINUOUS
 10
-170.5
 20
92.55
  1
アンカー数量　２２ヶ所
 40
3.0
 72
     5
 11
-133.75
 21
92.55
  0
TEXT
  7
TextStyle03
  8
文字
  6
CONTINUOUS
 10
78.1
 20
125.25
  1
シリーズ：ＳＴＤＫＬ
 40
5.0
 72
     5
 11
133.725
 21
125.25
  0
TEXT
  7
TextStyle03
  8
文字
  6
CONTINUOUS
 10
78.1
 20
119.625
  1
　　　　　（固定）1300×6000タイプ
 40
5.0
 72
     5
 11
173.1
 21
119.625
  0
TEXT
  7
TextStyle03
  8
文字
  6
CONTINUOUS
 10
78.1
 20
114.0
  1
図面名　：外観姿図
 40
5.0
 72
     5
 11
128.1
 21
114.0
  0
TEXT
  7
TextStyle03
  8
文字
  6
CONTINUOUS
 10
78.1
 20
108.375
  1
　　　　　　
 40
5.0
 72
     5
 11
111.225
 21
108.375
  0
TEXT
  7
TextStyle03
  8
文字
  6
CONTINUOUS
 10
78.375
 20
104.525
  1
ＮＳコード：ＮＳＫＳＬ
 40
5.0
 72
     5
 11
139.625
 21
104.525
  0
INSERT
  2
*DIM_0002
  8
寸法
  6
CONTINUOUS
 10
0.0
 20
0.0
  0
INSERT
  2
*DIM_0003
  8
寸法
  6
CONTINUOUS
 10
0.0
 20
0.0
  0
INSERT
  2
*DIM_0004
  8
寸法
  6
CONTINUOUS
 10
0.0
 20
0.0
  0
INSERT
  2
*DIM_0005
  8
寸法
  6
CONTINUOUS
 10
0.0
 20
0.0
  0
INSERT
  2
*DIM_0006
  8
寸法
  6
CONTINUOUS
 10
0.0
 20
0.0
  0
INSERT
  2
*DIM_0007
  8
寸法
  6
CONTINUOUS
 10
0.0
 20
0.0
  0
INSERT
  2
*DIM_0008
  8
寸法
  6
CONTINUOUS
 10
0.0
 20
0.0
  0
INSERT
  2
*DIM_0009
  8
寸法
  6
CONTINUOUS
 10
0.0
 20
0.0
  0
INSERT
  2
*DIM_0010
  8
寸法
  6
CONTINUOUS
 10
0.0
 20
0.0
  0
INSERT
  2
*DIM_0011
  8
寸法
  6
CONTINUOUS
 10
0.0
 20
0.0
  0
INSERT
  2
*DIM_0012
  8
寸法
  6
CONTINUOUS
 10
0.0
 20
0.0
  0
INSERT
  2
*DIM_0013
  8
寸法
  6
CONTINUOUS
 10
0.0
 20
0.0
  0
INSERT
  2
*DIM_0015
  8
寸法
  6
CONTINUOUS
 10
0.0
 20
0.0
  0
INSERT
  2
*DIM_0016
  8
寸法
  6
CONTINUOUS
 10
0.0
 20
0.0
  0
INSERT
  2
*DIM_0017
  8
寸法
  6
CONTINUOUS
 10
0.0
 20
0.0
  0
INSERT
  2
*DIM_0018
  8
寸法
  6
CONTINUOUS
 10
0.0
 20
0.0
  0
INSERT
  2
*DIM_0019
  8
寸法
  6
CONTINUOUS
 10
0.0
 20
0.0
  0
INSERT
  2
*DIM_0020
  8
寸法
  6
CONTINUOUS
 10
0.0
 20
0.0
  0
INSERT
  2
*DIM_0021
  8
寸法
  6
CONTINUOUS
 10
0.0
 20
0.0
  0
INSERT
  2
*DIM_0022
  8
寸法
  6
CONTINUOUS
 10
0.0
 20
0.0
  0
INSERT
  2
*DIM_0023
  8
寸法
  6
CONTINUOUS
 10
0.0
 20
0.0
  0
INSERT
  2
*DIM_0024
  8
寸法
  6
CONTINUOUS
 10
0.0
 20
0.0
  0
INSERT
  2
*DIM_0025
  8
寸法
  6
CONTINUOUS
 10
0.0
 20
0.0
  0
LINE
  8
別途部材
  6
CONTINUOUS
 10
-130.80966
 20
11.33238
 11
-130.40966
 21
11.73238
  0
LINE
  8
別途部材
  6
CONTINUOUS
 10
-128.742993
 20
13.399048
 11
-120.683738
 21
21.458305
  0
LINE
  8
別途部材
  6
CONTINUOUS
 10
-130.40966
 20
11.73238
 11
-28.742993
 21
11.73238
  0
LINE
  8
別途部材
  6
CONTINUOUS
 10
-130.80966
 20
11.33238
 11
-28.742993
 21
11.33238
  0
LINE
  8
別途部材
  6
CONTINUOUS
 10
73.323675
 20
11.33238
 11
72.923675
 21
11.73238
  0
LINE
  8
別途部材
  6
CONTINUOUS
 10
71.257007
 20
13.399048
 11
63.197753
 21
21.458305
  0
LINE
  8
別途部材
  6
CONTINUOUS
 10
72.923675
 20
11.73238
 11
-28.742993
 21
11.73238
  0
LINE
  8
別途部材
  6
CONTINUOUS
 10
73.323675
 20
11.33238
 11
-28.742993
 21
11.33238
  0
LINE
  8
別途部材
  6
CONTINUOUS
 10
72.923675
 20
11.73238
 11
72.923675
 21
35.065715
  0
LINE
  8
別途部材
  6
CONTINUOUS
 10
73.323675
 20
11.33238
 11
73.323675
 21
35.065715
  0
LINE
  8
別途部材
  6
CONTINUOUS
 10
-130.80966
 20
11.33238
 11
-130.80966
 21
35.065715
  0
LINE
  8
別途部材
  6
CONTINUOUS
 10
-130.40966
 20
11.73238
 11
-130.40966
 21
35.065715
  0
LINE
  8
別途部材
  6
CONTINUOUS
 10
-130.80966
 20
58.79905
 11
-130.40966
 21
58.39905
  0
LINE
  8
別途部材
  6
CONTINUOUS
 10
-128.742993
 20
56.732382
 11
-120.683738
 21
48.673125
  0
LINE
  8
別途部材
  6
CONTINUOUS
 10
-130.40966
 20
58.39905
 11
-28.742993
 21
58.39905
  0
LINE
  8
別途部材
  6
CONTINUOUS
 10
-130.80966
 20
58.79905
 11
-28.742993
 21
58.79905
  0
LINE
  8
別途部材
  6
CONTINUOUS
 10
73.323675
 20
58.79905
 11
72.923675
 21
58.39905
  0
LINE
  8
別途部材
  6
CONTINUOUS
 10
71.257007
 20
56.732382
 11
63.197753
 21
48.673125
  0
LINE
  8
別途部材
  6
CONTINUOUS
 10
72.923675
 20
58.39905
 11
-28.742993
 21
58.39905
  0
LINE
  8
別途部材
  6
CONTINUOUS
 10
73.323675
 20
58.79905
 11
-28.742993
 21
58.79905
  0
LINE
  8
別途部材
  6
CONTINUOUS
 10
72.923675
 20
58.39905
 11
72.923675
 21
35.065715
  0
LINE
  8
別途部材
  6
CONTINUOUS
 10
73.323675
 20
58.79905
 11
73.323675
 21
35.065715
  0
LINE
  8
別途部材
  6
CONTINUOUS
 10
-130.80966
 20
58.79905
 11
-130.80966
 21
35.065715
  0
LINE
  8
別途部材
  6
CONTINUOUS
 10
-130.40966
 20
58.39905
 11
-130.40966
 21
35.065715
  0
LINE
  8
別途部材
  6
CONTINUOUS
 62
    96
 10
160.790272
 20
11.73238
 11
161.790272
 21
11.33238
  0
LINE
  8
別途部材
  6
CONTINUOUS
 10
161.790272
 20
11.33238
 11
161.790272
 21
35.065715
  0
LINE
  8
別途部材
  6
CONTINUOUS
 62
    96
 10
160.790272
 20
11.73238
 11
160.790272
 21
35.065715
  0
LINE
  8
別途部材
  6
CONTINUOUS
 62
    96
 10
160.790272
 20
58.39905
 11
161.790272
 21
58.79905
  0
LINE
  8
別途部材
  6
CONTINUOUS
 10
161.790272
 20
58.79905
 11
161.790272
 21
35.065715
  0
LINE
  8
別途部材
  6
CONTINUOUS
 62
    96
 10
160.790272
 20
58.39905
 11
160.790272
 21
35.065715
  0
ARC
  8
別途部材
  6
CONTINUOUS
 10
175.075984
 20
35.065713
 40
25.95238
 50
123.398485
 51
236.601515
  0
INSERT
  2
*GRP_0014
  8
別途部材
  6
CONTINUOUS
 10
0.0
 20
0.0
  0
INSERT
  2
*GRP_0026
  8
別途部材
  6
DOT
 10
0.0
 20
0.0
  0
INSERT
  2
*GRP_0027
  8
別途部材
  6
DOT
 10
0.0
 20
0.0
  0
INSERT
  2
*GRP_0028
  8
別途部材
  6
DOT
 10
0.0
 20
0.0
  0
INSERT
  2
*GRP_0029
  8
別途部材
  6
DOT
 10
0.0
 20
0.0
  0
LINE
  8
St
  6
CONTINUOUS
 62
    47
 10
162.873558
 20
59.339195
 11
162.873558
 21
35.065715
  0
LINE
  8
St
  6
CONTINUOUS
 62
    47
 10
162.873558
 20
10.792235
 11
162.873558
 21
35.065715
  0
LINE
  8
St
  6
CONTINUOUS
 62
    47
 10
73.86382
 20
-81.707882
 11
-28.742993
 21
-81.707882
  0
LINE
  8
St
  6
CONTINUOUS
 62
    47
 10
-131.349805
 20
-81.707882
 11
-28.742993
 21
-81.707882
  0
ENDSEC
  0
EOF
