  0
SECTION
  2
HEADER
  9
$EXTMIN
 10
-210.0
 20
-148.5
  9
$EXTMAX
 10
210.0
 20
148.5
  9
$PDMODE
 70
    32
  9
$PDSIZE
 40
1.5
  9
$LTSCALE
 40
10.0
  0
ENDSEC
  0
SECTION
  2
TABLES
  0
TABLE
  2
LTYPE
 70
    15
  0
LTYPE
  2
CONTINUOUS
 70
    64
  3
実線
 72
    65
 73
     0
 40
0.0
  0
LTYPE
  2
DASHED
 70
    64
  3
破線A
 72
    65
 73
     2
 40
0.6
 49
0.4
 49
-0.2
  0
LTYPE
  2
DASHEDX2
 70
    64
  3
破線B
 72
    65
 73
     2
 40
1.3
 49
0.9
 49
-0.4
  0
LTYPE
  2
DASHDOT
 70
    64
  3
１点鎖線A
 72
    65
 73
     4
 40
0.5375
 49
0.375
 49
-0.05
 49
0.0625
 49
-0.05
  0
LTYPE
  2
DASHDOTX2
 70
    64
  3
１点鎖線B
 72
    65
 73
     4
 40
1.075
 49
0.75
 49
-0.1
 49
0.125
 49
-0.1
  0
LTYPE
  2
DIVIDE2
 70
    64
  3
２点鎖線A
 72
    65
 73
     6
 40
0.5125
 49
0.3
 49
-0.0375
 49
0.05
 49
-0.0375
 49
0.05
 49
-0.0375
  0
LTYPE
  2
DIVIDE
 70
    64
  3
２点鎖線B
 72
    65
 73
     6
 40
1.05
 49
0.55
 49
-0.1
 49
0.1
 49
-0.1
 49
0.1
 49
-0.1
  0
LTYPE
  2
DOT
 70
    64
  3
点線A
 72
    65
 73
     2
 40
0.1125
 49
0.0625
 49
-0.05
  0
LTYPE
  2
DOTX2
 70
    64
  3
点線B
 72
    65
 73
     2
 40
0.275
 49
0.15
 49
-0.125
  0
LTYPE
  2
CONTINUOUS
 70
    64
  3
実線
 72
    65
 73
     0
 40
0.0
  0
LTYPE
  2
CONTINUOUS
 70
    64
  3
実線
 72
    65
 73
     0
 40
0.0
  0
LTYPE
  2
CONTINUOUS
 70
    64
  3
実線
 72
    65
 73
     0
 40
0.0
  0
LTYPE
  2
CONTINUOUS
 70
    64
  3
実線
 72
    65
 73
     0
 40
0.0
  0
LTYPE
  2
CONTINUOUS
 70
    64
  3
実線
 72
    65
 73
     0
 40
0.0
  0
LTYPE
  2
CONTINUOUS
 70
    64
  3
実線
 72
    65
 73
     0
 40
0.0
  0
ENDTAB
  0
TABLE
  2
LAYER
 70
    34
  0
LAYER
  2
通り芯
 70
     0
 62
    15
  6
CONTINUOUS
  0
LAYER
  2
補助線
 70
     0
 62
    16
  6
DOT
  0
LAYER
  2
躯体
 70
     0
 62
    31
  6
CONTINUOUS
  0
LAYER
  2
型材
 70
     0
 62
    32
  6
CONTINUOUS
  0
LAYER
  2
型材断面
 70
     0
 62
    47
  6
CONTINUOUS
  0
LAYER
  2
ガラス
 70
     0
 62
    48
  6
CONTINUOUS
  0
LAYER
  2
ゴム等
 70
     0
 62
    63
  6
CONTINUOUS
  0
LAYER
  2
ボルト／ビス
 70
     0
 62
    64
  6
CONTINUOUS
  0
LAYER
  2
文字
 70
     0
 62
    79
  6
CONTINUOUS
  0
LAYER
  2
寸法
 70
     0
 62
    80
  6
CONTINUOUS
  0
LAYER
  2
ﾊｯﾁﾝｸﾞ
 70
     0
 62
    95
  6
CONTINUOUS
  0
LAYER
  2
別途部材
 70
     0
 62
    96
  6
CONTINUOUS
  0
LAYER
  2
曲げ物
 70
     0
 62
   111
  6
CONTINUOUS
  0
LAYER
  2
鉄骨等
 70
     0
 62
   112
  6
CONTINUOUS
  0
LAYER
  2
St
 70
     0
 62
   127
  6
CONTINUOUS
  0
LAYER
  2
その他部品等
 70
     0
 62
   128
  6
CONTINUOUS
  0
LAYER
  2
ｶﾞｽｹｯﾄ
 70
     0
 62
   143
  6
CONTINUOUS
  0
LAYER
  2
ｽｹｯﾁ
 70
     0
 62
    14
  6
CONTINUOUS
  0
LAYER
  2
0
 70
     0
 62
    17
  6
CONTINUOUS
  0
LAYER
  2
1
 70
     0
 62
    30
  6
CONTINUOUS
  0
LAYER
  2
4
 70
     0
 62
    33
  6
CONTINUOUS
  0
LAYER
  2
ﾚｲﾔ3
 70
     0
 62
    46
  6
CONTINUOUS
  0
LAYER
  2
外形線
 70
     0
 62
    49
  6
CONTINUOUS
  0
LAYER
  2
部品
 70
     0
 62
    14
  6
CONTINUOUS
  0
LAYER
  2
サッシ芯
 70
     0
 62
    17
  6
DASHDOTX2
  0
LAYER
  2
寸法線
 70
     0
 62
    62
  6
CONTINUOUS
  0
LAYER
  2
姿図外形線
 70
     0
 62
    65
  6
CONTINUOUS
  0
LAYER
  2
姿補助線
 70
     0
 62
    30
  6
CONTINUOUS
  0
LAYER
  2
透視線
 70
     0
 62
    78
  6
DOT
  0
LAYER
  2
用紙
 70
     0
 62
    81
  6
CONTINUOUS
  0
LAYER
  2
実線図枠
 70
     0
 62
    94
  6
CONTINUOUS
  0
LAYER
  2
補助図枠
 70
     0
 62
    97
  6
CONTINUOUS
  0
LAYER
  2
建具記号
 70
     0
 62
   110
  6
CONTINUOUS
  0
LAYER
  2
補助文字
 70
     0
 62
   113
  6
CONTINUOUS
  0
ENDTAB
  0
TABLE
  2
STYLE
 70
    10
  0
STYLE
  2
STANDARD
 70
     0
 40
1.0
 41
1.0
 42
1.0
 50
0.0
 71
     0
  3
TXT
  4
BIGFONT
  0
STYLE
  2
TATE
 70
     4
 40
1.0
 41
1.0
 42
1.0
 50
0.0
 71
     0
  3
TXT
  4
BIGFONT
  0
STYLE
  2
TextStyle03
 70
     0
 40
1.0
 41
1.0
 42
1.0
 50
0.0
 71
     0
  3
MONOTXT
  4
BIGFONT
  0
STYLE
  2
TextStyle04
 70
     0
 40
1.0
 41
1.0
 42
1.0
 50
0.0
 71
     0
  3
MONOTXT
  4
BIGFONT
  0
STYLE
  2
TextStyle05
 70
     0
 40
1.0
 41
1.0
 42
1.0
 50
0.0
 71
     0
  3
MONOTXT
  4
BIGFONT
  0
STYLE
  2
TextStyle06
 70
     0
 40
1.0
 41
1.0
 42
1.0
 50
0.0
 71
     0
  3
MONOTXT
  4
BIGFONT
  0
STYLE
  2
TextStyle07
 70
     0
 40
1.0
 41
1.0
 42
1.0
 50
0.0
 71
     0
  3
MONOTXT
  4
BIGFONT
  0
STYLE
  2
TextStyle08
 70
     0
 40
1.0
 41
1.0
 42
1.0
 50
0.0
 71
     0
  3
MONOTXT
  4
BIGFONT
  0
STYLE
  2
TextStyle09
 70
     0
 40
1.0
 41
1.0
 42
1.0
 50
0.0
 71
     0
  3
MONOTXT
  4
BIGFONT
  0
STYLE
  2
TextStyle10
 70
     0
 40
1.0
 41
1.0
 42
1.0
 50
0.0
 71
     0
  3
MONOTXT
  4
BIGFONT
  0
ENDTAB
  0
ENDSEC
  0
SECTION
  2
BLOCKS
  0
BLOCK
  2
*GRP_0001
 70
    65
 10
0.0
 20
0.0
  0
LINE
  8
型材断面
  6
CONTINUOUS
 10
195.0
 20
133.5
 11
195.0
 21
-133.5
  0
LINE
  8
型材断面
  6
CONTINUOUS
 10
195.0
 20
-133.5
 11
-185.0
 21
-133.5
  0
LINE
  8
型材断面
  6
CONTINUOUS
 10
-185.0
 20
-133.5
 11
-185.0
 21
133.5
  0
LINE
  8
型材断面
  6
CONTINUOUS
 10
195.0
 20
133.5
 11
-185.0
 21
133.5
  0
LINE
  8
型材断面
  6
CONTINUOUS
 10
145.0
 20
-133.5
 11
145.0
 21
-118.5
  0
LINE
  8
型材断面
  6
CONTINUOUS
 10
195.0
 20
-118.5
 11
145.0
 21
-118.5
  0
ENDBLK
  0
BLOCK
  2
*DIM_0002
 70
    65
 10
0.0
 20
0.0
  0
LINE
  8
寸法
  6
BYBLOCK
 62
     0
 10
13.246443
 20
-62.95793
 11
61.549425
 21
-62.95793
  0
LINE
  8
寸法
  6
BYBLOCK
 62
     0
 10
61.549425
 20
-79.624597
 11
61.549425
 21
-62.95793
  0
POINT
  8
寸法
 62
     0
 10
61.549425
 20
-62.95793
  0
TEXT
  7
TextStyle03
  8
寸法
  6
CONTINUOUS
 62
     0
 10
61.175
 20
-73.7375
  1
500
 40
3.0
 50
90.0
 72
     5
 11
61.175
 21
-68.8625
  0
ENDBLK
  0
BLOCK
  2
*DIM_0003
 70
    65
 10
0.0
 20
0.0
  0
LINE
  8
寸法
  6
BYBLOCK
 62
     0
 10
45.579775
 20
-23.142105
 11
-104.420225
 21
-23.142105
  0
POINT
  8
寸法
 62
     0
 10
45.579775
 20
-23.142105
  0
POINT
  8
寸法
 62
     0
 10
-104.420225
 20
-23.142105
  0
TEXT
  7
TextStyle03
  8
寸法
  6
CONTINUOUS
 62
     0
 10
-41.14375
 20
-22.775
  1
呼称寸法　4500
 40
3.0
 72
     5
 11
-17.70625
 21
-22.775
  0
ENDBLK
  0
BLOCK
  2
*DIM_0004
 70
    65
 10
0.0
 20
0.0
  0
LINE
  8
寸法
  6
BYBLOCK
 62
     0
 10
-87.753557
 20
-5.54017
 11
-87.753557
 21
-9.980263
  0
LINE
  8
寸法
  6
BYBLOCK
 62
     0
 10
-29.420225
 20
-5.54017
 11
-29.420225
 21
-9.980263
  0
LINE
  8
寸法
  6
BYBLOCK
 62
     0
 10
-87.753557
 20
-9.980263
 11
-29.420225
 21
-9.980263
  0
POINT
  8
寸法
 62
     0
 10
-87.753557
 20
-9.980263
  0
POINT
  8
寸法
 62
     0
 10
-29.420225
 20
-9.980263
  0
TEXT
  7
TextStyle03
  8
寸法
  6
CONTINUOUS
 62
     0
 10
-61.88125
 20
-9.625
  1
1750
 40
3.0
 72
     5
 11
-55.31875
 21
-9.625
  0
ENDBLK
  0
BLOCK
  2
*DIM_0005
 70
    65
 10
0.0
 20
0.0
  0
LINE
  8
寸法
  6
BYBLOCK
 62
     0
 10
28.913107
 20
-5.54017
 11
28.913107
 21
-9.980263
  0
LINE
  8
寸法
  6
BYBLOCK
 62
     0
 10
-29.420225
 20
-9.980263
 11
28.913107
 21
-9.980263
  0
POINT
  8
寸法
 62
     0
 10
28.913107
 20
-9.980263
  0
TEXT
  7
TextStyle03
  8
寸法
  6
CONTINUOUS
 62
     0
 10
-3.55625
 20
-9.625
  1
1750
 40
3.0
 72
     5
 11
3.00625
 21
-9.625
  0
ENDBLK
  0
BLOCK
  2
*DIM_0006
 70
    65
 10
0.0
 20
0.0
  0
LINE
  8
寸法
  6
BYBLOCK
 62
     0
 10
82.949083
 20
64.756625
 11
82.21224
 21
64.756625
  0
LINE
  8
寸法
  6
BYBLOCK
 62
     0
 10
82.949083
 20
-1.910042
 11
82.21224
 21
-1.910042
  0
LINE
  8
寸法
  6
BYBLOCK
 62
     0
 10
82.21224
 20
64.756625
 11
82.21224
 21
-1.910042
  0
POINT
  8
寸法
 62
     0
 10
82.21224
 20
64.756625
  0
POINT
  8
寸法
 62
     0
 10
82.21224
 20
-1.910042
  0
TEXT
  7
TextStyle03
  8
寸法
  6
CONTINUOUS
 62
     0
 10
81.825
 20
19.68125
  1
呼称寸法　2000
 40
3.0
 50
90.0
 72
     5
 11
81.825
 21
43.11875
  0
ENDBLK
  0
BLOCK
  2
*DIM_0007
 70
    65
 10
0.0
 20
0.0
  0
LINE
  8
寸法
  6
BYBLOCK
 62
     0
 10
118.446372
 20
32.42329
 11
118.446372
 21
86.5884
  0
LINE
  8
寸法
  6
BYBLOCK
 62
     0
 10
135.11304
 20
86.5884
 11
118.446372
 21
86.5884
  0
POINT
  8
寸法
 62
     0
 10
135.11304
 20
86.5884
  0
POINT
  8
寸法
 62
     0
 10
118.446372
 20
86.5884
  0
TEXT
  7
TextStyle03
  8
寸法
  6
CONTINUOUS
 62
     0
 10
124.3375
 20
86.95
  1
500
 40
3.0
 72
     5
 11
129.2125
 21
86.95
  0
ENDBLK
  0
BLOCK
  2
*DIM_0008
 70
    65
 10
0.0
 20
0.0
  0
LINE
  8
寸法
  6
BYBLOCK
 62
     0
 10
135.11304
 20
67.42329
 11
135.11304
 21
86.5884
  0
LINE
  8
寸法
  6
BYBLOCK
 62
     0
 10
137.196322
 20
68.36344
 11
137.196322
 21
86.5884
  0
LINE
  8
寸法
  6
BYBLOCK
 62
     0
 10
135.11304
 20
86.5884
 11
137.196322
 21
86.5884
  0
POINT
  8
寸法
 62
     0
 10
135.11304
 20
86.5884
  0
POINT
  8
寸法
 62
     0
 10
137.196322
 20
86.5884
  0
TEXT
  7
TextStyle03
  8
寸法
  6
CONTINUOUS
 62
     0
 10
139.59375
 20
86.95
  1
62.5
 40
3.0
 72
     5
 11
146.15625
 21
86.95
  0
ENDBLK
  0
BLOCK
  2
*DIM_0009
 70
    65
 10
0.0
 20
0.0
  0
LINE
  8
寸法
  6
BYBLOCK
 62
     0
 10
135.696322
 20
67.36344
 11
82.21224
 21
67.36344
  0
LINE
  8
寸法
  6
BYBLOCK
 62
     0
 10
82.21224
 20
64.756625
 11
82.21224
 21
67.36344
  0
POINT
  8
寸法
 62
     0
 10
82.21224
 20
64.756625
  0
POINT
  8
寸法
 62
     0
 10
82.21224
 20
67.36344
  0
TEXT
  7
TextStyle03
  8
寸法
  6
CONTINUOUS
 62
     0
 10
81.8
 20
69.51875
  1
78.2
 40
3.0
 50
90.0
 72
     5
 11
81.8
 21
76.08125
  0
ENDBLK
  0
BLOCK
  2
*DIM_0010
 70
    65
 10
0.0
 20
0.0
  0
LINE
  8
寸法
  6
BYBLOCK
 62
     0
 10
135.696322
 20
-4.516855
 11
82.21224
 21
-4.516855
  0
LINE
  8
寸法
  6
BYBLOCK
 62
     0
 10
82.21224
 20
-1.910042
 11
82.21224
 21
-4.516855
  0
POINT
  8
寸法
 62
     0
 10
82.21224
 20
-1.910042
  0
POINT
  8
寸法
 62
     0
 10
82.21224
 20
-4.516855
  0
TEXT
  7
TextStyle03
  8
寸法
  6
CONTINUOUS
 62
     0
 10
81.8
 20
-13.25625
  1
78.2
 40
3.0
 50
90.0
 72
     5
 11
81.8
 21
-6.69375
  0
ENDBLK
  0
BLOCK
  2
*DIM_0011
 70
    65
 10
0.0
 20
0.0
  0
LINE
  8
寸法
  6
BYBLOCK
 62
     0
 10
48.246443
 20
-79.624597
 11
61.549425
 21
-79.624597
  0
LINE
  8
寸法
  6
BYBLOCK
 62
     0
 10
49.186587
 20
-81.707882
 11
61.549425
 21
-81.707882
  0
LINE
  8
寸法
  6
BYBLOCK
 62
     0
 10
61.549425
 20
-79.624597
 11
61.549425
 21
-81.707882
  0
POINT
  8
寸法
 62
     0
 10
61.549425
 20
-79.624597
  0
POINT
  8
寸法
 62
     0
 10
61.549425
 20
-81.707882
  0
TEXT
  7
TextStyle03
  8
寸法
  6
CONTINUOUS
 62
     0
 10
61.15
 20
-90.70625
  1
62.5
 40
3.0
 50
90.0
 72
     5
 11
61.15
 21
-84.14375
  0
ENDBLK
  0
BLOCK
  2
*DIM_0012
 70
    65
 10
0.0
 20
0.0
  0
LINE
  8
寸法
  6
BYBLOCK
 62
     0
 10
48.186587
 20
-80.207882
 11
48.186587
 21
-23.142105
  0
LINE
  8
寸法
  6
BYBLOCK
 62
     0
 10
45.579775
 20
-23.142105
 11
48.186587
 21
-23.142105
  0
POINT
  8
寸法
 62
     0
 10
45.579775
 20
-23.142105
  0
POINT
  8
寸法
 62
     0
 10
48.186587
 20
-23.142105
  0
TEXT
  7
TextStyle03
  8
寸法
  6
CONTINUOUS
 62
     0
 10
50.34375
 20
-22.775
  1
78.2
 40
3.0
 72
     5
 11
56.90625
 21
-22.775
  0
ENDBLK
  0
BLOCK
  2
*DIM_0013
 70
    65
 10
0.0
 20
0.0
  0
LINE
  8
寸法
  6
BYBLOCK
 62
     0
 10
-107.027038
 20
-80.207882
 11
-107.027038
 21
-23.142105
  0
LINE
  8
寸法
  6
BYBLOCK
 62
     0
 10
-104.420225
 20
-23.142105
 11
-107.027038
 21
-23.142105
  0
POINT
  8
寸法
 62
     0
 10
-104.420225
 20
-23.142105
  0
POINT
  8
寸法
 62
     0
 10
-107.027038
 20
-23.142105
  0
TEXT
  7
TextStyle03
  8
寸法
  6
CONTINUOUS
 62
     0
 10
-115.75625
 20
-22.775
  1
78.2
 40
3.0
 72
     5
 11
-109.19375
 21
-22.775
  0
ENDBLK
  0
BLOCK
  2
*GRP_0014
 70
    65
 10
0.0
 20
0.0
  0
LINE
  8
別途部材
  6
CONTINUOUS
 62
    96
 10
-106.08689
 20
-79.624597
 11
-106.48689
 21
-80.624597
  0
LINE
  8
別途部材
  6
CONTINUOUS
 62
    96
 10
-106.08689
 20
-79.624597
 11
-29.420225
 21
-79.624597
  0
LINE
  8
別途部材
  6
CONTINUOUS
 10
-106.48689
 20
-80.624597
 11
-29.420225
 21
-80.624597
  0
LINE
  8
別途部材
  6
CONTINUOUS
 10
-29.920225
 20
-79.624597
 11
-29.920225
 21
-61.95793
  0
LINE
  8
別途部材
  6
CONTINUOUS
 10
-32.920225
 20
-79.624597
 11
-32.920225
 21
-61.95793
  0
LINE
  8
別途部材
  6
CONTINUOUS
 10
-29.920225
 20
-61.95793
 11
-30.920225
 21
-62.95793
  0
LINE
  8
別途部材
  6
CONTINUOUS
 10
-33.920225
 20
-79.624597
 11
-33.920225
 21
-61.95793
  0
LINE
  8
別途部材
  6
CONTINUOUS
 10
-31.920225
 20
-62.95793
 11
-32.920225
 21
-61.95793
  0
LINE
  8
別途部材
  6
CONTINUOUS
 10
-33.920225
 20
-61.95793
 11
-34.920225
 21
-62.95793
  0
LINE
  8
別途部材
  6
CONTINUOUS
 10
-32.920225
 20
-61.95793
 11
-33.920225
 21
-61.95793
  0
LINE
  8
別途部材
  6
CONTINUOUS
 10
-29.920225
 20
-61.95793
 11
-29.420225
 21
-61.95793
  0
LINE
  8
別途部材
  6
CONTINUOUS
 10
-35.920225
 20
-62.95793
 11
-36.920225
 21
-61.95793
  0
LINE
  8
別途部材
  6
CONTINUOUS
 10
-37.920225
 20
-61.95793
 11
-38.920225
 21
-62.95793
  0
LINE
  8
別途部材
  6
CONTINUOUS
 10
-36.920225
 20
-61.95793
 11
-37.920225
 21
-61.95793
  0
LINE
  8
別途部材
  6
CONTINUOUS
 10
-31.920225
 20
-79.624597
 11
-31.920225
 21
-62.95793
  0
LINE
  8
別途部材
  6
CONTINUOUS
 10
-34.920225
 20
-79.624597
 11
-34.920225
 21
-62.95793
  0
LINE
  8
別途部材
  6
CONTINUOUS
 10
-35.920225
 20
-79.624597
 11
-35.920225
 21
-62.95793
  0
LINE
  8
別途部材
  6
CONTINUOUS
 10
-36.920225
 20
-79.624597
 11
-36.920225
 21
-61.95793
  0
LINE
  8
別途部材
  6
CONTINUOUS
 10
-37.920225
 20
-79.624597
 11
-37.920225
 21
-61.95793
  0
LINE
  8
別途部材
  6
CONTINUOUS
 10
-38.920225
 20
-79.624597
 11
-38.920225
 21
-62.95793
  0
LINE
  8
別途部材
  6
CONTINUOUS
 10
-39.920225
 20
-62.95793
 11
-40.920225
 21
-61.95793
  0
LINE
  8
別途部材
  6
CONTINUOUS
 10
-41.920225
 20
-61.95793
 11
-42.920225
 21
-62.95793
  0
LINE
  8
別途部材
  6
CONTINUOUS
 10
-40.920225
 20
-61.95793
 11
-41.920225
 21
-61.95793
  0
LINE
  8
別途部材
  6
CONTINUOUS
 10
-39.920225
 20
-79.624597
 11
-39.920225
 21
-62.95793
  0
LINE
  8
別途部材
  6
CONTINUOUS
 10
-40.920225
 20
-79.624597
 11
-40.920225
 21
-61.95793
  0
LINE
  8
別途部材
  6
CONTINUOUS
 10
-41.920225
 20
-79.624597
 11
-41.920225
 21
-61.95793
  0
LINE
  8
別途部材
  6
CONTINUOUS
 10
-42.920225
 20
-79.624597
 11
-42.920225
 21
-62.95793
  0
LINE
  8
別途部材
  6
CONTINUOUS
 10
-44.920225
 20
-79.624597
 11
-44.920225
 21
-61.95793
  0
LINE
  8
別途部材
  6
CONTINUOUS
 10
-45.920225
 20
-79.624597
 11
-45.920225
 21
-61.95793
  0
LINE
  8
別途部材
  6
CONTINUOUS
 10
-43.920225
 20
-62.95793
 11
-44.920225
 21
-61.95793
  0
LINE
  8
別途部材
  6
CONTINUOUS
 10
-45.920225
 20
-61.95793
 11
-46.920225
 21
-62.95793
  0
LINE
  8
別途部材
  6
CONTINUOUS
 10
-44.920225
 20
-61.95793
 11
-45.920225
 21
-61.95793
  0
LINE
  8
別途部材
  6
CONTINUOUS
 10
-47.920225
 20
-62.95793
 11
-48.920225
 21
-61.95793
  0
LINE
  8
別途部材
  6
CONTINUOUS
 10
-49.920225
 20
-61.95793
 11
-50.920225
 21
-62.95793
  0
LINE
  8
別途部材
  6
CONTINUOUS
 10
-48.920225
 20
-61.95793
 11
-49.920225
 21
-61.95793
  0
LINE
  8
別途部材
  6
CONTINUOUS
 10
-43.920225
 20
-79.624597
 11
-43.920225
 21
-62.95793
  0
LINE
  8
別途部材
  6
CONTINUOUS
 10
-46.920225
 20
-79.624597
 11
-46.920225
 21
-62.95793
  0
LINE
  8
別途部材
  6
CONTINUOUS
 10
-47.920225
 20
-79.624597
 11
-47.920225
 21
-62.95793
  0
LINE
  8
別途部材
  6
CONTINUOUS
 10
-48.920225
 20
-79.624597
 11
-48.920225
 21
-61.95793
  0
LINE
  8
別途部材
  6
CONTINUOUS
 10
-49.920225
 20
-79.624597
 11
-49.920225
 21
-61.95793
  0
LINE
  8
別途部材
  6
CONTINUOUS
 10
-50.920225
 20
-79.624597
 11
-50.920225
 21
-62.95793
  0
LINE
  8
別途部材
  6
CONTINUOUS
 10
-51.920225
 20
-62.95793
 11
-52.920225
 21
-61.95793
  0
LINE
  8
別途部材
  6
CONTINUOUS
 10
-53.920225
 20
-61.95793
 11
-54.920225
 21
-62.95793
  0
LINE
  8
別途部材
  6
CONTINUOUS
 10
-52.920225
 20
-61.95793
 11
-53.920225
 21
-61.95793
  0
LINE
  8
別途部材
  6
CONTINUOUS
 10
-51.920225
 20
-79.624597
 11
-51.920225
 21
-62.95793
  0
LINE
  8
別途部材
  6
CONTINUOUS
 10
-52.920225
 20
-79.624597
 11
-52.920225
 21
-61.95793
  0
LINE
  8
別途部材
  6
CONTINUOUS
 10
-53.920225
 20
-79.624597
 11
-53.920225
 21
-61.95793
  0
LINE
  8
別途部材
  6
CONTINUOUS
 10
-54.920225
 20
-79.624597
 11
-54.920225
 21
-62.95793
  0
LINE
  8
別途部材
  6
CONTINUOUS
 10
-56.920225
 20
-79.624597
 11
-56.920225
 21
-61.95793
  0
LINE
  8
別途部材
  6
CONTINUOUS
 10
-57.920225
 20
-79.624597
 11
-57.920225
 21
-61.95793
  0
LINE
  8
別途部材
  6
CONTINUOUS
 10
-55.920225
 20
-62.95793
 11
-56.920225
 21
-61.95793
  0
LINE
  8
別途部材
  6
CONTINUOUS
 10
-57.920225
 20
-61.95793
 11
-58.920225
 21
-62.95793
  0
LINE
  8
別途部材
  6
CONTINUOUS
 10
-56.920225
 20
-61.95793
 11
-57.920225
 21
-61.95793
  0
LINE
  8
別途部材
  6
CONTINUOUS
 10
-59.920225
 20
-62.95793
 11
-60.920225
 21
-61.95793
  0
LINE
  8
別途部材
  6
CONTINUOUS
 10
-61.920225
 20
-61.95793
 11
-62.920225
 21
-62.95793
  0
LINE
  8
別途部材
  6
CONTINUOUS
 10
-60.920225
 20
-61.95793
 11
-61.920225
 21
-61.95793
  0
LINE
  8
別途部材
  6
CONTINUOUS
 10
-55.920225
 20
-79.624597
 11
-55.920225
 21
-62.95793
  0
LINE
  8
別途部材
  6
CONTINUOUS
 10
-58.920225
 20
-79.624597
 11
-58.920225
 21
-62.95793
  0
LINE
  8
別途部材
  6
CONTINUOUS
 10
-59.920225
 20
-79.624597
 11
-59.920225
 21
-62.95793
  0
LINE
  8
別途部材
  6
CONTINUOUS
 10
-60.920225
 20
-79.624597
 11
-60.920225
 21
-61.95793
  0
LINE
  8
別途部材
  6
CONTINUOUS
 10
-61.920225
 20
-79.624597
 11
-61.920225
 21
-61.95793
  0
LINE
  8
別途部材
  6
CONTINUOUS
 10
-62.920225
 20
-79.624597
 11
-62.920225
 21
-62.95793
  0
LINE
  8
別途部材
  6
CONTINUOUS
 10
-63.920225
 20
-62.95793
 11
-64.920225
 21
-61.95793
  0
LINE
  8
別途部材
  6
CONTINUOUS
 10
-65.920225
 20
-61.95793
 11
-66.920225
 21
-62.95793
  0
LINE
  8
別途部材
  6
CONTINUOUS
 10
-64.920225
 20
-61.95793
 11
-65.920225
 21
-61.95793
  0
LINE
  8
別途部材
  6
CONTINUOUS
 10
-63.920225
 20
-79.624597
 11
-63.920225
 21
-62.95793
  0
LINE
  8
別途部材
  6
CONTINUOUS
 10
-64.920225
 20
-79.624597
 11
-64.920225
 21
-61.95793
  0
LINE
  8
別途部材
  6
CONTINUOUS
 10
-65.920225
 20
-79.624597
 11
-65.920225
 21
-61.95793
  0
LINE
  8
別途部材
  6
CONTINUOUS
 10
-66.920225
 20
-79.624597
 11
-66.920225
 21
-62.95793
  0
LINE
  8
別途部材
  6
CONTINUOUS
 10
-68.920225
 20
-79.624597
 11
-68.920225
 21
-61.95793
  0
LINE
  8
別途部材
  6
CONTINUOUS
 10
-69.920225
 20
-79.624597
 11
-69.920225
 21
-61.95793
  0
LINE
  8
別途部材
  6
CONTINUOUS
 10
-67.920225
 20
-62.95793
 11
-68.920225
 21
-61.95793
  0
LINE
  8
別途部材
  6
CONTINUOUS
 10
-69.920225
 20
-61.95793
 11
-70.920225
 21
-62.95793
  0
LINE
  8
別途部材
  6
CONTINUOUS
 10
-68.920225
 20
-61.95793
 11
-69.920225
 21
-61.95793
  0
LINE
  8
別途部材
  6
CONTINUOUS
 10
-67.920225
 20
-79.624597
 11
-67.920225
 21
-62.95793
  0
LINE
  8
別途部材
  6
CONTINUOUS
 10
-70.920225
 20
-79.624597
 11
-70.920225
 21
-62.95793
  0
LINE
  8
別途部材
  6
CONTINUOUS
 10
-66.920225
 20
-62.95793
 11
-67.920225
 21
-62.95793
  0
LINE
  8
別途部材
  6
CONTINUOUS
 10
-62.920225
 20
-62.95793
 11
-63.920225
 21
-62.95793
  0
LINE
  8
別途部材
  6
CONTINUOUS
 10
-58.920225
 20
-62.95793
 11
-59.920225
 21
-62.95793
  0
LINE
  8
別途部材
  6
CONTINUOUS
 10
-54.920225
 20
-62.95793
 11
-55.920225
 21
-62.95793
  0
LINE
  8
別途部材
  6
CONTINUOUS
 10
-50.920225
 20
-62.95793
 11
-51.920225
 21
-62.95793
  0
LINE
  8
別途部材
  6
CONTINUOUS
 10
-46.920225
 20
-62.95793
 11
-47.920225
 21
-62.95793
  0
LINE
  8
別途部材
  6
CONTINUOUS
 10
-42.920225
 20
-62.95793
 11
-43.920225
 21
-62.95793
  0
LINE
  8
別途部材
  6
CONTINUOUS
 10
-38.920225
 20
-62.95793
 11
-39.920225
 21
-62.95793
  0
LINE
  8
別途部材
  6
CONTINUOUS
 10
-34.920225
 20
-62.95793
 11
-35.920225
 21
-62.95793
  0
LINE
  8
別途部材
  6
CONTINUOUS
 10
-30.920225
 20
-79.624597
 11
-30.920225
 21
-62.95793
  0
LINE
  8
別途部材
  6
CONTINUOUS
 10
-31.920225
 20
-62.95793
 11
-30.920225
 21
-62.95793
  0
ARC
  8
別途部材
  6
CONTINUOUS
 10
-87.753557
 20
-79.624597
 40
16.666667
 50
90.0
 51
180.0
  0
LINE
  8
別途部材
  6
CONTINUOUS
 10
-72.920225
 20
-79.624597
 11
-72.920225
 21
-61.95793
  0
LINE
  8
別途部材
  6
CONTINUOUS
 10
-73.920225
 20
-79.624597
 11
-73.920225
 21
-61.95793
  0
LINE
  8
別途部材
  6
CONTINUOUS
 10
-71.920225
 20
-62.95793
 11
-72.920225
 21
-61.95793
  0
LINE
  8
別途部材
  6
CONTINUOUS
 10
-73.920225
 20
-61.95793
 11
-74.920225
 21
-62.95793
  0
LINE
  8
別途部材
  6
CONTINUOUS
 10
-72.920225
 20
-61.95793
 11
-73.920225
 21
-61.95793
  0
LINE
  8
別途部材
  6
CONTINUOUS
 10
-75.920225
 20
-62.95793
 11
-76.920225
 21
-61.95793
  0
LINE
  8
別途部材
  6
CONTINUOUS
 10
-77.920225
 20
-61.95793
 11
-78.920225
 21
-62.95793
  0
LINE
  8
別途部材
  6
CONTINUOUS
 10
-76.920225
 20
-61.95793
 11
-77.920225
 21
-61.95793
  0
LINE
  8
別途部材
  6
CONTINUOUS
 10
-71.920225
 20
-79.624597
 11
-71.920225
 21
-62.95793
  0
LINE
  8
別途部材
  6
CONTINUOUS
 10
-74.920225
 20
-79.624597
 11
-74.920225
 21
-62.95793
  0
LINE
  8
別途部材
  6
CONTINUOUS
 10
-75.920225
 20
-79.624597
 11
-75.920225
 21
-62.95793
  0
LINE
  8
別途部材
  6
CONTINUOUS
 10
-76.920225
 20
-79.624597
 11
-76.920225
 21
-61.95793
  0
LINE
  8
別途部材
  6
CONTINUOUS
 10
-77.920225
 20
-79.624597
 11
-77.920225
 21
-61.95793
  0
LINE
  8
別途部材
  6
CONTINUOUS
 10
-78.920225
 20
-79.624597
 11
-78.920225
 21
-62.95793
  0
LINE
  8
別途部材
  6
CONTINUOUS
 10
-79.920225
 20
-62.95793
 11
-80.920225
 21
-61.95793
  0
LINE
  8
別途部材
  6
CONTINUOUS
 10
-81.920225
 20
-61.95793
 11
-82.920225
 21
-62.95793
  0
LINE
  8
別途部材
  6
CONTINUOUS
 10
-80.920225
 20
-61.95793
 11
-81.920225
 21
-61.95793
  0
LINE
  8
別途部材
  6
CONTINUOUS
 10
-79.920225
 20
-79.624597
 11
-79.920225
 21
-62.95793
  0
LINE
  8
別途部材
  6
CONTINUOUS
 10
-80.920225
 20
-79.624597
 11
-80.920225
 21
-61.95793
  0
LINE
  8
別途部材
  6
CONTINUOUS
 10
-81.920225
 20
-79.624597
 11
-81.920225
 21
-61.95793
  0
LINE
  8
別途部材
  6
CONTINUOUS
 10
-82.920225
 20
-79.624597
 11
-82.920225
 21
-62.95793
  0
LINE
  8
別途部材
  6
CONTINUOUS
 10
-84.920225
 20
-79.624597
 11
-84.920225
 21
-61.95793
  0
LINE
  8
別途部材
  6
CONTINUOUS
 10
-85.920225
 20
-79.624597
 11
-85.920225
 21
-61.95793
  0
LINE
  8
別途部材
  6
CONTINUOUS
 10
-83.920225
 20
-62.95793
 11
-84.920225
 21
-61.95793
  0
LINE
  8
別途部材
  6
CONTINUOUS
 10
-85.920225
 20
-61.95793
 11
-86.920225
 21
-62.95793
  0
LINE
  8
別途部材
  6
CONTINUOUS
 10
-84.920225
 20
-61.95793
 11
-85.920225
 21
-61.95793
  0
LINE
  8
別途部材
  6
CONTINUOUS
 10
-83.920225
 20
-79.624597
 11
-83.920225
 21
-62.95793
  0
LINE
  8
別途部材
  6
CONTINUOUS
 10
-86.920225
 20
-79.624597
 11
-86.920225
 21
-62.95793
  0
LINE
  8
別途部材
  6
CONTINUOUS
 10
-82.920225
 20
-62.95793
 11
-83.920225
 21
-62.95793
  0
LINE
  8
別途部材
  6
CONTINUOUS
 10
-78.920225
 20
-62.95793
 11
-79.920225
 21
-62.95793
  0
LINE
  8
別途部材
  6
CONTINUOUS
 10
-74.920225
 20
-62.95793
 11
-75.920225
 21
-62.95793
  0
LINE
  8
別途部材
  6
CONTINUOUS
 10
-70.920225
 20
-62.95793
 11
-71.920225
 21
-62.95793
  0
LINE
  8
別途部材
  6
CONTINUOUS
 10
-87.753557
 20
-62.95793
 11
-86.920225
 21
-62.95793
  0
LINE
  8
別途部材
  6
CONTINUOUS
 62
    96
 10
47.246443
 20
-79.624597
 11
47.646443
 21
-80.624597
  0
LINE
  8
別途部材
  6
CONTINUOUS
 62
    96
 10
47.246443
 20
-79.624597
 11
-29.420225
 21
-79.624597
  0
LINE
  8
別途部材
  6
CONTINUOUS
 10
47.646443
 20
-80.624597
 11
-29.420225
 21
-80.624597
  0
LINE
  8
別途部材
  6
CONTINUOUS
 10
-28.920225
 20
-79.624597
 11
-28.920225
 21
-61.95793
  0
LINE
  8
別途部材
  6
CONTINUOUS
 10
-25.920225
 20
-79.624597
 11
-25.920225
 21
-61.95793
  0
LINE
  8
別途部材
  6
CONTINUOUS
 10
-28.920225
 20
-61.95793
 11
-27.920225
 21
-62.95793
  0
LINE
  8
別途部材
  6
CONTINUOUS
 10
-24.920225
 20
-79.624597
 11
-24.920225
 21
-61.95793
  0
LINE
  8
別途部材
  6
CONTINUOUS
 10
-26.920225
 20
-62.95793
 11
-25.920225
 21
-61.95793
  0
LINE
  8
別途部材
  6
CONTINUOUS
 10
-24.920225
 20
-61.95793
 11
-23.920225
 21
-62.95793
  0
LINE
  8
別途部材
  6
CONTINUOUS
 10
-25.920225
 20
-61.95793
 11
-24.920225
 21
-61.95793
  0
LINE
  8
別途部材
  6
CONTINUOUS
 10
-28.920225
 20
-61.95793
 11
-29.420225
 21
-61.95793
  0
LINE
  8
別途部材
  6
CONTINUOUS
 10
-22.920225
 20
-62.95793
 11
-21.920225
 21
-61.95793
  0
LINE
  8
別途部材
  6
CONTINUOUS
 10
-20.920225
 20
-61.95793
 11
-19.920225
 21
-62.95793
  0
LINE
  8
別途部材
  6
CONTINUOUS
 10
-21.920225
 20
-61.95793
 11
-20.920225
 21
-61.95793
  0
LINE
  8
別途部材
  6
CONTINUOUS
 10
-26.920225
 20
-79.624597
 11
-26.920225
 21
-62.95793
  0
LINE
  8
別途部材
  6
CONTINUOUS
 10
-23.920225
 20
-79.624597
 11
-23.920225
 21
-62.95793
  0
LINE
  8
別途部材
  6
CONTINUOUS
 10
-22.920225
 20
-79.624597
 11
-22.920225
 21
-62.95793
  0
LINE
  8
別途部材
  6
CONTINUOUS
 10
-21.920225
 20
-79.624597
 11
-21.920225
 21
-61.95793
  0
LINE
  8
別途部材
  6
CONTINUOUS
 10
-20.920225
 20
-79.624597
 11
-20.920225
 21
-61.95793
  0
LINE
  8
別途部材
  6
CONTINUOUS
 10
-19.920225
 20
-79.624597
 11
-19.920225
 21
-62.95793
  0
LINE
  8
別途部材
  6
CONTINUOUS
 10
-18.920225
 20
-62.95793
 11
-17.920225
 21
-61.95793
  0
LINE
  8
別途部材
  6
CONTINUOUS
 10
-16.920225
 20
-61.95793
 11
-15.920225
 21
-62.95793
  0
LINE
  8
別途部材
  6
CONTINUOUS
 10
-17.920225
 20
-61.95793
 11
-16.920225
 21
-61.95793
  0
LINE
  8
別途部材
  6
CONTINUOUS
 10
-18.920225
 20
-79.624597
 11
-18.920225
 21
-62.95793
  0
LINE
  8
別途部材
  6
CONTINUOUS
 10
-17.920225
 20
-79.624597
 11
-17.920225
 21
-61.95793
  0
LINE
  8
別途部材
  6
CONTINUOUS
 10
-16.920225
 20
-79.624597
 11
-16.920225
 21
-61.95793
  0
LINE
  8
別途部材
  6
CONTINUOUS
 10
-15.920225
 20
-79.624597
 11
-15.920225
 21
-62.95793
  0
LINE
  8
別途部材
  6
CONTINUOUS
 10
-13.920225
 20
-79.624597
 11
-13.920225
 21
-61.95793
  0
LINE
  8
別途部材
  6
CONTINUOUS
 10
-12.920225
 20
-79.624597
 11
-12.920225
 21
-61.95793
  0
LINE
  8
別途部材
  6
CONTINUOUS
 10
-14.920225
 20
-62.95793
 11
-13.920225
 21
-61.95793
  0
LINE
  8
別途部材
  6
CONTINUOUS
 10
-12.920225
 20
-61.95793
 11
-11.920225
 21
-62.95793
  0
LINE
  8
別途部材
  6
CONTINUOUS
 10
-13.920225
 20
-61.95793
 11
-12.920225
 21
-61.95793
  0
LINE
  8
別途部材
  6
CONTINUOUS
 10
-10.920225
 20
-62.95793
 11
-9.920225
 21
-61.95793
  0
LINE
  8
別途部材
  6
CONTINUOUS
 10
-8.920225
 20
-61.95793
 11
-7.920225
 21
-62.95793
  0
LINE
  8
別途部材
  6
CONTINUOUS
 10
-9.920225
 20
-61.95793
 11
-8.920225
 21
-61.95793
  0
LINE
  8
別途部材
  6
CONTINUOUS
 10
-14.920225
 20
-79.624597
 11
-14.920225
 21
-62.95793
  0
LINE
  8
別途部材
  6
CONTINUOUS
 10
-11.920225
 20
-79.624597
 11
-11.920225
 21
-62.95793
  0
LINE
  8
別途部材
  6
CONTINUOUS
 10
-10.920225
 20
-79.624597
 11
-10.920225
 21
-62.95793
  0
LINE
  8
別途部材
  6
CONTINUOUS
 10
-9.920225
 20
-79.624597
 11
-9.920225
 21
-61.95793
  0
LINE
  8
別途部材
  6
CONTINUOUS
 10
-8.920225
 20
-79.624597
 11
-8.920225
 21
-61.95793
  0
LINE
  8
別途部材
  6
CONTINUOUS
 10
-7.920225
 20
-79.624597
 11
-7.920225
 21
-62.95793
  0
LINE
  8
別途部材
  6
CONTINUOUS
 10
-6.920225
 20
-62.95793
 11
-5.920225
 21
-61.95793
  0
LINE
  8
別途部材
  6
CONTINUOUS
 10
-4.920225
 20
-61.95793
 11
-3.920225
 21
-62.95793
  0
LINE
  8
別途部材
  6
CONTINUOUS
 10
-5.920225
 20
-61.95793
 11
-4.920225
 21
-61.95793
  0
LINE
  8
別途部材
  6
CONTINUOUS
 10
-6.920225
 20
-79.624597
 11
-6.920225
 21
-62.95793
  0
LINE
  8
別途部材
  6
CONTINUOUS
 10
-5.920225
 20
-79.624597
 11
-5.920225
 21
-61.95793
  0
LINE
  8
別途部材
  6
CONTINUOUS
 10
-4.920225
 20
-79.624597
 11
-4.920225
 21
-61.95793
  0
LINE
  8
別途部材
  6
CONTINUOUS
 10
-3.920225
 20
-79.624597
 11
-3.920225
 21
-62.95793
  0
LINE
  8
別途部材
  6
CONTINUOUS
 10
-1.920225
 20
-79.624597
 11
-1.920225
 21
-61.95793
  0
LINE
  8
別途部材
  6
CONTINUOUS
 10
-0.920225
 20
-79.624597
 11
-0.920225
 21
-61.95793
  0
LINE
  8
別途部材
  6
CONTINUOUS
 10
-2.920225
 20
-62.95793
 11
-1.920225
 21
-61.95793
  0
LINE
  8
別途部材
  6
CONTINUOUS
 10
-0.920225
 20
-61.95793
 11
0.079775
 21
-62.95793
  0
LINE
  8
別途部材
  6
CONTINUOUS
 10
-1.920225
 20
-61.95793
 11
-0.920225
 21
-61.95793
  0
LINE
  8
別途部材
  6
CONTINUOUS
 10
1.079775
 20
-62.95793
 11
2.079775
 21
-61.95793
  0
LINE
  8
別途部材
  6
CONTINUOUS
 10
3.079775
 20
-61.95793
 11
4.079775
 21
-62.95793
  0
LINE
  8
別途部材
  6
CONTINUOUS
 10
2.079775
 20
-61.95793
 11
3.079775
 21
-61.95793
  0
LINE
  8
別途部材
  6
CONTINUOUS
 10
-2.920225
 20
-79.624597
 11
-2.920225
 21
-62.95793
  0
LINE
  8
別途部材
  6
CONTINUOUS
 10
0.079775
 20
-79.624597
 11
0.079775
 21
-62.95793
  0
LINE
  8
別途部材
  6
CONTINUOUS
 10
1.079775
 20
-79.624597
 11
1.079775
 21
-62.95793
  0
LINE
  8
別途部材
  6
CONTINUOUS
 10
2.079775
 20
-79.624597
 11
2.079775
 21
-61.95793
  0
LINE
  8
別途部材
  6
CONTINUOUS
 10
3.079775
 20
-79.624597
 11
3.079775
 21
-61.95793
  0
LINE
  8
別途部材
  6
CONTINUOUS
 10
4.079775
 20
-79.624597
 11
4.079775
 21
-62.95793
  0
LINE
  8
別途部材
  6
CONTINUOUS
 10
5.079775
 20
-62.95793
 11
6.079775
 21
-61.95793
  0
LINE
  8
別途部材
  6
CONTINUOUS
 10
7.079775
 20
-61.95793
 11
8.079775
 21
-62.95793
  0
LINE
  8
別途部材
  6
CONTINUOUS
 10
6.079775
 20
-61.95793
 11
7.079775
 21
-61.95793
  0
LINE
  8
別途部材
  6
CONTINUOUS
 10
5.079775
 20
-79.624597
 11
5.079775
 21
-62.95793
  0
LINE
  8
別途部材
  6
CONTINUOUS
 10
6.079775
 20
-79.624597
 11
6.079775
 21
-61.95793
  0
LINE
  8
別途部材
  6
CONTINUOUS
 10
7.079775
 20
-79.624597
 11
7.079775
 21
-61.95793
  0
LINE
  8
別途部材
  6
CONTINUOUS
 10
8.079775
 20
-79.624597
 11
8.079775
 21
-62.95793
  0
LINE
  8
別途部材
  6
CONTINUOUS
 10
10.079775
 20
-79.624597
 11
10.079775
 21
-61.95793
  0
LINE
  8
別途部材
  6
CONTINUOUS
 10
11.079775
 20
-79.624597
 11
11.079775
 21
-61.95793
  0
LINE
  8
別途部材
  6
CONTINUOUS
 10
9.079775
 20
-62.95793
 11
10.079775
 21
-61.95793
  0
LINE
  8
別途部材
  6
CONTINUOUS
 10
11.079775
 20
-61.95793
 11
12.079775
 21
-62.95793
  0
LINE
  8
別途部材
  6
CONTINUOUS
 10
10.079775
 20
-61.95793
 11
11.079775
 21
-61.95793
  0
LINE
  8
別途部材
  6
CONTINUOUS
 10
9.079775
 20
-79.624597
 11
9.079775
 21
-62.95793
  0
LINE
  8
別途部材
  6
CONTINUOUS
 10
12.079775
 20
-79.624597
 11
12.079775
 21
-62.95793
  0
LINE
  8
別途部材
  6
CONTINUOUS
 10
8.079775
 20
-62.95793
 11
9.079775
 21
-62.95793
  0
LINE
  8
別途部材
  6
CONTINUOUS
 10
4.079775
 20
-62.95793
 11
5.079775
 21
-62.95793
  0
LINE
  8
別途部材
  6
CONTINUOUS
 10
0.079775
 20
-62.95793
 11
1.079775
 21
-62.95793
  0
LINE
  8
別途部材
  6
CONTINUOUS
 10
-3.920225
 20
-62.95793
 11
-2.920225
 21
-62.95793
  0
LINE
  8
別途部材
  6
CONTINUOUS
 10
-7.920225
 20
-62.95793
 11
-6.920225
 21
-62.95793
  0
LINE
  8
別途部材
  6
CONTINUOUS
 10
-11.920225
 20
-62.95793
 11
-10.920225
 21
-62.95793
  0
LINE
  8
別途部材
  6
CONTINUOUS
 10
-15.920225
 20
-62.95793
 11
-14.920225
 21
-62.95793
  0
LINE
  8
別途部材
  6
CONTINUOUS
 10
-19.920225
 20
-62.95793
 11
-18.920225
 21
-62.95793
  0
LINE
  8
別途部材
  6
CONTINUOUS
 10
-23.920225
 20
-62.95793
 11
-22.920225
 21
-62.95793
  0
LINE
  8
別途部材
  6
CONTINUOUS
 10
-27.920225
 20
-79.624597
 11
-27.920225
 21
-62.95793
  0
LINE
  8
別途部材
  6
CONTINUOUS
 10
-26.920225
 20
-62.95793
 11
-27.920225
 21
-62.95793
  0
ARC
  8
別途部材
  6
CONTINUOUS
 10
28.913109
 20
-79.624597
 40
16.666667
 50
0.0
 51
90.0
  0
LINE
  8
別途部材
  6
CONTINUOUS
 10
14.079775
 20
-79.624597
 11
14.079775
 21
-61.95793
  0
LINE
  8
別途部材
  6
CONTINUOUS
 10
15.079775
 20
-79.624597
 11
15.079775
 21
-61.95793
  0
LINE
  8
別途部材
  6
CONTINUOUS
 10
13.079775
 20
-62.95793
 11
14.079775
 21
-61.95793
  0
LINE
  8
別途部材
  6
CONTINUOUS
 10
15.079775
 20
-61.95793
 11
16.079775
 21
-62.95793
  0
LINE
  8
別途部材
  6
CONTINUOUS
 10
14.079775
 20
-61.95793
 11
15.079775
 21
-61.95793
  0
LINE
  8
別途部材
  6
CONTINUOUS
 10
17.079775
 20
-62.95793
 11
18.079775
 21
-61.95793
  0
LINE
  8
別途部材
  6
CONTINUOUS
 10
19.079775
 20
-61.95793
 11
20.079775
 21
-62.95793
  0
LINE
  8
別途部材
  6
CONTINUOUS
 10
18.079775
 20
-61.95793
 11
19.079775
 21
-61.95793
  0
LINE
  8
別途部材
  6
CONTINUOUS
 10
13.079775
 20
-79.624597
 11
13.079775
 21
-62.95793
  0
LINE
  8
別途部材
  6
CONTINUOUS
 10
16.079775
 20
-79.624597
 11
16.079775
 21
-62.95793
  0
LINE
  8
別途部材
  6
CONTINUOUS
 10
17.079775
 20
-79.624597
 11
17.079775
 21
-62.95793
  0
LINE
  8
別途部材
  6
CONTINUOUS
 10
18.079775
 20
-79.624597
 11
18.079775
 21
-61.95793
  0
LINE
  8
別途部材
  6
CONTINUOUS
 10
19.079775
 20
-79.624597
 11
19.079775
 21
-61.95793
  0
LINE
  8
別途部材
  6
CONTINUOUS
 10
20.079775
 20
-79.624597
 11
20.079775
 21
-62.95793
  0
LINE
  8
別途部材
  6
CONTINUOUS
 10
21.079775
 20
-62.95793
 11
22.079775
 21
-61.95793
  0
LINE
  8
別途部材
  6
CONTINUOUS
 10
23.079775
 20
-61.95793
 11
24.079775
 21
-62.95793
  0
LINE
  8
別途部材
  6
CONTINUOUS
 10
22.079775
 20
-61.95793
 11
23.079775
 21
-61.95793
  0
LINE
  8
別途部材
  6
CONTINUOUS
 10
21.079775
 20
-79.624597
 11
21.079775
 21
-62.95793
  0
LINE
  8
別途部材
  6
CONTINUOUS
 10
22.079775
 20
-79.624597
 11
22.079775
 21
-61.95793
  0
LINE
  8
別途部材
  6
CONTINUOUS
 10
23.079775
 20
-79.624597
 11
23.079775
 21
-61.95793
  0
LINE
  8
別途部材
  6
CONTINUOUS
 10
24.079775
 20
-79.624597
 11
24.079775
 21
-62.95793
  0
LINE
  8
別途部材
  6
CONTINUOUS
 10
26.079775
 20
-79.624597
 11
26.079775
 21
-61.95793
  0
LINE
  8
別途部材
  6
CONTINUOUS
 10
27.079775
 20
-79.624597
 11
27.079775
 21
-61.95793
  0
LINE
  8
別途部材
  6
CONTINUOUS
 10
25.079775
 20
-62.95793
 11
26.079775
 21
-61.95793
  0
LINE
  8
別途部材
  6
CONTINUOUS
 10
27.079775
 20
-61.95793
 11
28.079775
 21
-62.95793
  0
LINE
  8
別途部材
  6
CONTINUOUS
 10
26.079775
 20
-61.95793
 11
27.079775
 21
-61.95793
  0
LINE
  8
別途部材
  6
CONTINUOUS
 10
25.079775
 20
-79.624597
 11
25.079775
 21
-62.95793
  0
LINE
  8
別途部材
  6
CONTINUOUS
 10
28.079775
 20
-79.624597
 11
28.079775
 21
-62.95793
  0
LINE
  8
別途部材
  6
CONTINUOUS
 10
24.079775
 20
-62.95793
 11
25.079775
 21
-62.95793
  0
LINE
  8
別途部材
  6
CONTINUOUS
 10
20.079775
 20
-62.95793
 11
21.079775
 21
-62.95793
  0
LINE
  8
別途部材
  6
CONTINUOUS
 10
16.079775
 20
-62.95793
 11
17.079775
 21
-62.95793
  0
LINE
  8
別途部材
  6
CONTINUOUS
 10
12.079775
 20
-62.95793
 11
13.079775
 21
-62.95793
  0
LINE
  8
別途部材
  6
CONTINUOUS
 10
28.91311
 20
-62.95793
 11
28.079775
 21
-62.95793
  0
ENDBLK
  0
BLOCK
  2
*DIM_0015
 70
    65
 10
0.0
 20
0.0
  0
LINE
  8
寸法
  6
BYBLOCK
 62
     0
 10
-107.420225
 20
8.08996
 11
-136.909303
 21
8.08996
  0
LINE
  8
寸法
  6
BYBLOCK
 62
     0
 10
-107.420225
 20
31.423293
 11
-136.909303
 21
31.423293
  0
LINE
  8
寸法
  6
BYBLOCK
 62
     0
 10
-136.909303
 20
8.08996
 11
-136.909303
 21
31.423293
  0
POINT
  8
寸法
 62
     0
 10
-136.909303
 20
8.08996
  0
POINT
  8
寸法
 62
     0
 10
-136.909303
 20
31.423293
  0
TEXT
  7
TextStyle03
  8
寸法
  6
CONTINUOUS
 62
     0
 10
-137.3
 20
17.3125
  1
700
 40
3.0
 50
90.0
 72
     5
 11
-137.3
 21
22.1875
  0
ENDBLK
  0
BLOCK
  2
*DIM_0016
 70
    65
 10
0.0
 20
0.0
  0
LINE
  8
寸法
  6
BYBLOCK
 62
     0
 10
-107.420225
 20
54.756625
 11
-136.909303
 21
54.756625
  0
LINE
  8
寸法
  6
BYBLOCK
 62
     0
 10
-136.909303
 20
31.423293
 11
-136.909303
 21
54.756625
  0
POINT
  8
寸法
 62
     0
 10
-136.909303
 20
54.756625
  0
TEXT
  7
TextStyle03
  8
寸法
  6
CONTINUOUS
 62
     0
 10
-137.3
 20
40.6375
  1
700
 40
3.0
 50
90.0
 72
     5
 11
-137.3
 21
45.5125
  0
ENDBLK
  0
BLOCK
  2
*DIM_0017
 70
    65
 10
0.0
 20
0.0
  0
LINE
  8
寸法
  6
BYBLOCK
 62
     0
 10
-96.086892
 20
67.756625
 11
-96.086892
 21
96.864697
  0
LINE
  8
寸法
  6
BYBLOCK
 62
     0
 10
-69.420225
 20
67.756625
 11
-69.420225
 21
96.864697
  0
LINE
  8
寸法
  6
BYBLOCK
 62
     0
 10
-96.086892
 20
96.864697
 11
-69.420225
 21
96.864697
  0
POINT
  8
寸法
 62
     0
 10
-96.086892
 20
96.864697
  0
POINT
  8
寸法
 62
     0
 10
-69.420225
 20
96.864697
  0
TEXT
  7
TextStyle03
  8
寸法
  6
CONTINUOUS
 62
     0
 10
-85.2125
 20
97.225
  1
800
 40
3.0
 72
     5
 11
-80.3375
 21
97.225
  0
ENDBLK
  0
BLOCK
  2
*DIM_0018
 70
    65
 10
0.0
 20
0.0
  0
LINE
  8
寸法
  6
BYBLOCK
 62
     0
 10
-42.753557
 20
67.756625
 11
-42.753557
 21
96.864697
  0
LINE
  8
寸法
  6
BYBLOCK
 62
     0
 10
-69.420225
 20
96.864697
 11
-42.753557
 21
96.864697
  0
POINT
  8
寸法
 62
     0
 10
-42.753557
 20
96.864697
  0
TEXT
  7
TextStyle03
  8
寸法
  6
CONTINUOUS
 62
     0
 10
-58.5375
 20
97.225
  1
800
 40
3.0
 72
     5
 11
-53.6625
 21
97.225
  0
ENDBLK
  0
BLOCK
  2
*DIM_0019
 70
    65
 10
0.0
 20
0.0
  0
LINE
  8
寸法
  6
BYBLOCK
 62
     0
 10
-16.086892
 20
67.756625
 11
-16.086892
 21
96.864697
  0
LINE
  8
寸法
  6
BYBLOCK
 62
     0
 10
-42.753557
 20
96.864697
 11
-16.086892
 21
96.864697
  0
POINT
  8
寸法
 62
     0
 10
-16.086892
 20
96.864697
  0
TEXT
  7
TextStyle03
  8
寸法
  6
CONTINUOUS
 62
     0
 10
-31.8625
 20
97.225
  1
800
 40
3.0
 72
     5
 11
-26.9875
 21
97.225
  0
ENDBLK
  0
BLOCK
  2
*DIM_0020
 70
    65
 10
0.0
 20
0.0
  0
LINE
  8
寸法
  6
BYBLOCK
 62
     0
 10
10.579775
 20
67.756625
 11
10.579775
 21
96.864697
  0
LINE
  8
寸法
  6
BYBLOCK
 62
     0
 10
-16.086892
 20
96.864697
 11
10.579775
 21
96.864697
  0
POINT
  8
寸法
 62
     0
 10
10.579775
 20
96.864697
  0
TEXT
  7
TextStyle03
  8
寸法
  6
CONTINUOUS
 62
     0
 10
-5.2125
 20
97.225
  1
800
 40
3.0
 72
     5
 11
-0.3375
 21
97.225
  0
ENDBLK
  0
BLOCK
  2
*DIM_0021
 70
    65
 10
0.0
 20
0.0
  0
LINE
  8
寸法
  6
BYBLOCK
 62
     0
 10
37.246443
 20
67.756625
 11
37.246443
 21
96.864697
  0
LINE
  8
寸法
  6
BYBLOCK
 62
     0
 10
10.579775
 20
96.864697
 11
37.246443
 21
96.864697
  0
POINT
  8
寸法
 62
     0
 10
37.246443
 20
96.864697
  0
TEXT
  7
TextStyle03
  8
寸法
  6
CONTINUOUS
 62
     0
 10
21.4625
 20
97.225
  1
800
 40
3.0
 72
     5
 11
26.3375
 21
97.225
  0
ENDBLK
  0
BLOCK
  2
*DIM_0022
 70
    65
 10
0.0
 20
0.0
  0
LINE
  8
寸法
  6
CONTINUOUS
 10
145.112795
 20
-87.823622
 11
153.44487
 21
-87.823622
  0
LINE
  8
寸法
  6
CONTINUOUS
 10
145.112795
 20
-55.373622
 11
153.44487
 21
-55.373622
  0
LINE
  8
寸法
  6
CONTINUOUS
 10
153.44487
 20
-87.823622
 11
153.44487
 21
-55.373622
  0
POINT
  8
寸法
 10
153.44487
 20
-87.823622
  0
POINT
  8
寸法
 10
153.44487
 20
-55.373622
  0
TEXT
  7
TextStyle03
  8
寸法
  6
CONTINUOUS
 10
153.05
 20
-75.725
  1
973.5
 40
3.0
 50
90.0
 72
     5
 11
153.05
 21
-67.475
  0
ENDBLK
  0
BLOCK
  2
*DIM_0023
 70
    65
 10
0.0
 20
0.0
  0
LINE
  8
寸法
  6
CONTINUOUS
 10
106.328765
 20
-50.373622
 11
106.328765
 21
-43.338598
  0
LINE
  8
寸法
  6
CONTINUOUS
 10
142.837097
 20
-50.373622
 11
142.837097
 21
-43.338598
  0
LINE
  8
寸法
  6
CONTINUOUS
 10
106.328765
 20
-43.338598
 11
142.837097
 21
-43.338598
  0
POINT
  8
寸法
 10
106.328765
 20
-43.338598
  0
POINT
  8
寸法
 10
142.837097
 20
-43.338598
  0
TEXT
  7
TextStyle03
  8
寸法
  6
CONTINUOUS
 10
119.60625
 20
-42.975
  1
1095.3
 40
3.0
 72
     5
 11
129.54375
 21
-42.975
  0
ENDBLK
  0
BLOCK
  2
*GRP_0024
 70
    65
 10
0.0
 20
0.0
  0
LINE
  8
ボルト／ビス
  6
CONTINUOUS
 10
-105.086892
 20
-79.624597
 11
-105.086892
 21
-79.15793
  0
LINE
  8
ボルト／ビス
  6
CONTINUOUS
 10
-105.45356
 20
-79.624597
 11
-105.45356
 21
-79.55793
  0
LINE
  8
ボルト／ビス
  6
CONTINUOUS
 10
-105.45356
 20
-79.55793
 11
-104.720225
 21
-79.55793
  0
LINE
  8
ボルト／ビス
  6
CONTINUOUS
 10
-104.720225
 20
-79.55793
 11
-104.720225
 21
-79.624597
  0
LINE
  8
ボルト／ビス
  6
CONTINUOUS
 10
-105.45356
 20
-79.624597
 11
-104.720225
 21
-79.624597
  0
LINE
  8
ボルト／ビス
  6
CONTINUOUS
 10
-105.386892
 20
-79.524597
 11
-105.386892
 21
-79.55793
  0
LINE
  8
ボルト／ビス
  6
CONTINUOUS
 10
-105.386892
 20
-79.524597
 11
-104.786892
 21
-79.524597
  0
LINE
  8
ボルト／ビス
  6
CONTINUOUS
 10
-104.786892
 20
-79.524597
 11
-104.786892
 21
-79.55793
  0
LINE
  8
ボルト／ビス
  6
CONTINUOUS
 62
    64
 10
-105.247267
 20
-79.324597
 11
-105.279342
 21
-79.336272
  0
ARC
  8
ボルト／ビス
  6
CONTINUOUS
 62
    64
 10
-105.231229
 20
-79.429576
 40
0.104978
 50
62.721967
 51
90.0
  0
ARC
  8
ボルト／ビス
  6
CONTINUOUS
 62
    64
 10
-105.086891
 20
-79.727
 40
0.402402
 50
76.165002
 51
103.834985
  0
LINE
  8
ボルト／ビス
  6
CONTINUOUS
 62
    64
 10
-104.926518
 20
-79.324597
 11
-104.894442
 21
-79.336272
  0
ARC
  8
ボルト／ビス
  6
CONTINUOUS
 62
    64
 10
-104.942554
 20
-79.429576
 40
0.104978
 50
90.0
 51
117.278033
  0
LINE
  8
ボルト／ビス
  6
CONTINUOUS
 62
    64
 10
-105.247267
 20
-79.324597
 11
-104.926518
 21
-79.324597
  0
LINE
  8
ボルト／ビス
  6
CONTINUOUS
 62
    64
 10
-104.894442
 20
-79.336272
 11
-104.894442
 21
-79.45793
  0
LINE
  8
ボルト／ビス
  6
CONTINUOUS
 62
    64
 10
-104.990668
 20
-79.336272
 11
-104.990668
 21
-79.45793
  0
LINE
  8
ボルト／ビス
  6
CONTINUOUS
 62
    64
 10
-105.279342
 20
-79.336272
 11
-105.279342
 21
-79.45793
  0
LINE
  8
ボルト／ビス
  6
CONTINUOUS
 62
    64
 10
-105.183118
 20
-79.336272
 11
-105.183118
 21
-79.45793
  0
LINE
  8
ボルト／ビス
  6
CONTINUOUS
 10
-105.279342
 20
-79.45793
 11
-104.894442
 21
-79.45793
  0
LINE
  8
ボルト／ビス
  6
CONTINUOUS
 10
-105.286892
 20
-79.45793
 11
-105.286892
 21
-79.524597
  0
LINE
  8
ボルト／ビス
  6
CONTINUOUS
 10
-105.286892
 20
-79.45793
 11
-104.886892
 21
-79.45793
  0
LINE
  8
ボルト／ビス
  6
CONTINUOUS
 10
-104.886892
 20
-79.45793
 11
-104.886892
 21
-79.524597
  0
ENDBLK
  0
BLOCK
  2
*GRP_0025
 70
    65
 10
0.0
 20
0.0
  0
LINE
  8
ボルト／ビス
  6
CONTINUOUS
 10
46.246443
 20
-79.624597
 11
46.246443
 21
-79.15793
  0
LINE
  8
ボルト／ビス
  6
CONTINUOUS
 10
45.879775
 20
-79.624597
 11
45.879775
 21
-79.55793
  0
LINE
  8
ボルト／ビス
  6
CONTINUOUS
 10
45.879775
 20
-79.55793
 11
46.61311
 21
-79.55793
  0
LINE
  8
ボルト／ビス
  6
CONTINUOUS
 10
46.61311
 20
-79.55793
 11
46.61311
 21
-79.624597
  0
LINE
  8
ボルト／ビス
  6
CONTINUOUS
 10
45.879775
 20
-79.624597
 11
46.61311
 21
-79.624597
  0
LINE
  8
ボルト／ビス
  6
CONTINUOUS
 10
45.946443
 20
-79.524597
 11
45.946443
 21
-79.55793
  0
LINE
  8
ボルト／ビス
  6
CONTINUOUS
 10
45.946443
 20
-79.524597
 11
46.546443
 21
-79.524597
  0
LINE
  8
ボルト／ビス
  6
CONTINUOUS
 10
46.546443
 20
-79.524597
 11
46.546443
 21
-79.55793
  0
LINE
  8
ボルト／ビス
  6
CONTINUOUS
 62
    64
 10
46.086067
 20
-79.324597
 11
46.053992
 21
-79.336272
  0
ARC
  8
ボルト／ビス
  6
CONTINUOUS
 62
    64
 10
46.102106
 20
-79.429576
 40
0.104978
 50
62.721967
 51
90.0
  0
ARC
  8
ボルト／ビス
  6
CONTINUOUS
 62
    64
 10
46.246444
 20
-79.727
 40
0.402402
 50
76.165002
 51
103.834985
  0
LINE
  8
ボルト／ビス
  6
CONTINUOUS
 62
    64
 10
46.406818
 20
-79.324597
 11
46.438892
 21
-79.336272
  0
ARC
  8
ボルト／ビス
  6
CONTINUOUS
 62
    64
 10
46.390781
 20
-79.429576
 40
0.104978
 50
90.0
 51
117.278033
  0
LINE
  8
ボルト／ビス
  6
CONTINUOUS
 62
    64
 10
46.086067
 20
-79.324597
 11
46.406818
 21
-79.324597
  0
LINE
  8
ボルト／ビス
  6
CONTINUOUS
 62
    64
 10
46.438892
 20
-79.336272
 11
46.438892
 21
-79.45793
  0
LINE
  8
ボルト／ビス
  6
CONTINUOUS
 62
    64
 10
46.342668
 20
-79.336272
 11
46.342668
 21
-79.45793
  0
LINE
  8
ボルト／ビス
  6
CONTINUOUS
 62
    64
 10
46.053992
 20
-79.336272
 11
46.053992
 21
-79.45793
  0
LINE
  8
ボルト／ビス
  6
CONTINUOUS
 62
    64
 10
46.150217
 20
-79.336272
 11
46.150217
 21
-79.45793
  0
LINE
  8
ボルト／ビス
  6
CONTINUOUS
 10
46.053992
 20
-79.45793
 11
46.438892
 21
-79.45793
  0
LINE
  8
ボルト／ビス
  6
CONTINUOUS
 10
46.046443
 20
-79.45793
 11
46.046443
 21
-79.524597
  0
LINE
  8
ボルト／ビス
  6
CONTINUOUS
 10
46.046443
 20
-79.45793
 11
46.446443
 21
-79.45793
  0
LINE
  8
ボルト／ビス
  6
CONTINUOUS
 10
46.446443
 20
-79.45793
 11
46.446443
 21
-79.524597
  0
ENDBLK
  0
BLOCK
  2
*GRP_0026
 70
    65
 10
0.0
 20
0.0
  0
LINE
  8
ボルト／ビス
  6
CONTINUOUS
 10
135.11304
 20
-2.57671
 11
134.646372
 21
-2.57671
  0
LINE
  8
ボルト／ビス
  6
CONTINUOUS
 10
135.11304
 20
-2.943378
 11
135.046372
 21
-2.943378
  0
LINE
  8
ボルト／ビス
  6
CONTINUOUS
 10
135.046372
 20
-2.943378
 11
135.046372
 21
-2.210042
  0
LINE
  8
ボルト／ビス
  6
CONTINUOUS
 10
135.046372
 20
-2.210042
 11
135.11304
 21
-2.210042
  0
LINE
  8
ボルト／ビス
  6
CONTINUOUS
 10
135.11304
 20
-2.943378
 11
135.11304
 21
-2.210042
  0
LINE
  8
ボルト／ビス
  6
CONTINUOUS
 10
135.01304
 20
-2.87671
 11
135.046372
 21
-2.87671
  0
LINE
  8
ボルト／ビス
  6
CONTINUOUS
 10
135.01304
 20
-2.87671
 11
135.01304
 21
-2.27671
  0
LINE
  8
ボルト／ビス
  6
CONTINUOUS
 10
135.01304
 20
-2.27671
 11
135.046372
 21
-2.27671
  0
LINE
  8
ボルト／ビス
  6
CONTINUOUS
 62
    64
 10
134.81304
 20
-2.737085
 11
134.824715
 21
-2.76916
  0
ARC
  8
ボルト／ビス
  6
CONTINUOUS
 62
    64
 10
134.918019
 20
-2.721046
 40
0.104978
 50
152.721967
 51
180.0
  0
ARC
  8
ボルト／ビス
  6
CONTINUOUS
 62
    64
 10
135.215443
 20
-2.576708
 40
0.402402
 50
166.165002
 51
193.834985
  0
LINE
  8
ボルト／ビス
  6
CONTINUOUS
 62
    64
 10
134.81304
 20
-2.416335
 11
134.824715
 21
-2.38426
  0
ARC
  8
ボルト／ビス
  6
CONTINUOUS
 62
    64
 10
134.918019
 20
-2.43237
 40
0.104978
 50
180.0
 51
207.278033
  0
LINE
  8
ボルト／ビス
  6
CONTINUOUS
 62
    64
 10
134.81304
 20
-2.737085
 11
134.81304
 21
-2.416335
  0
LINE
  8
ボルト／ビス
  6
CONTINUOUS
 62
    64
 10
134.824715
 20
-2.38426
 11
134.946372
 21
-2.38426
  0
LINE
  8
ボルト／ビス
  6
CONTINUOUS
 62
    64
 10
134.824715
 20
-2.480485
 11
134.946372
 21
-2.480485
  0
LINE
  8
ボルト／ビス
  6
CONTINUOUS
 62
    64
 10
134.824715
 20
-2.76916
 11
134.946372
 21
-2.76916
  0
LINE
  8
ボルト／ビス
  6
CONTINUOUS
 62
    64
 10
134.824715
 20
-2.672935
 11
134.946372
 21
-2.672935
  0
LINE
  8
ボルト／ビス
  6
CONTINUOUS
 10
134.946372
 20
-2.76916
 11
134.946372
 21
-2.38426
  0
LINE
  8
ボルト／ビス
  6
CONTINUOUS
 10
134.946372
 20
-2.77671
 11
135.01304
 21
-2.77671
  0
LINE
  8
ボルト／ビス
  6
CONTINUOUS
 10
134.946372
 20
-2.77671
 11
134.946372
 21
-2.37671
  0
LINE
  8
ボルト／ビス
  6
CONTINUOUS
 10
134.946372
 20
-2.37671
 11
135.01304
 21
-2.37671
  0
ENDBLK
  0
BLOCK
  2
*GRP_0027
 70
    65
 10
0.0
 20
0.0
  0
LINE
  8
ボルト／ビス
  6
CONTINUOUS
 10
135.11304
 20
65.42329
 11
134.646372
 21
65.42329
  0
LINE
  8
ボルト／ビス
  6
CONTINUOUS
 10
135.11304
 20
65.056623
 11
135.046372
 21
65.056623
  0
LINE
  8
ボルト／ビス
  6
CONTINUOUS
 10
135.046372
 20
65.056623
 11
135.046372
 21
65.789957
  0
LINE
  8
ボルト／ビス
  6
CONTINUOUS
 10
135.046372
 20
65.789957
 11
135.11304
 21
65.789957
  0
LINE
  8
ボルト／ビス
  6
CONTINUOUS
 10
135.11304
 20
65.056623
 11
135.11304
 21
65.789957
  0
LINE
  8
ボルト／ビス
  6
CONTINUOUS
 10
135.01304
 20
65.12329
 11
135.046372
 21
65.12329
  0
LINE
  8
ボルト／ビス
  6
CONTINUOUS
 10
135.01304
 20
65.12329
 11
135.01304
 21
65.72329
  0
LINE
  8
ボルト／ビス
  6
CONTINUOUS
 10
135.01304
 20
65.72329
 11
135.046372
 21
65.72329
  0
LINE
  8
ボルト／ビス
  6
CONTINUOUS
 62
    64
 10
134.81304
 20
65.262915
 11
134.824715
 21
65.23084
  0
ARC
  8
ボルト／ビス
  6
CONTINUOUS
 62
    64
 10
134.918019
 20
65.278954
 40
0.104978
 50
152.721967
 51
180.0
  0
ARC
  8
ボルト／ビス
  6
CONTINUOUS
 62
    64
 10
135.215443
 20
65.423292
 40
0.402402
 50
166.165002
 51
193.834985
  0
LINE
  8
ボルト／ビス
  6
CONTINUOUS
 62
    64
 10
134.81304
 20
65.583665
 11
134.824715
 21
65.61574
  0
ARC
  8
ボルト／ビス
  6
CONTINUOUS
 62
    64
 10
134.918019
 20
65.56763
 40
0.104978
 50
180.0
 51
207.278033
  0
LINE
  8
ボルト／ビス
  6
CONTINUOUS
 62
    64
 10
134.81304
 20
65.262915
 11
134.81304
 21
65.583665
  0
LINE
  8
ボルト／ビス
  6
CONTINUOUS
 62
    64
 10
134.824715
 20
65.61574
 11
134.946372
 21
65.61574
  0
LINE
  8
ボルト／ビス
  6
CONTINUOUS
 62
    64
 10
134.824715
 20
65.519515
 11
134.946372
 21
65.519515
  0
LINE
  8
ボルト／ビス
  6
CONTINUOUS
 62
    64
 10
134.824715
 20
65.23084
 11
134.946372
 21
65.23084
  0
LINE
  8
ボルト／ビス
  6
CONTINUOUS
 62
    64
 10
134.824715
 20
65.327065
 11
134.946372
 21
65.327065
  0
LINE
  8
ボルト／ビス
  6
CONTINUOUS
 10
134.946372
 20
65.23084
 11
134.946372
 21
65.61574
  0
LINE
  8
ボルト／ビス
  6
CONTINUOUS
 10
134.946372
 20
65.22329
 11
135.01304
 21
65.22329
  0
LINE
  8
ボルト／ビス
  6
CONTINUOUS
 10
134.946372
 20
65.22329
 11
134.946372
 21
65.62329
  0
LINE
  8
ボルト／ビス
  6
CONTINUOUS
 10
134.946372
 20
65.62329
 11
135.01304
 21
65.62329
  0
ENDBLK
  0
ENDSEC
  0
SECTION
  2
ENTITIES
  0
POLYLINE
  8
通り芯
  6
CONTINUOUS
 66
     1
 70
     1
  0
VERTEX
  8
通り芯
 10
-210.0
 20
-148.5
  0
VERTEX
  8
通り芯
 10
210.0
 20
-148.5
  0
VERTEX
  8
通り芯
 10
210.0
 20
148.5
  0
VERTEX
  8
通り芯
 10
-210.0
 20
148.5
  0
SEQEND
  0
INSERT
  2
*GRP_0001
  8
型材断面
  6
CONTINUOUS
 10
0.0
 20
0.0
  0
LINE
  8
型材断面
  6
DASHDOT
 10
45.579775
 20
64.756625
 11
45.579775
 21
-87.251428
  0
LINE
  8
型材断面
  6
DASHDOT
 10
-29.420225
 20
64.756625
 11
-29.420225
 21
-87.251428
  0
LINE
  8
型材断面
  6
DASHDOT
 10
-104.420225
 20
64.756625
 11
-104.420225
 21
-87.251428
  0
LINE
  8
型材断面
  6
DASHDOT
 10
143.256538
 20
-1.910042
 11
-104.420225
 21
-1.910042
  0
LINE
  8
型材断面
  6
DASHDOT
 10
143.256538
 20
31.423293
 11
-104.420225
 21
31.423293
  0
LINE
  8
型材断面
  6
DASHDOT
 10
143.256538
 20
64.756625
 11
-104.420225
 21
64.756625
  0
LINE
  8
型材断面
  6
DOT
 10
-30.670225
 20
-1.910042
 11
-30.670225
 21
64.756625
  0
LINE
  8
型材断面
  6
DOT
 10
-28.170225
 20
-1.910042
 11
-28.170225
 21
64.756625
  0
LINE
  8
型材断面
  6
CONTINUOUS
 10
-107.050355
 20
31.423293
 11
-109.640863
 21
32.918923
  0
LINE
  8
型材断面
  6
CONTINUOUS
 10
-107.050355
 20
31.423293
 11
-109.640863
 21
29.927663
  0
LINE
  8
型材断面
  6
CONTINUOUS
 10
-109.640863
 20
29.927663
 11
-109.640863
 21
32.918923
  0
LINE
  8
型材断面
  6
CONTINUOUS
 10
-145.272433
 20
109.263973
 11
-146.768062
 21
106.673465
  0
LINE
  8
型材断面
  6
CONTINUOUS
 10
-145.272433
 20
109.263973
 11
-143.776803
 21
106.673465
  0
LINE
  8
型材断面
  6
CONTINUOUS
 10
-143.776803
 20
106.673465
 11
-146.768062
 21
106.673465
  0
LINE
  8
型材断面
  6
CONTINUOUS
 10
-151.29502
 20
105.73487
 11
-105.053243
 21
105.73487
  0
LINE
  8
型材断面
  6
CONTINUOUS
 10
-87.753557
 20
-4.54017
 11
-89.249187
 21
-7.130678
  0
LINE
  8
型材断面
  6
CONTINUOUS
 10
-87.753557
 20
-4.54017
 11
-86.257928
 21
-7.130678
  0
LINE
  8
型材断面
  6
CONTINUOUS
 10
-86.257928
 20
-7.130678
 11
-89.249187
 21
-7.130678
  0
LINE
  8
型材断面
  6
CONTINUOUS
 10
-87.753557
 20
67.386755
 11
-89.249187
 21
69.977262
  0
LINE
  8
型材断面
  6
CONTINUOUS
 10
-87.753557
 20
67.386755
 11
-86.257928
 21
69.977262
  0
LINE
  8
型材断面
  6
CONTINUOUS
 10
-86.257928
 20
69.977262
 11
-89.249187
 21
69.977262
  0
LINE
  8
型材断面
  6
CONTINUOUS
 10
48.209905
 20
31.423293
 11
50.800412
 21
32.918923
  0
LINE
  8
型材断面
  6
CONTINUOUS
 10
48.209905
 20
31.423293
 11
50.800412
 21
29.927663
  0
LINE
  8
型材断面
  6
CONTINUOUS
 10
50.800412
 20
29.927663
 11
50.800412
 21
32.918923
  0
LINE
  8
型材断面
  6
CONTINUOUS
 10
28.913107
 20
-4.54017
 11
30.408737
 21
-7.130678
  0
LINE
  8
型材断面
  6
CONTINUOUS
 10
28.913107
 20
-4.54017
 11
27.417477
 21
-7.130678
  0
LINE
  8
型材断面
  6
CONTINUOUS
 10
27.417477
 20
-7.130678
 11
30.408737
 21
-7.130678
  0
LINE
  8
型材断面
  6
CONTINUOUS
 10
28.913107
 20
67.386755
 11
30.408737
 21
69.977262
  0
LINE
  8
型材断面
  6
CONTINUOUS
 10
28.913107
 20
67.386755
 11
27.417477
 21
69.977262
  0
LINE
  8
型材断面
  6
CONTINUOUS
 10
27.417477
 20
69.977262
 11
30.408737
 21
69.977262
  0
LINE
  8
型材断面
  6
CONTINUOUS
 10
-29.420225
 20
-4.54017
 11
-27.924595
 21
-7.130678
  0
LINE
  8
型材断面
  6
CONTINUOUS
 10
-29.420225
 20
-4.54017
 11
-30.915855
 21
-7.130678
  0
LINE
  8
型材断面
  6
CONTINUOUS
 10
-30.915855
 20
-7.130678
 11
-27.924595
 21
-7.130678
  0
LINE
  8
型材断面
  6
CONTINUOUS
 10
-29.420225
 20
67.386755
 11
-27.924595
 21
69.977262
  0
LINE
  8
型材断面
  6
CONTINUOUS
 10
-29.420225
 20
67.386755
 11
-30.915855
 21
69.977262
  0
LINE
  8
型材断面
  6
CONTINUOUS
 10
-30.915855
 20
69.977262
 11
-27.924595
 21
69.977262
  0
LINE
  8
型材断面
  6
DOT
 10
45.579775
 20
32.673293
 11
9.496443
 21
32.673293
  0
LINE
  8
型材断面
  6
DOT
 10
45.579775
 20
30.173293
 11
9.496443
 21
30.173293
  0
LINE
  8
型材断面
  6
DOT
 10
-28.170225
 20
32.673293
 11
6.996443
 21
32.673293
  0
LINE
  8
型材断面
  6
DOT
 10
-28.170225
 20
30.173293
 11
6.996443
 21
30.173293
  0
LINE
  8
型材断面
  6
DOT
 10
-30.670225
 20
32.673293
 11
-65.836892
 21
32.673293
  0
LINE
  8
型材断面
  6
DOT
 10
-30.670225
 20
30.173293
 11
-65.836892
 21
30.173293
  0
LINE
  8
型材断面
  6
DOT
 10
-104.420225
 20
32.673293
 11
-68.336892
 21
32.673293
  0
LINE
  8
型材断面
  6
DOT
 10
-104.420225
 20
30.173293
 11
-68.336892
 21
30.173293
  0
LINE
  8
型材断面
  6
CONTINUOUS
 10
-151.29502
 20
99.821665
 11
-105.053243
 21
99.821665
  0
LINE
  8
型材断面
  6
CONTINUOUS
 10
137.646322
 20
66.91344
 11
137.196322
 21
66.91344
  0
LINE
  8
型材断面
  6
CONTINUOUS
 62
    47
 10
137.196322
 20
67.36344
 11
136.696322
 21
67.36344
  0
LINE
  8
型材断面
  6
CONTINUOUS
 62
    47
 10
136.696322
 20
67.36344
 11
136.113038
 21
65.488983
  0
LINE
  8
型材断面
  6
CONTINUOUS
 10
136.696322
 20
67.36344
 11
136.696322
 21
31.423293
  0
LINE
  8
型材断面
  6
CONTINUOUS
 10
137.646322
 20
66.91344
 11
137.646322
 21
31.423293
  0
LINE
  8
型材断面
  6
CONTINUOUS
 10
137.646322
 20
-4.066855
 11
137.196322
 21
-4.066855
  0
LINE
  8
型材断面
  6
CONTINUOUS
 62
    47
 10
137.196322
 20
-4.516855
 11
136.696322
 21
-4.516855
  0
LINE
  8
型材断面
  6
CONTINUOUS
 62
    47
 10
136.696322
 20
-4.516855
 11
136.113038
 21
-2.642397
  0
LINE
  8
型材断面
  6
CONTINUOUS
 10
136.696322
 20
-4.516855
 11
136.696322
 21
31.423293
  0
LINE
  8
型材断面
  6
CONTINUOUS
 10
137.646322
 20
-4.066855
 11
137.646322
 21
31.423293
  0
LINE
  8
型材断面
  6
CONTINUOUS
 10
47.646443
 20
-3.97671
 11
48.186587
 21
-4.516855
  0
LINE
  8
型材断面
  6
CONTINUOUS
 10
48.186587
 20
-4.516855
 11
48.186587
 21
31.423293
  0
LINE
  8
型材断面
  6
CONTINUOUS
 10
47.736587
 20
-82.157882
 11
47.736587
 21
-81.707882
  0
LINE
  8
型材断面
  6
CONTINUOUS
 62
    47
 10
48.186587
 20
-81.707882
 11
48.186587
 21
-81.207882
  0
LINE
  8
型材断面
  6
CONTINUOUS
 62
    47
 10
48.186587
 20
-81.207882
 11
46.31213
 21
-80.624597
  0
LINE
  8
型材断面
  6
CONTINUOUS
 10
48.186587
 20
-4.516855
 11
-29.420225
 21
-4.516832
  0
LINE
  8
型材断面
  6
CONTINUOUS
 10
47.646443
 20
66.823295
 11
48.186587
 21
67.36344
  0
LINE
  8
型材断面
  6
CONTINUOUS
 10
48.186587
 20
67.36344
 11
48.186587
 21
31.423293
  0
LINE
  8
型材断面
  6
CONTINUOUS
 10
48.186587
 20
67.36344
 11
-29.420225
 21
67.363417
  0
LINE
  8
型材断面
  6
CONTINUOUS
 10
-106.486892
 20
66.823295
 11
-107.027038
 21
67.36344
  0
LINE
  8
型材断面
  6
CONTINUOUS
 10
-107.027038
 20
67.36344
 11
-107.027038
 21
31.423293
  0
LINE
  8
型材断面
  6
CONTINUOUS
 10
-107.027038
 20
67.36344
 11
-29.420225
 21
67.363417
  0
LINE
  8
型材断面
  6
CONTINUOUS
 10
-106.486892
 20
-3.97671
 11
-107.027038
 21
-4.516855
  0
LINE
  8
型材断面
  6
CONTINUOUS
 10
-107.027038
 20
-4.516855
 11
-107.027038
 21
31.423293
  0
LINE
  8
型材断面
  6
CONTINUOUS
 10
-107.027038
 20
-4.516855
 11
-29.420225
 21
-4.516832
  0
LINE
  8
型材断面
  6
CONTINUOUS
 10
48.186587
 20
-81.207882
 11
-29.420225
 21
-81.207882
  0
LINE
  8
型材断面
  6
CONTINUOUS
 10
47.736587
 20
-82.157882
 11
-29.420225
 21
-82.157882
  0
LINE
  8
型材断面
  6
CONTINUOUS
 10
-106.577038
 20
-82.157882
 11
-106.577038
 21
-81.707882
  0
LINE
  8
型材断面
  6
CONTINUOUS
 62
    47
 10
-107.027038
 20
-81.707882
 11
-107.027038
 21
-81.207882
  0
LINE
  8
型材断面
  6
CONTINUOUS
 62
    47
 10
-107.027038
 20
-81.207882
 11
-105.15258
 21
-80.624597
  0
LINE
  8
型材断面
  6
CONTINUOUS
 10
-107.027038
 20
-81.207882
 11
-29.420225
 21
-81.207882
  0
LINE
  8
型材断面
  6
CONTINUOUS
 10
-106.577038
 20
-82.157882
 11
-29.420225
 21
-82.157882
  0
LINE
  8
型材断面
  6
DASHDOT
 10
-67.028557
 20
-1.910042
 11
-67.028557
 21
64.756625
  0
LINE
  8
型材断面
  6
DOT
 10
-65.778557
 20
-1.910042
 11
-65.778557
 21
64.756625
  0
LINE
  8
型材断面
  6
DOT
 10
-68.278557
 20
-1.910042
 11
-68.278557
 21
64.756625
  0
LINE
  8
型材断面
  6
DASHDOT
 10
8.188107
 20
-1.910042
 11
8.188107
 21
64.756625
  0
LINE
  8
型材断面
  6
DOT
 10
6.938107
 20
-1.910042
 11
6.938107
 21
64.756625
  0
LINE
  8
型材断面
  6
DOT
 10
9.438107
 20
-1.910042
 11
9.438107
 21
64.756625
  0
LINE
  8
ガラス
  6
CONTINUOUS
 10
142.837097
 20
-55.373622
 11
142.837097
 21
-87.823622
  0
LINE
  8
ガラス
  6
CONTINUOUS
 10
142.837097
 20
-87.823622
 11
106.328765
 21
-87.823622
  0
LINE
  8
ガラス
  6
CONTINUOUS
 10
106.328765
 20
-87.823622
 11
106.328765
 21
-55.373622
  0
LINE
  8
ガラス
  6
CONTINUOUS
 10
142.837097
 20
-55.373622
 11
106.328765
 21
-55.373622
  0
TEXT
  7
TextStyle03
  8
文字
  6
CONTINUOUS
 10
-142.475
 20
106.85
  1
は排水穴位置を示す
 40
3.0
 72
     5
 11
-112.475
 21
106.85
  0
TEXT
  7
TextStyle03
  8
文字
  6
CONTINUOUS
 10
124.05
 20
-81.275
  1
網入り6.8t
 40
3.0
 72
     5
 11
140.7375
 21
-81.275
  0
TEXT
  7
TextStyle03
  8
文字
  6
CONTINUOUS
 10
130.725
 20
-85.95
  1
×８枚
 40
3.0
 72
     5
 11
140.475
 21
-85.95
  0
TEXT
  7
TextStyle03
  8
文字
  6
CONTINUOUS
 10
-143.15
 20
2.025
  1
アンカーピッチ
 40
3.0
 50
90.0
 72
     5
 11
-143.15
 21
25.275
  0
TEXT
  7
TextStyle03
  8
文字
  6
CONTINUOUS
 10
-89.475
 20
101.825
  1
アンカーピッチ
 40
3.0
 72
     5
 11
-66.225
 21
101.825
  0
TEXT
  7
TextStyle03
  8
文字
  6
CONTINUOUS
 10
-146.2
 20
100.7
  1
アンカー数量　１８ヶ所
 40
3.0
 72
     5
 11
-109.45
 21
100.7
  0
TEXT
  7
TextStyle03
  8
文字
  6
CONTINUOUS
 10
78.1
 20
125.25
  1
シリーズ：ＳＴＤＫＬ
 40
5.0
 72
     5
 11
133.725
 21
125.25
  0
TEXT
  7
TextStyle03
  8
文字
  6
CONTINUOUS
 10
78.1
 20
119.625
  1
　　　　　（固定）2000×4500タイプ
 40
5.0
 72
     5
 11
173.1
 21
119.625
  0
TEXT
  7
TextStyle03
  8
文字
  6
CONTINUOUS
 10
78.1
 20
114.0
  1
図面名　：外観姿図
 40
5.0
 72
     5
 11
128.1
 21
114.0
  0
TEXT
  7
TextStyle03
  8
文字
  6
CONTINUOUS
 10
78.1
 20
108.375
  1
　　　　　　
 40
5.0
 72
     5
 11
111.225
 21
108.375
  0
TEXT
  7
TextStyle03
  8
文字
  6
CONTINUOUS
 10
79.0
 20
102.25
  1
ＮＳコード：ＮＳＫＳＬ
 40
5.0
 72
     5
 11
140.25
 21
102.25
  0
INSERT
  2
*DIM_0002
  8
寸法
  6
CONTINUOUS
 10
0.0
 20
0.0
  0
INSERT
  2
*DIM_0003
  8
寸法
  6
CONTINUOUS
 10
0.0
 20
0.0
  0
INSERT
  2
*DIM_0004
  8
寸法
  6
CONTINUOUS
 10
0.0
 20
0.0
  0
INSERT
  2
*DIM_0005
  8
寸法
  6
CONTINUOUS
 10
0.0
 20
0.0
  0
INSERT
  2
*DIM_0006
  8
寸法
  6
CONTINUOUS
 10
0.0
 20
0.0
  0
INSERT
  2
*DIM_0007
  8
寸法
  6
CONTINUOUS
 10
0.0
 20
0.0
  0
INSERT
  2
*DIM_0008
  8
寸法
  6
CONTINUOUS
 10
0.0
 20
0.0
  0
INSERT
  2
*DIM_0009
  8
寸法
  6
CONTINUOUS
 10
0.0
 20
0.0
  0
INSERT
  2
*DIM_0010
  8
寸法
  6
CONTINUOUS
 10
0.0
 20
0.0
  0
INSERT
  2
*DIM_0011
  8
寸法
  6
CONTINUOUS
 10
0.0
 20
0.0
  0
INSERT
  2
*DIM_0012
  8
寸法
  6
CONTINUOUS
 10
0.0
 20
0.0
  0
INSERT
  2
*DIM_0013
  8
寸法
  6
CONTINUOUS
 10
0.0
 20
0.0
  0
INSERT
  2
*DIM_0015
  8
寸法
  6
CONTINUOUS
 10
0.0
 20
0.0
  0
INSERT
  2
*DIM_0016
  8
寸法
  6
CONTINUOUS
 10
0.0
 20
0.0
  0
INSERT
  2
*DIM_0017
  8
寸法
  6
CONTINUOUS
 10
0.0
 20
0.0
  0
INSERT
  2
*DIM_0018
  8
寸法
  6
CONTINUOUS
 10
0.0
 20
0.0
  0
INSERT
  2
*DIM_0019
  8
寸法
  6
CONTINUOUS
 10
0.0
 20
0.0
  0
INSERT
  2
*DIM_0020
  8
寸法
  6
CONTINUOUS
 10
0.0
 20
0.0
  0
INSERT
  2
*DIM_0021
  8
寸法
  6
CONTINUOUS
 10
0.0
 20
0.0
  0
INSERT
  2
*DIM_0022
  8
寸法
  6
CONTINUOUS
 10
0.0
 20
0.0
  0
INSERT
  2
*DIM_0023
  8
寸法
  6
CONTINUOUS
 10
0.0
 20
0.0
  0
LINE
  8
別途部材
  6
CONTINUOUS
 10
47.646443
 20
-3.97671
 11
47.246443
 21
-3.57671
  0
LINE
  8
別途部材
  6
CONTINUOUS
 10
45.579775
 20
-1.910042
 11
37.52052
 21
6.149215
  0
LINE
  8
別途部材
  6
CONTINUOUS
 10
47.646443
 20
-3.97671
 11
47.646443
 21
31.423293
  0
LINE
  8
別途部材
  6
CONTINUOUS
 10
47.246443
 20
-3.57671
 11
47.246443
 21
31.423293
  0
LINE
  8
別途部材
  6
CONTINUOUS
 10
47.646443
 20
66.823295
 11
47.246443
 21
66.423295
  0
LINE
  8
別途部材
  6
CONTINUOUS
 10
45.579775
 20
64.756627
 11
37.52052
 21
56.69737
  0
LINE
  8
別途部材
  6
CONTINUOUS
 10
47.646443
 20
66.823295
 11
47.646443
 21
31.423293
  0
LINE
  8
別途部材
  6
CONTINUOUS
 10
47.246443
 20
66.423295
 11
47.246443
 21
31.423293
  0
LINE
  8
別途部材
  6
CONTINUOUS
 10
47.246443
 20
-3.57671
 11
-29.420225
 21
-3.57671
  0
LINE
  8
別途部材
  6
CONTINUOUS
 10
47.646443
 20
-3.97671
 11
-29.420225
 21
-3.97671
  0
LINE
  8
別途部材
  6
CONTINUOUS
 10
47.246443
 20
66.423295
 11
-29.420225
 21
66.423295
  0
LINE
  8
別途部材
  6
CONTINUOUS
 10
47.646443
 20
66.823295
 11
-29.420225
 21
66.823295
  0
LINE
  8
別途部材
  6
CONTINUOUS
 10
-106.486892
 20
-3.97671
 11
-106.086892
 21
-3.57671
  0
LINE
  8
別途部材
  6
CONTINUOUS
 10
-104.420225
 20
-1.910042
 11
-96.36097
 21
6.149215
  0
LINE
  8
別途部材
  6
CONTINUOUS
 10
-106.486892
 20
-3.97671
 11
-106.486892
 21
31.423293
  0
LINE
  8
別途部材
  6
CONTINUOUS
 10
-106.086892
 20
-3.57671
 11
-106.086892
 21
31.423293
  0
LINE
  8
別途部材
  6
CONTINUOUS
 10
-106.486892
 20
66.823295
 11
-106.086892
 21
66.423295
  0
LINE
  8
別途部材
  6
CONTINUOUS
 10
-104.420225
 20
64.756627
 11
-96.36097
 21
56.69737
  0
LINE
  8
別途部材
  6
CONTINUOUS
 10
-106.486892
 20
66.823295
 11
-106.486892
 21
31.423293
  0
LINE
  8
別途部材
  6
CONTINUOUS
 10
-106.086892
 20
66.423295
 11
-106.086892
 21
31.423293
  0
LINE
  8
別途部材
  6
CONTINUOUS
 10
-106.086892
 20
-3.57671
 11
-29.420225
 21
-3.57671
  0
LINE
  8
別途部材
  6
CONTINUOUS
 10
-106.486892
 20
-3.97671
 11
-29.420225
 21
-3.97671
  0
LINE
  8
別途部材
  6
CONTINUOUS
 10
-106.086892
 20
66.423295
 11
-29.420225
 21
66.423295
  0
LINE
  8
別途部材
  6
CONTINUOUS
 10
-106.486892
 20
66.823295
 11
-29.420225
 21
66.823295
  0
LINE
  8
別途部材
  6
CONTINUOUS
 62
    96
 10
135.11304
 20
-3.57671
 11
136.11304
 21
-3.97671
  0
ARC
  8
別途部材
  6
CONTINUOUS
 10
160.113036
 20
31.42329
 40
41.666665
 50
180.0
 51
233.130105
  0
ARC
  8
別途部材
  6
CONTINUOUS
 10
160.113036
 20
31.423291
 40
41.666665
 50
126.869895
 51
180.0
  0
LINE
  8
別途部材
  6
CONTINUOUS
 10
136.11304
 20
-3.97671
 11
136.11304
 21
31.42329
  0
LINE
  8
別途部材
  6
CONTINUOUS
 62
    96
 10
135.11304
 20
-3.57671
 11
135.11304
 21
31.42329
  0
LINE
  8
別途部材
  6
CONTINUOUS
 62
    96
 10
135.11304
 20
66.42329
 11
136.11304
 21
66.82329
  0
LINE
  8
別途部材
  6
CONTINUOUS
 10
136.11304
 20
66.82329
 11
136.11304
 21
31.42329
  0
LINE
  8
別途部材
  6
CONTINUOUS
 62
    96
 10
135.11304
 20
66.42329
 11
135.11304
 21
31.42329
  0
INSERT
  2
*GRP_0014
  8
別途部材
  6
CONTINUOUS
 10
0.0
 20
0.0
  0
INSERT
  2
*GRP_0024
  8
別途部材
  6
DOT
 10
0.0
 20
0.0
  0
INSERT
  2
*GRP_0025
  8
別途部材
  6
DOT
 10
0.0
 20
0.0
  0
INSERT
  2
*GRP_0026
  8
別途部材
  6
DOT
 10
0.0
 20
0.0
  0
INSERT
  2
*GRP_0027
  8
別途部材
  6
DOT
 10
0.0
 20
0.0
  0
LINE
  8
St
  6
CONTINUOUS
 62
    47
 10
137.196322
 20
67.36344
 11
137.196322
 21
31.423293
  0
LINE
  8
St
  6
CONTINUOUS
 62
    47
 10
137.196322
 20
-4.516855
 11
137.196322
 21
31.423293
  0
LINE
  8
St
  6
CONTINUOUS
 62
    47
 10
48.186587
 20
-81.707882
 11
-29.420225
 21
-81.707882
  0
LINE
  8
St
  6
CONTINUOUS
 62
    47
 10
-107.027038
 20
-81.707882
 11
-29.420225
 21
-81.707882
  0
ENDSEC
  0
EOF
