  0
SECTION
  2
HEADER
  9
$EXTMIN
 10
-210.0
 20
-148.5
  9
$EXTMAX
 10
210.0
 20
148.5
  9
$PDMODE
 70
    32
  9
$PDSIZE
 40
1.5
  9
$LTSCALE
 40
10.0
  0
ENDSEC
  0
SECTION
  2
TABLES
  0
TABLE
  2
LTYPE
 70
    15
  0
LTYPE
  2
CONTINUOUS
 70
    64
  3
実線
 72
    65
 73
     0
 40
0.0
  0
LTYPE
  2
DASHED
 70
    64
  3
破線A
 72
    65
 73
     2
 40
0.6
 49
0.4
 49
-0.2
  0
LTYPE
  2
DASHEDX2
 70
    64
  3
破線B
 72
    65
 73
     2
 40
1.3
 49
0.9
 49
-0.4
  0
LTYPE
  2
DASHDOT
 70
    64
  3
１点鎖線A
 72
    65
 73
     4
 40
0.5375
 49
0.375
 49
-0.05
 49
0.0625
 49
-0.05
  0
LTYPE
  2
DASHDOTX2
 70
    64
  3
１点鎖線B
 72
    65
 73
     4
 40
1.075
 49
0.75
 49
-0.1
 49
0.125
 49
-0.1
  0
LTYPE
  2
DIVIDE2
 70
    64
  3
２点鎖線A
 72
    65
 73
     6
 40
0.5125
 49
0.3
 49
-0.0375
 49
0.05
 49
-0.0375
 49
0.05
 49
-0.0375
  0
LTYPE
  2
DIVIDE
 70
    64
  3
２点鎖線B
 72
    65
 73
     6
 40
1.05
 49
0.55
 49
-0.1
 49
0.1
 49
-0.1
 49
0.1
 49
-0.1
  0
LTYPE
  2
DOT
 70
    64
  3
点線A
 72
    65
 73
     2
 40
0.1125
 49
0.0625
 49
-0.05
  0
LTYPE
  2
DOTX2
 70
    64
  3
点線B
 72
    65
 73
     2
 40
0.275
 49
0.15
 49
-0.125
  0
LTYPE
  2
CONTINUOUS
 70
    64
  3
実線
 72
    65
 73
     0
 40
0.0
  0
LTYPE
  2
CONTINUOUS
 70
    64
  3
実線
 72
    65
 73
     0
 40
0.0
  0
LTYPE
  2
CONTINUOUS
 70
    64
  3
実線
 72
    65
 73
     0
 40
0.0
  0
LTYPE
  2
CONTINUOUS
 70
    64
  3
実線
 72
    65
 73
     0
 40
0.0
  0
LTYPE
  2
CONTINUOUS
 70
    64
  3
実線
 72
    65
 73
     0
 40
0.0
  0
LTYPE
  2
CONTINUOUS
 70
    64
  3
実線
 72
    65
 73
     0
 40
0.0
  0
ENDTAB
  0
TABLE
  2
LAYER
 70
    34
  0
LAYER
  2
通り芯
 70
     0
 62
    15
  6
CONTINUOUS
  0
LAYER
  2
補助線
 70
     0
 62
    16
  6
DOT
  0
LAYER
  2
躯体
 70
     0
 62
    31
  6
CONTINUOUS
  0
LAYER
  2
型材
 70
     0
 62
    32
  6
CONTINUOUS
  0
LAYER
  2
型材断面
 70
     0
 62
    47
  6
CONTINUOUS
  0
LAYER
  2
ガラス
 70
     0
 62
    48
  6
CONTINUOUS
  0
LAYER
  2
ゴム等
 70
     0
 62
    63
  6
CONTINUOUS
  0
LAYER
  2
ボルト／ビス
 70
     0
 62
    64
  6
CONTINUOUS
  0
LAYER
  2
文字
 70
     0
 62
    79
  6
CONTINUOUS
  0
LAYER
  2
寸法
 70
     0
 62
    80
  6
CONTINUOUS
  0
LAYER
  2
ﾊｯﾁﾝｸﾞ
 70
     0
 62
    95
  6
CONTINUOUS
  0
LAYER
  2
別途部材
 70
     0
 62
    96
  6
CONTINUOUS
  0
LAYER
  2
曲げ物
 70
     0
 62
   111
  6
CONTINUOUS
  0
LAYER
  2
鉄骨等
 70
     0
 62
   112
  6
CONTINUOUS
  0
LAYER
  2
St
 70
     0
 62
   127
  6
CONTINUOUS
  0
LAYER
  2
その他部品等
 70
     0
 62
   128
  6
CONTINUOUS
  0
LAYER
  2
ｶﾞｽｹｯﾄ
 70
     0
 62
   143
  6
CONTINUOUS
  0
LAYER
  2
ｽｹｯﾁ
 70
     0
 62
    14
  6
CONTINUOUS
  0
LAYER
  2
0
 70
     0
 62
    17
  6
CONTINUOUS
  0
LAYER
  2
1
 70
     0
 62
    30
  6
CONTINUOUS
  0
LAYER
  2
4
 70
     0
 62
    33
  6
CONTINUOUS
  0
LAYER
  2
ﾚｲﾔ3
 70
     0
 62
    46
  6
CONTINUOUS
  0
LAYER
  2
外形線
 70
     0
 62
    49
  6
CONTINUOUS
  0
LAYER
  2
部品
 70
     0
 62
    14
  6
CONTINUOUS
  0
LAYER
  2
サッシ芯
 70
     0
 62
    17
  6
DASHDOTX2
  0
LAYER
  2
寸法線
 70
     0
 62
    62
  6
CONTINUOUS
  0
LAYER
  2
姿図外形線
 70
     0
 62
    65
  6
CONTINUOUS
  0
LAYER
  2
姿補助線
 70
     0
 62
    30
  6
CONTINUOUS
  0
LAYER
  2
透視線
 70
     0
 62
    78
  6
DOT
  0
LAYER
  2
用紙
 70
     0
 62
    81
  6
CONTINUOUS
  0
LAYER
  2
実線図枠
 70
     0
 62
    94
  6
CONTINUOUS
  0
LAYER
  2
補助図枠
 70
     0
 62
    97
  6
CONTINUOUS
  0
LAYER
  2
建具記号
 70
     0
 62
   110
  6
CONTINUOUS
  0
LAYER
  2
補助文字
 70
     0
 62
   113
  6
CONTINUOUS
  0
ENDTAB
  0
TABLE
  2
STYLE
 70
    10
  0
STYLE
  2
STANDARD
 70
     0
 40
1.0
 41
1.0
 42
1.0
 50
0.0
 71
     0
  3
TXT
  4
BIGFONT
  0
STYLE
  2
TATE
 70
     4
 40
1.0
 41
1.0
 42
1.0
 50
0.0
 71
     0
  3
TXT
  4
BIGFONT
  0
STYLE
  2
TextStyle03
 70
     0
 40
1.0
 41
1.0
 42
1.0
 50
0.0
 71
     0
  3
MONOTXT
  4
BIGFONT
  0
STYLE
  2
TextStyle04
 70
     0
 40
1.0
 41
1.0
 42
1.0
 50
0.0
 71
     0
  3
MONOTXT
  4
BIGFONT
  0
STYLE
  2
TextStyle05
 70
     0
 40
1.0
 41
1.0
 42
1.0
 50
0.0
 71
     0
  3
MONOTXT
  4
BIGFONT
  0
STYLE
  2
TextStyle06
 70
     0
 40
1.0
 41
1.0
 42
1.0
 50
0.0
 71
     0
  3
MONOTXT
  4
BIGFONT
  0
STYLE
  2
TextStyle07
 70
     0
 40
1.0
 41
1.0
 42
1.0
 50
0.0
 71
     0
  3
MONOTXT
  4
BIGFONT
  0
STYLE
  2
TextStyle08
 70
     0
 40
1.0
 41
1.0
 42
1.0
 50
0.0
 71
     0
  3
MONOTXT
  4
BIGFONT
  0
STYLE
  2
TextStyle09
 70
     0
 40
1.0
 41
1.0
 42
1.0
 50
0.0
 71
     0
  3
MONOTXT
  4
BIGFONT
  0
STYLE
  2
TextStyle10
 70
     0
 40
1.0
 41
1.0
 42
1.0
 50
0.0
 71
     0
  3
MONOTXT
  4
BIGFONT
  0
ENDTAB
  0
ENDSEC
  0
SECTION
  2
BLOCKS
  0
BLOCK
  2
*GRP_0001
 70
    65
 10
0.0
 20
0.0
  0
LINE
  8
型材断面
  6
CONTINUOUS
 10
195.0
 20
133.5
 11
195.0
 21
-133.5
  0
LINE
  8
型材断面
  6
CONTINUOUS
 10
195.0
 20
-133.5
 11
-185.0
 21
-133.5
  0
LINE
  8
型材断面
  6
CONTINUOUS
 10
-185.0
 20
-133.5
 11
-185.0
 21
133.5
  0
LINE
  8
型材断面
  6
CONTINUOUS
 10
195.0
 20
133.5
 11
-185.0
 21
133.5
  0
LINE
  8
型材断面
  6
CONTINUOUS
 10
145.0
 20
-133.5
 11
145.0
 21
-118.5
  0
LINE
  8
型材断面
  6
CONTINUOUS
 10
195.0
 20
-118.5
 11
145.0
 21
-118.5
  0
ENDBLK
  0
BLOCK
  2
*DIM_0002
 70
    65
 10
0.0
 20
0.0
  0
LINE
  8
寸法
  6
BYBLOCK
 62
     0
 10
-4.287135
 20
-64.87628
 11
20.682515
 21
-64.87628
  0
LINE
  8
寸法
  6
BYBLOCK
 62
     0
 10
20.682515
 20
-70.209613
 11
20.682515
 21
-64.87628
  0
POINT
  8
寸法
 62
     0
 10
20.682515
 20
-70.209613
  0
POINT
  8
寸法
 62
     0
 10
20.682515
 20
-64.87628
  0
TEXT
  7
TextStyle03
  8
寸法
  6
CONTINUOUS
 62
     0
 10
20.3
 20
-69.9875
  1
160
 40
3.0
 50
90.0
 72
     5
 11
20.3
 21
-65.1125
  0
ENDBLK
  0
BLOCK
  2
*DIM_0003
 70
    65
 10
0.0
 20
0.0
  0
LINE
  8
寸法
  6
BYBLOCK
 62
     0
 10
4.712865
 20
-13.121378
 11
-78.620467
 21
-13.121378
  0
POINT
  8
寸法
 62
     0
 10
4.712865
 20
-13.121378
  0
POINT
  8
寸法
 62
     0
 10
-78.620467
 20
-13.121378
  0
TEXT
  7
TextStyle03
  8
寸法
  6
CONTINUOUS
 62
     0
 10
-48.69375
 20
-12.75
  1
呼称寸法　2500
 40
3.0
 72
     5
 11
-25.25625
 21
-12.75
  0
ENDBLK
  0
BLOCK
  2
*DIM_0004
 70
    65
 10
0.0
 20
0.0
  0
LINE
  8
寸法
  6
BYBLOCK
 62
     0
 10
-61.9538
 20
19.183902
 11
-61.9538
 21
14.01842
  0
LINE
  8
寸法
  6
BYBLOCK
 62
     0
 10
-11.953805
 20
19.183902
 11
-11.953805
 21
14.01842
  0
LINE
  8
寸法
  6
BYBLOCK
 62
     0
 10
-61.9538
 20
14.01842
 11
-11.953805
 21
14.01842
  0
POINT
  8
寸法
 62
     0
 10
-61.9538
 20
14.01842
  0
POINT
  8
寸法
 62
     0
 10
-11.953805
 20
14.01842
  0
TEXT
  7
TextStyle03
  8
寸法
  6
CONTINUOUS
 62
     0
 10
-40.23125
 20
14.375
  1
1500
 40
3.0
 72
     5
 11
-33.66875
 21
14.375
  0
ENDBLK
  0
BLOCK
  2
*DIM_0005
 70
    65
 10
0.0
 20
0.0
  0
LINE
  8
寸法
  6
BYBLOCK
 62
     0
 10
7.379532
 20
-70.209613
 11
20.682515
 21
-70.209613
  0
LINE
  8
寸法
  6
BYBLOCK
 62
     0
 10
8.319678
 20
-72.292897
 11
20.682515
 21
-72.292897
  0
LINE
  8
寸法
  6
BYBLOCK
 62
     0
 10
20.682515
 20
-70.209613
 11
20.682515
 21
-72.292897
  0
POINT
  8
寸法
 62
     0
 10
20.682515
 20
-70.209613
  0
POINT
  8
寸法
 62
     0
 10
20.682515
 20
-72.292897
  0
TEXT
  7
TextStyle03
  8
寸法
  6
CONTINUOUS
 62
     0
 10
20.3
 20
-81.30625
  1
62.5
 40
3.0
 50
90.0
 72
     5
 11
20.3
 21
-74.74375
  0
ENDBLK
  0
BLOCK
  2
*DIM_0006
 70
    65
 10
0.0
 20
0.0
  0
LINE
  8
寸法
  6
BYBLOCK
 62
     0
 10
7.319678
 20
-70.792897
 11
7.319678
 21
-13.121378
  0
LINE
  8
寸法
  6
BYBLOCK
 62
     0
 10
4.712865
 20
-13.121378
 11
7.319678
 21
-13.121378
  0
POINT
  8
寸法
 62
     0
 10
4.712865
 20
-13.121378
  0
POINT
  8
寸法
 62
     0
 10
7.319678
 20
-13.121378
  0
TEXT
  7
TextStyle03
  8
寸法
  6
CONTINUOUS
 62
     0
 10
9.46875
 20
-12.75
  1
78.2
 40
3.0
 72
     5
 11
16.03125
 21
-12.75
  0
ENDBLK
  0
BLOCK
  2
*DIM_0007
 70
    65
 10
0.0
 20
0.0
  0
LINE
  8
寸法
  6
BYBLOCK
 62
     0
 10
-81.227283
 20
-70.792897
 11
-81.227283
 21
-13.121378
  0
LINE
  8
寸法
  6
BYBLOCK
 62
     0
 10
-78.620467
 20
-13.121378
 11
-81.227283
 21
-13.121378
  0
POINT
  8
寸法
 62
     0
 10
-78.620467
 20
-13.121378
  0
POINT
  8
寸法
 62
     0
 10
-81.227283
 20
-13.121378
  0
TEXT
  7
TextStyle03
  8
寸法
  6
CONTINUOUS
 62
     0
 10
-89.95625
 20
-12.75
  1
78.2
 40
3.0
 72
     5
 11
-83.39375
 21
-12.75
  0
ENDBLK
  0
BLOCK
  2
*DIM_0008
 70
    65
 10
0.0
 20
0.0
  0
LINE
  8
寸法
  6
BYBLOCK
 62
     0
 10
38.732515
 20
22.814033
 11
38.732515
 21
42.814033
  0
POINT
  8
寸法
 62
     0
 10
38.732515
 20
22.814033
  0
POINT
  8
寸法
 62
     0
 10
38.732515
 20
42.814033
  0
TEXT
  7
TextStyle03
  8
寸法
  6
CONTINUOUS
 62
     0
 10
38.35
 20
21.925
  1
呼称寸法　600
 40
3.0
 50
90.0
 72
     5
 11
38.35
 21
43.675
  0
ENDBLK
  0
BLOCK
  2
*DIM_0009
 70
    65
 10
0.0
 20
0.0
  0
LINE
  8
寸法
  6
BYBLOCK
 62
     0
 10
88.912797
 20
33.814033
 11
88.912797
 21
60.666798
  0
LINE
  8
寸法
  6
BYBLOCK
 62
     0
 10
94.24613
 20
60.666798
 11
88.912797
 21
60.666798
  0
POINT
  8
寸法
 62
     0
 10
94.24613
 20
60.666798
  0
POINT
  8
寸法
 62
     0
 10
88.912797
 20
60.666798
  0
TEXT
  7
TextStyle03
  8
寸法
  6
CONTINUOUS
 62
     0
 10
89.1375
 20
61.025
  1
160
 40
3.0
 72
     5
 11
94.0125
 21
61.025
  0
ENDBLK
  0
BLOCK
  2
*DIM_0010
 70
    65
 10
0.0
 20
0.0
  0
LINE
  8
寸法
  6
BYBLOCK
 62
     0
 10
94.24613
 20
45.4807
 11
94.24613
 21
60.666798
  0
LINE
  8
寸法
  6
BYBLOCK
 62
     0
 10
96.329415
 20
46.420845
 11
96.329415
 21
60.666798
  0
LINE
  8
寸法
  6
BYBLOCK
 62
     0
 10
94.24613
 20
60.666798
 11
96.329415
 21
60.666798
  0
POINT
  8
寸法
 62
     0
 10
94.24613
 20
60.666798
  0
POINT
  8
寸法
 62
     0
 10
96.329415
 20
60.666798
  0
TEXT
  7
TextStyle03
  8
寸法
  6
CONTINUOUS
 62
     0
 10
98.74375
 20
61.025
  1
62.5
 40
3.0
 72
     5
 11
105.30625
 21
61.025
  0
ENDBLK
  0
BLOCK
  2
*DIM_0011
 70
    65
 10
0.0
 20
0.0
  0
LINE
  8
寸法
  6
BYBLOCK
 62
     0
 10
94.829415
 20
45.420845
 11
38.732515
 21
45.420845
  0
LINE
  8
寸法
  6
BYBLOCK
 62
     0
 10
38.732515
 20
42.814033
 11
38.732515
 21
45.420845
  0
POINT
  8
寸法
 62
     0
 10
38.732515
 20
42.814033
  0
POINT
  8
寸法
 62
     0
 10
38.732515
 20
45.420845
  0
TEXT
  7
TextStyle03
  8
寸法
  6
CONTINUOUS
 62
     0
 10
38.35
 20
47.56875
  1
78.2
 40
3.0
 50
90.0
 72
     5
 11
38.35
 21
54.13125
  0
ENDBLK
  0
BLOCK
  2
*DIM_0012
 70
    65
 10
0.0
 20
0.0
  0
LINE
  8
寸法
  6
BYBLOCK
 62
     0
 10
94.829415
 20
20.20722
 11
38.732515
 21
20.20722
  0
LINE
  8
寸法
  6
BYBLOCK
 62
     0
 10
38.732515
 20
22.814033
 11
38.732515
 21
20.20722
  0
POINT
  8
寸法
 62
     0
 10
38.732515
 20
22.814033
  0
POINT
  8
寸法
 62
     0
 10
38.732515
 20
20.20722
  0
TEXT
  7
TextStyle03
  8
寸法
  6
CONTINUOUS
 62
     0
 10
38.35
 20
11.46875
  1
78.2
 40
3.0
 50
90.0
 72
     5
 11
38.35
 21
18.03125
  0
ENDBLK
  0
BLOCK
  2
*DIM_0013
 70
    65
 10
0.0
 20
0.0
  0
LINE
  8
寸法
  6
BYBLOCK
 62
     0
 10
7.379532
 20
-70.209613
 11
20.682515
 21
-70.209613
  0
LINE
  8
寸法
  6
BYBLOCK
 62
     0
 10
8.319678
 20
-72.292897
 11
20.682515
 21
-72.292897
  0
LINE
  8
寸法
  6
BYBLOCK
 62
     0
 10
20.682515
 20
-70.209613
 11
20.682515
 21
-72.292897
  0
POINT
  8
寸法
 62
     0
 10
20.682515
 20
-70.209613
  0
POINT
  8
寸法
 62
     0
 10
20.682515
 20
-72.292897
  0
TEXT
  7
TextStyle03
  8
寸法
  6
CONTINUOUS
 62
     0
 10
20.3
 20
-81.30625
  1
62.5
 40
3.0
 50
90.0
 72
     5
 11
20.3
 21
-74.74375
  0
ENDBLK
  0
BLOCK
  2
*DIM_0014
 70
    65
 10
0.0
 20
0.0
  0
LINE
  8
寸法
  6
BYBLOCK
 62
     0
 10
7.319678
 20
-70.792897
 11
7.319678
 21
-13.121378
  0
LINE
  8
寸法
  6
BYBLOCK
 62
     0
 10
4.712865
 20
-13.121378
 11
7.319678
 21
-13.121378
  0
POINT
  8
寸法
 62
     0
 10
4.712865
 20
-13.121378
  0
POINT
  8
寸法
 62
     0
 10
7.319678
 20
-13.121378
  0
TEXT
  7
TextStyle03
  8
寸法
  6
CONTINUOUS
 62
     0
 10
9.46875
 20
-12.75
  1
78.2
 40
3.0
 72
     5
 11
16.03125
 21
-12.75
  0
ENDBLK
  0
BLOCK
  2
*GRP_0015
 70
    65
 10
0.0
 20
0.0
  0
LINE
  8
別途部材
  6
CONTINUOUS
 62
    96
 10
-80.287135
 20
-70.209613
 11
-80.687135
 21
-71.209613
  0
ARC
  8
別途部材
  6
CONTINUOUS
 10
-68.62047
 20
-76.917948
 40
12.041668
 50
90.0
 51
146.144967
  0
LINE
  8
別途部材
  6
CONTINUOUS
 10
-80.687135
 20
-71.209613
 11
-36.9538
 21
-71.209613
  0
LINE
  8
別途部材
  6
CONTINUOUS
 62
    96
 10
-80.287135
 20
-70.209613
 11
-36.9538
 21
-70.209613
  0
LINE
  8
別途部材
  6
CONTINUOUS
 10
-37.4538
 20
-63.87628
 11
-38.4538
 21
-64.87628
  0
LINE
  8
別途部材
  6
CONTINUOUS
 10
-39.4538
 20
-64.87628
 11
-40.4538
 21
-63.87628
  0
LINE
  8
別途部材
  6
CONTINUOUS
 10
-41.4538
 20
-63.87628
 11
-42.4538
 21
-64.87628
  0
LINE
  8
別途部材
  6
CONTINUOUS
 10
-40.4538
 20
-63.87628
 11
-41.4538
 21
-63.87628
  0
LINE
  8
別途部材
  6
CONTINUOUS
 10
-37.4538
 20
-63.87628
 11
-36.9538
 21
-63.87628
  0
LINE
  8
別途部材
  6
CONTINUOUS
 10
-43.4538
 20
-64.87628
 11
-44.4538
 21
-63.87628
  0
LINE
  8
別途部材
  6
CONTINUOUS
 10
-45.4538
 20
-63.87628
 11
-46.4538
 21
-64.87628
  0
LINE
  8
別途部材
  6
CONTINUOUS
 10
-44.4538
 20
-63.87628
 11
-45.4538
 21
-63.87628
  0
LINE
  8
別途部材
  6
CONTINUOUS
 10
-47.4538
 20
-64.87628
 11
-48.4538
 21
-63.87628
  0
LINE
  8
別途部材
  6
CONTINUOUS
 10
-49.4538
 20
-63.87628
 11
-50.4538
 21
-64.87628
  0
LINE
  8
別途部材
  6
CONTINUOUS
 10
-48.4538
 20
-63.87628
 11
-49.4538
 21
-63.87628
  0
LINE
  8
別途部材
  6
CONTINUOUS
 10
-51.4538
 20
-64.87628
 11
-52.4538
 21
-63.87628
  0
LINE
  8
別途部材
  6
CONTINUOUS
 10
-53.4538
 20
-63.87628
 11
-54.4538
 21
-64.87628
  0
LINE
  8
別途部材
  6
CONTINUOUS
 10
-52.4538
 20
-63.87628
 11
-53.4538
 21
-63.87628
  0
LINE
  8
別途部材
  6
CONTINUOUS
 10
-55.4538
 20
-64.87628
 11
-56.4538
 21
-63.87628
  0
LINE
  8
別途部材
  6
CONTINUOUS
 10
-57.4538
 20
-63.87628
 11
-58.4538
 21
-64.87628
  0
LINE
  8
別途部材
  6
CONTINUOUS
 10
-56.4538
 20
-63.87628
 11
-57.4538
 21
-63.87628
  0
LINE
  8
別途部材
  6
CONTINUOUS
 10
-59.4538
 20
-64.87628
 11
-60.4538
 21
-63.87628
  0
LINE
  8
別途部材
  6
CONTINUOUS
 10
-61.4538
 20
-63.87628
 11
-62.4538
 21
-64.87628
  0
LINE
  8
別途部材
  6
CONTINUOUS
 10
-60.4538
 20
-63.87628
 11
-61.4538
 21
-63.87628
  0
LINE
  8
別途部材
  6
CONTINUOUS
 10
-63.4538
 20
-64.87628
 11
-64.4538
 21
-63.87628
  0
LINE
  8
別途部材
  6
CONTINUOUS
 10
-65.4538
 20
-63.87628
 11
-66.4538
 21
-64.87628
  0
LINE
  8
別途部材
  6
CONTINUOUS
 10
-64.4538
 20
-63.87628
 11
-65.4538
 21
-63.87628
  0
LINE
  8
別途部材
  6
CONTINUOUS
 10
-62.4538
 20
-64.87628
 11
-63.4538
 21
-64.87628
  0
LINE
  8
別途部材
  6
CONTINUOUS
 10
-58.4538
 20
-64.87628
 11
-59.4538
 21
-64.87628
  0
LINE
  8
別途部材
  6
CONTINUOUS
 10
-54.4538
 20
-64.87628
 11
-55.4538
 21
-64.87628
  0
LINE
  8
別途部材
  6
CONTINUOUS
 10
-50.4538
 20
-64.87628
 11
-51.4538
 21
-64.87628
  0
LINE
  8
別途部材
  6
CONTINUOUS
 10
-46.4538
 20
-64.87628
 11
-47.4538
 21
-64.87628
  0
LINE
  8
別途部材
  6
CONTINUOUS
 10
-42.4538
 20
-64.87628
 11
-43.4538
 21
-64.87628
  0
LINE
  8
別途部材
  6
CONTINUOUS
 10
-39.4538
 20
-64.87628
 11
-38.4538
 21
-64.87628
  0
LINE
  8
別途部材
  6
CONTINUOUS
 10
-65.4538
 20
-63.87628
 11
-65.4538
 21
-70.209613
  0
LINE
  8
別途部材
  6
CONTINUOUS
 10
-66.4538
 20
-64.87628
 11
-66.4538
 21
-70.209613
  0
LINE
  8
別途部材
  6
CONTINUOUS
 10
-63.4538
 20
-64.87628
 11
-63.4538
 21
-70.209613
  0
LINE
  8
別途部材
  6
CONTINUOUS
 10
-64.4538
 20
-63.87628
 11
-64.4538
 21
-70.209613
  0
LINE
  8
別途部材
  6
CONTINUOUS
 10
-62.4538
 20
-64.87628
 11
-62.4538
 21
-70.209613
  0
LINE
  8
別途部材
  6
CONTINUOUS
 10
-61.4538
 20
-63.87628
 11
-61.4538
 21
-70.209613
  0
LINE
  8
別途部材
  6
CONTINUOUS
 10
-57.4538
 20
-63.87628
 11
-57.4538
 21
-70.209613
  0
LINE
  8
別途部材
  6
CONTINUOUS
 10
-56.4538
 20
-63.87628
 11
-56.4538
 21
-70.209613
  0
LINE
  8
別途部材
  6
CONTINUOUS
 10
-58.4538
 20
-64.87628
 11
-58.4538
 21
-70.209613
  0
LINE
  8
別途部材
  6
CONTINUOUS
 10
-59.4538
 20
-64.87628
 11
-59.4538
 21
-70.209613
  0
LINE
  8
別途部材
  6
CONTINUOUS
 10
-60.4538
 20
-63.87628
 11
-60.4538
 21
-70.209613
  0
LINE
  8
別途部材
  6
CONTINUOUS
 10
-55.4538
 20
-64.87628
 11
-55.4538
 21
-70.209613
  0
LINE
  8
別途部材
  6
CONTINUOUS
 10
-53.4538
 20
-63.87628
 11
-53.4538
 21
-70.209613
  0
LINE
  8
別途部材
  6
CONTINUOUS
 10
-52.4538
 20
-63.87628
 11
-52.4538
 21
-70.209613
  0
LINE
  8
別途部材
  6
CONTINUOUS
 10
-51.4538
 20
-64.87628
 11
-51.4538
 21
-70.209613
  0
LINE
  8
別途部材
  6
CONTINUOUS
 10
-50.4538
 20
-64.87628
 11
-50.4538
 21
-70.209613
  0
LINE
  8
別途部材
  6
CONTINUOUS
 10
-49.4538
 20
-63.87628
 11
-49.4538
 21
-70.209613
  0
LINE
  8
別途部材
  6
CONTINUOUS
 10
-54.4538
 20
-64.87628
 11
-54.4538
 21
-70.209613
  0
LINE
  8
別途部材
  6
CONTINUOUS
 10
-48.4538
 20
-63.87628
 11
-48.4538
 21
-70.209613
  0
LINE
  8
別途部材
  6
CONTINUOUS
 10
-47.4538
 20
-64.87628
 11
-47.4538
 21
-70.209613
  0
LINE
  8
別途部材
  6
CONTINUOUS
 10
-46.4538
 20
-64.87628
 11
-46.4538
 21
-70.209613
  0
LINE
  8
別途部材
  6
CONTINUOUS
 10
-44.4538
 20
-63.87628
 11
-44.4538
 21
-70.209613
  0
LINE
  8
別途部材
  6
CONTINUOUS
 10
-42.4538
 20
-64.87628
 11
-42.4538
 21
-70.209613
  0
LINE
  8
別途部材
  6
CONTINUOUS
 10
-41.4538
 20
-63.87628
 11
-41.4538
 21
-70.209613
  0
LINE
  8
別途部材
  6
CONTINUOUS
 10
-39.4538
 20
-64.87628
 11
-39.4538
 21
-70.209613
  0
LINE
  8
別途部材
  6
CONTINUOUS
 10
-38.4538
 20
-64.87628
 11
-38.4538
 21
-70.209613
  0
LINE
  8
別途部材
  6
CONTINUOUS
 10
-37.4538
 20
-63.87628
 11
-37.4538
 21
-70.209613
  0
LINE
  8
別途部材
  6
CONTINUOUS
 10
-40.4538
 20
-63.87628
 11
-40.4538
 21
-70.209613
  0
LINE
  8
別途部材
  6
CONTINUOUS
 10
-43.4538
 20
-64.87628
 11
-43.4538
 21
-70.209613
  0
LINE
  8
別途部材
  6
CONTINUOUS
 10
-45.4538
 20
-63.87628
 11
-45.4538
 21
-70.209613
  0
LINE
  8
別途部材
  6
CONTINUOUS
 10
-66.4538
 20
-64.87628
 11
-68.620467
 21
-64.87628
  0
LINE
  8
別途部材
  6
CONTINUOUS
 62
    96
 10
6.379532
 20
-70.209613
 11
6.779532
 21
-71.209613
  0
ARC
  8
別途部材
  6
CONTINUOUS
 10
-5.287131
 20
-76.917948
 40
12.041668
 50
33.855033
 51
90.0
  0
LINE
  8
別途部材
  6
CONTINUOUS
 10
6.779532
 20
-71.209613
 11
-36.9538
 21
-71.209613
  0
LINE
  8
別途部材
  6
CONTINUOUS
 62
    96
 10
6.379532
 20
-70.209613
 11
-36.9538
 21
-70.209613
  0
LINE
  8
別途部材
  6
CONTINUOUS
 10
-36.4538
 20
-63.87628
 11
-35.4538
 21
-64.87628
  0
LINE
  8
別途部材
  6
CONTINUOUS
 10
-34.4538
 20
-64.87628
 11
-33.4538
 21
-63.87628
  0
LINE
  8
別途部材
  6
CONTINUOUS
 10
-32.4538
 20
-63.87628
 11
-31.4538
 21
-64.87628
  0
LINE
  8
別途部材
  6
CONTINUOUS
 10
-33.4538
 20
-63.87628
 11
-32.4538
 21
-63.87628
  0
LINE
  8
別途部材
  6
CONTINUOUS
 10
-36.4538
 20
-63.87628
 11
-36.9538
 21
-63.87628
  0
LINE
  8
別途部材
  6
CONTINUOUS
 10
-30.4538
 20
-64.87628
 11
-29.4538
 21
-63.87628
  0
LINE
  8
別途部材
  6
CONTINUOUS
 10
-28.4538
 20
-63.87628
 11
-27.4538
 21
-64.87628
  0
LINE
  8
別途部材
  6
CONTINUOUS
 10
-29.4538
 20
-63.87628
 11
-28.4538
 21
-63.87628
  0
LINE
  8
別途部材
  6
CONTINUOUS
 10
-26.4538
 20
-64.87628
 11
-25.4538
 21
-63.87628
  0
LINE
  8
別途部材
  6
CONTINUOUS
 10
-24.4538
 20
-63.87628
 11
-23.4538
 21
-64.87628
  0
LINE
  8
別途部材
  6
CONTINUOUS
 10
-25.4538
 20
-63.87628
 11
-24.4538
 21
-63.87628
  0
LINE
  8
別途部材
  6
CONTINUOUS
 10
-22.4538
 20
-64.87628
 11
-21.4538
 21
-63.87628
  0
LINE
  8
別途部材
  6
CONTINUOUS
 10
-20.4538
 20
-63.87628
 11
-19.4538
 21
-64.87628
  0
LINE
  8
別途部材
  6
CONTINUOUS
 10
-21.4538
 20
-63.87628
 11
-20.4538
 21
-63.87628
  0
LINE
  8
別途部材
  6
CONTINUOUS
 10
-18.4538
 20
-64.87628
 11
-17.4538
 21
-63.87628
  0
LINE
  8
別途部材
  6
CONTINUOUS
 10
-16.4538
 20
-63.87628
 11
-15.4538
 21
-64.87628
  0
LINE
  8
別途部材
  6
CONTINUOUS
 10
-17.4538
 20
-63.87628
 11
-16.4538
 21
-63.87628
  0
LINE
  8
別途部材
  6
CONTINUOUS
 10
-14.4538
 20
-64.87628
 11
-13.4538
 21
-63.87628
  0
LINE
  8
別途部材
  6
CONTINUOUS
 10
-12.4538
 20
-63.87628
 11
-11.4538
 21
-64.87628
  0
LINE
  8
別途部材
  6
CONTINUOUS
 10
-13.4538
 20
-63.87628
 11
-12.4538
 21
-63.87628
  0
LINE
  8
別途部材
  6
CONTINUOUS
 10
-10.4538
 20
-64.87628
 11
-9.4538
 21
-63.87628
  0
LINE
  8
別途部材
  6
CONTINUOUS
 10
-8.4538
 20
-63.87628
 11
-7.4538
 21
-64.87628
  0
LINE
  8
別途部材
  6
CONTINUOUS
 10
-9.4538
 20
-63.87628
 11
-8.4538
 21
-63.87628
  0
LINE
  8
別途部材
  6
CONTINUOUS
 10
-11.4538
 20
-64.87628
 11
-10.4538
 21
-64.87628
  0
LINE
  8
別途部材
  6
CONTINUOUS
 10
-15.4538
 20
-64.87628
 11
-14.4538
 21
-64.87628
  0
LINE
  8
別途部材
  6
CONTINUOUS
 10
-19.4538
 20
-64.87628
 11
-18.4538
 21
-64.87628
  0
LINE
  8
別途部材
  6
CONTINUOUS
 10
-23.4538
 20
-64.87628
 11
-22.4538
 21
-64.87628
  0
LINE
  8
別途部材
  6
CONTINUOUS
 10
-27.4538
 20
-64.87628
 11
-26.4538
 21
-64.87628
  0
LINE
  8
別途部材
  6
CONTINUOUS
 10
-31.4538
 20
-64.87628
 11
-30.4538
 21
-64.87628
  0
LINE
  8
別途部材
  6
CONTINUOUS
 10
-34.4538
 20
-64.87628
 11
-35.4538
 21
-64.87628
  0
LINE
  8
別途部材
  6
CONTINUOUS
 10
-8.4538
 20
-63.87628
 11
-8.4538
 21
-70.209613
  0
LINE
  8
別途部材
  6
CONTINUOUS
 10
-7.4538
 20
-64.87628
 11
-7.4538
 21
-70.209613
  0
LINE
  8
別途部材
  6
CONTINUOUS
 10
-10.4538
 20
-64.87628
 11
-10.4538
 21
-70.209613
  0
LINE
  8
別途部材
  6
CONTINUOUS
 10
-9.4538
 20
-63.87628
 11
-9.4538
 21
-70.209613
  0
LINE
  8
別途部材
  6
CONTINUOUS
 10
-11.4538
 20
-64.87628
 11
-11.4538
 21
-70.209613
  0
LINE
  8
別途部材
  6
CONTINUOUS
 10
-12.4538
 20
-63.87628
 11
-12.4538
 21
-70.209613
  0
LINE
  8
別途部材
  6
CONTINUOUS
 10
-16.4538
 20
-63.87628
 11
-16.4538
 21
-70.209613
  0
LINE
  8
別途部材
  6
CONTINUOUS
 10
-17.4538
 20
-63.87628
 11
-17.4538
 21
-70.209613
  0
LINE
  8
別途部材
  6
CONTINUOUS
 10
-15.4538
 20
-64.87628
 11
-15.4538
 21
-70.209613
  0
LINE
  8
別途部材
  6
CONTINUOUS
 10
-14.4538
 20
-64.87628
 11
-14.4538
 21
-70.209613
  0
LINE
  8
別途部材
  6
CONTINUOUS
 10
-13.4538
 20
-63.87628
 11
-13.4538
 21
-70.209613
  0
LINE
  8
別途部材
  6
CONTINUOUS
 10
-18.4538
 20
-64.87628
 11
-18.4538
 21
-70.209613
  0
LINE
  8
別途部材
  6
CONTINUOUS
 10
-20.4538
 20
-63.87628
 11
-20.4538
 21
-70.209613
  0
LINE
  8
別途部材
  6
CONTINUOUS
 10
-21.4538
 20
-63.87628
 11
-21.4538
 21
-70.209613
  0
LINE
  8
別途部材
  6
CONTINUOUS
 10
-22.4538
 20
-64.87628
 11
-22.4538
 21
-70.209613
  0
LINE
  8
別途部材
  6
CONTINUOUS
 10
-23.4538
 20
-64.87628
 11
-23.4538
 21
-70.209613
  0
LINE
  8
別途部材
  6
CONTINUOUS
 10
-24.4538
 20
-63.87628
 11
-24.4538
 21
-70.209613
  0
LINE
  8
別途部材
  6
CONTINUOUS
 10
-19.4538
 20
-64.87628
 11
-19.4538
 21
-70.209613
  0
LINE
  8
別途部材
  6
CONTINUOUS
 10
-25.4538
 20
-63.87628
 11
-25.4538
 21
-70.209613
  0
LINE
  8
別途部材
  6
CONTINUOUS
 10
-26.4538
 20
-64.87628
 11
-26.4538
 21
-70.209613
  0
LINE
  8
別途部材
  6
CONTINUOUS
 10
-27.4538
 20
-64.87628
 11
-27.4538
 21
-70.209613
  0
LINE
  8
別途部材
  6
CONTINUOUS
 10
-29.4538
 20
-63.87628
 11
-29.4538
 21
-70.209613
  0
LINE
  8
別途部材
  6
CONTINUOUS
 10
-31.4538
 20
-64.87628
 11
-31.4538
 21
-70.209613
  0
LINE
  8
別途部材
  6
CONTINUOUS
 10
-32.4538
 20
-63.87628
 11
-32.4538
 21
-70.209613
  0
LINE
  8
別途部材
  6
CONTINUOUS
 10
-34.4538
 20
-64.87628
 11
-34.4538
 21
-70.209613
  0
LINE
  8
別途部材
  6
CONTINUOUS
 10
-35.4538
 20
-64.87628
 11
-35.4538
 21
-70.209613
  0
LINE
  8
別途部材
  6
CONTINUOUS
 10
-36.4538
 20
-63.87628
 11
-36.4538
 21
-70.209613
  0
LINE
  8
別途部材
  6
CONTINUOUS
 10
-33.4538
 20
-63.87628
 11
-33.4538
 21
-70.209613
  0
LINE
  8
別途部材
  6
CONTINUOUS
 10
-30.4538
 20
-64.87628
 11
-30.4538
 21
-70.209613
  0
LINE
  8
別途部材
  6
CONTINUOUS
 10
-28.4538
 20
-63.87628
 11
-28.4538
 21
-70.209613
  0
LINE
  8
別途部材
  6
CONTINUOUS
 10
-7.4538
 20
-64.87628
 11
-5.287135
 21
-64.87628
  0
ENDBLK
  0
BLOCK
  2
*DIM_0016
 70
    65
 10
0.0
 20
0.0
  0
LINE
  8
寸法
  6
BYBLOCK
 62
     0
 10
145.328765
 20
-87.823622
 11
155.941423
 21
-87.823622
  0
LINE
  8
寸法
  6
BYBLOCK
 62
     0
 10
145.328765
 20
-68.49029
 11
155.941423
 21
-68.49029
  0
LINE
  8
寸法
  6
BYBLOCK
 62
     0
 10
155.941423
 20
-87.823622
 11
155.941423
 21
-68.49029
  0
POINT
  8
寸法
 62
     0
 10
155.941423
 20
-87.823622
  0
POINT
  8
寸法
 62
     0
 10
155.941423
 20
-68.49029
  0
TEXT
  7
TextStyle03
  8
寸法
  6
CONTINUOUS
 62
     0
 10
155.55
 20
-80.6125
  1
580
 40
3.0
 50
90.0
 72
     5
 11
155.55
 21
-75.7375
  0
ENDBLK
  0
BLOCK
  2
*DIM_0017
 70
    65
 10
0.0
 20
0.0
  0
LINE
  8
寸法
  6
BYBLOCK
 62
     0
 10
-81.620467
 20
39.4807
 11
-94.913305
 21
39.4807
  0
LINE
  8
寸法
  6
BYBLOCK
 62
     0
 10
-81.620467
 20
26.147365
 11
-94.913305
 21
26.147365
  0
LINE
  8
寸法
  6
BYBLOCK
 62
     0
 10
-94.913305
 20
39.4807
 11
-94.913305
 21
26.147365
  0
POINT
  8
寸法
 62
     0
 10
-94.913305
 20
39.4807
  0
POINT
  8
寸法
 62
     0
 10
-94.913305
 20
26.147365
  0
TEXT
  7
TextStyle03
  8
寸法
  6
CONTINUOUS
 62
     0
 10
-95.35
 20
30.3625
  1
400
 40
3.0
 50
90.0
 72
     5
 11
-95.35
 21
35.2375
  0
ENDBLK
  0
BLOCK
  2
*DIM_0018
 70
    65
 10
0.0
 20
0.0
  0
LINE
  8
寸法
  6
BYBLOCK
 62
     0
 10
-71.953802
 20
45.814033
 11
-71.953802
 21
75.561652
  0
LINE
  8
寸法
  6
BYBLOCK
 62
     0
 10
-48.62047
 20
45.814033
 11
-48.62047
 21
75.561652
  0
LINE
  8
寸法
  6
BYBLOCK
 62
     0
 10
-71.953802
 20
75.561652
 11
-48.62047
 21
75.561652
  0
POINT
  8
寸法
 62
     0
 10
-71.953802
 20
75.561652
  0
POINT
  8
寸法
 62
     0
 10
-48.62047
 20
75.561652
  0
TEXT
  7
TextStyle03
  8
寸法
  6
CONTINUOUS
 62
     0
 10
-62.7375
 20
75.925
  1
700
 40
3.0
 72
     5
 11
-57.8625
 21
75.925
  0
ENDBLK
  0
BLOCK
  2
*DIM_0019
 70
    65
 10
0.0
 20
0.0
  0
LINE
  8
寸法
  6
BYBLOCK
 62
     0
 10
-25.287135
 20
45.814033
 11
-25.287135
 21
75.561652
  0
LINE
  8
寸法
  6
BYBLOCK
 62
     0
 10
-48.62047
 20
75.561652
 11
-25.287135
 21
75.561652
  0
POINT
  8
寸法
 62
     0
 10
-25.287135
 20
75.561652
  0
TEXT
  7
TextStyle03
  8
寸法
  6
CONTINUOUS
 62
     0
 10
-39.4125
 20
75.925
  1
700
 40
3.0
 72
     5
 11
-34.5375
 21
75.925
  0
ENDBLK
  0
BLOCK
  2
*DIM_0020
 70
    65
 10
0.0
 20
0.0
  0
LINE
  8
寸法
  6
BYBLOCK
 62
     0
 10
-1.953802
 20
45.814033
 11
-1.953802
 21
75.561652
  0
LINE
  8
寸法
  6
BYBLOCK
 62
     0
 10
-25.287135
 20
75.561652
 11
-1.953802
 21
75.561652
  0
POINT
  8
寸法
 62
     0
 10
-1.953802
 20
75.561652
  0
TEXT
  7
TextStyle03
  8
寸法
  6
CONTINUOUS
 62
     0
 10
-16.0625
 20
75.925
  1
700
 40
3.0
 72
     5
 11
-11.1875
 21
75.925
  0
ENDBLK
  0
BLOCK
  2
*DIM_0021
 70
    65
 10
0.0
 20
0.0
  0
LINE
  8
寸法
  6
CONTINUOUS
 10
101.878765
 20
-67.077438
 11
101.878765
 21
-54.165195
  0
LINE
  8
寸法
  6
CONTINUOUS
 10
142.662097
 20
-67.077438
 11
142.662097
 21
-54.165195
  0
LINE
  8
寸法
  6
CONTINUOUS
 10
101.878765
 20
-54.165195
 11
142.662097
 21
-54.165195
  0
POINT
  8
寸法
 10
101.878765
 20
-54.165195
  0
POINT
  8
寸法
 10
142.662097
 20
-54.165195
  0
TEXT
  7
TextStyle03
  8
寸法
  6
CONTINUOUS
 10
117.28125
 20
-53.8
  1
1223.5
 40
3.0
 72
     5
 11
127.21875
 21
-53.8
  0
ENDBLK
  0
BLOCK
  2
*GRP_0022
 70
    65
 10
0.0
 20
0.0
  0
LINE
  8
ボルト／ビス
  6
CONTINUOUS
 10
-79.287137
 20
-70.209613
 11
-79.287137
 21
-69.742947
  0
LINE
  8
ボルト／ビス
  6
CONTINUOUS
 10
-79.653805
 20
-70.209613
 11
-79.653805
 21
-70.142947
  0
LINE
  8
ボルト／ビス
  6
CONTINUOUS
 10
-79.653805
 20
-70.142947
 11
-78.920472
 21
-70.142947
  0
LINE
  8
ボルト／ビス
  6
CONTINUOUS
 10
-78.920472
 20
-70.142947
 11
-78.920472
 21
-70.209613
  0
LINE
  8
ボルト／ビス
  6
CONTINUOUS
 10
-79.653805
 20
-70.209613
 11
-78.920472
 21
-70.209613
  0
LINE
  8
ボルト／ビス
  6
CONTINUOUS
 10
-79.587137
 20
-70.109612
 11
-79.587137
 21
-70.142947
  0
LINE
  8
ボルト／ビス
  6
CONTINUOUS
 10
-79.587137
 20
-70.109612
 11
-78.987137
 21
-70.109612
  0
LINE
  8
ボルト／ビス
  6
CONTINUOUS
 10
-78.987137
 20
-70.109612
 11
-78.987137
 21
-70.142947
  0
LINE
  8
ボルト／ビス
  6
CONTINUOUS
 62
    64
 10
-79.447512
 20
-69.909613
 11
-79.479587
 21
-69.921288
  0
ARC
  8
ボルト／ビス
  6
CONTINUOUS
 62
    64
 10
-79.431475
 20
-70.014592
 40
0.104978
 50
62.721967
 51
90.0
  0
ARC
  8
ボルト／ビス
  6
CONTINUOUS
 62
    64
 10
-79.287137
 20
-70.312016
 40
0.402402
 50
76.165002
 51
103.834985
  0
LINE
  8
ボルト／ビス
  6
CONTINUOUS
 62
    64
 10
-79.126763
 20
-69.909613
 11
-79.094687
 21
-69.921288
  0
ARC
  8
ボルト／ビス
  6
CONTINUOUS
 62
    64
 10
-79.1428
 20
-70.014592
 40
0.104978
 50
90.0
 51
117.278033
  0
LINE
  8
ボルト／ビス
  6
CONTINUOUS
 62
    64
 10
-79.447512
 20
-69.909613
 11
-79.126763
 21
-69.909613
  0
LINE
  8
ボルト／ビス
  6
CONTINUOUS
 62
    64
 10
-79.094687
 20
-69.921288
 11
-79.094687
 21
-70.042947
  0
LINE
  8
ボルト／ビス
  6
CONTINUOUS
 62
    64
 10
-79.190913
 20
-69.921288
 11
-79.190913
 21
-70.042947
  0
LINE
  8
ボルト／ビス
  6
CONTINUOUS
 62
    64
 10
-79.479587
 20
-69.921288
 11
-79.479587
 21
-70.042947
  0
LINE
  8
ボルト／ビス
  6
CONTINUOUS
 62
    64
 10
-79.383363
 20
-69.921288
 11
-79.383363
 21
-70.042947
  0
LINE
  8
ボルト／ビス
  6
CONTINUOUS
 10
-79.479587
 20
-70.042947
 11
-79.094687
 21
-70.042947
  0
LINE
  8
ボルト／ビス
  6
CONTINUOUS
 10
-79.487137
 20
-70.042947
 11
-79.487137
 21
-70.109612
  0
LINE
  8
ボルト／ビス
  6
CONTINUOUS
 10
-79.487137
 20
-70.042947
 11
-79.087137
 21
-70.042947
  0
LINE
  8
ボルト／ビス
  6
CONTINUOUS
 10
-79.087137
 20
-70.042947
 11
-79.087137
 21
-70.109612
  0
ENDBLK
  0
BLOCK
  2
*GRP_0023
 70
    65
 10
0.0
 20
0.0
  0
LINE
  8
ボルト／ビス
  6
CONTINUOUS
 10
5.379532
 20
-70.209613
 11
5.379532
 21
-69.742947
  0
LINE
  8
ボルト／ビス
  6
CONTINUOUS
 10
5.012865
 20
-70.209613
 11
5.012865
 21
-70.142947
  0
LINE
  8
ボルト／ビス
  6
CONTINUOUS
 10
5.012865
 20
-70.142947
 11
5.746198
 21
-70.142947
  0
LINE
  8
ボルト／ビス
  6
CONTINUOUS
 10
5.746198
 20
-70.142947
 11
5.746198
 21
-70.209613
  0
LINE
  8
ボルト／ビス
  6
CONTINUOUS
 10
5.012865
 20
-70.209613
 11
5.746198
 21
-70.209613
  0
LINE
  8
ボルト／ビス
  6
CONTINUOUS
 10
5.079532
 20
-70.109612
 11
5.079532
 21
-70.142947
  0
LINE
  8
ボルト／ビス
  6
CONTINUOUS
 10
5.079532
 20
-70.109612
 11
5.679532
 21
-70.109612
  0
LINE
  8
ボルト／ビス
  6
CONTINUOUS
 10
5.679532
 20
-70.109612
 11
5.679532
 21
-70.142947
  0
LINE
  8
ボルト／ビス
  6
CONTINUOUS
 62
    64
 10
5.219158
 20
-69.909613
 11
5.187082
 21
-69.921288
  0
ARC
  8
ボルト／ビス
  6
CONTINUOUS
 62
    64
 10
5.235195
 20
-70.014592
 40
0.104978
 50
62.721967
 51
90.0
  0
ARC
  8
ボルト／ビス
  6
CONTINUOUS
 62
    64
 10
5.379533
 20
-70.312016
 40
0.402402
 50
76.165002
 51
103.834985
  0
LINE
  8
ボルト／ビス
  6
CONTINUOUS
 62
    64
 10
5.539907
 20
-69.909613
 11
5.571983
 21
-69.921288
  0
ARC
  8
ボルト／ビス
  6
CONTINUOUS
 62
    64
 10
5.52387
 20
-70.014592
 40
0.104978
 50
90.0
 51
117.278033
  0
LINE
  8
ボルト／ビス
  6
CONTINUOUS
 62
    64
 10
5.219158
 20
-69.909613
 11
5.539907
 21
-69.909613
  0
LINE
  8
ボルト／ビス
  6
CONTINUOUS
 62
    64
 10
5.571983
 20
-69.921288
 11
5.571983
 21
-70.042947
  0
LINE
  8
ボルト／ビス
  6
CONTINUOUS
 62
    64
 10
5.475757
 20
-69.921288
 11
5.475757
 21
-70.042947
  0
LINE
  8
ボルト／ビス
  6
CONTINUOUS
 62
    64
 10
5.187082
 20
-69.921288
 11
5.187082
 21
-70.042947
  0
LINE
  8
ボルト／ビス
  6
CONTINUOUS
 62
    64
 10
5.283308
 20
-69.921288
 11
5.283308
 21
-70.042947
  0
LINE
  8
ボルト／ビス
  6
CONTINUOUS
 10
5.187082
 20
-70.042947
 11
5.571983
 21
-70.042947
  0
LINE
  8
ボルト／ビス
  6
CONTINUOUS
 10
5.179532
 20
-70.042947
 11
5.179532
 21
-70.109612
  0
LINE
  8
ボルト／ビス
  6
CONTINUOUS
 10
5.179532
 20
-70.042947
 11
5.579532
 21
-70.042947
  0
LINE
  8
ボルト／ビス
  6
CONTINUOUS
 10
5.579532
 20
-70.042947
 11
5.579532
 21
-70.109612
  0
ENDBLK
  0
BLOCK
  2
*GRP_0024
 70
    65
 10
0.0
 20
0.0
  0
LINE
  8
ボルト／ビス
  6
CONTINUOUS
 10
94.24613
 20
22.147365
 11
93.779465
 21
22.147365
  0
LINE
  8
ボルト／ビス
  6
CONTINUOUS
 10
94.24613
 20
21.780697
 11
94.179465
 21
21.780697
  0
LINE
  8
ボルト／ビス
  6
CONTINUOUS
 10
94.179465
 20
21.780697
 11
94.179465
 21
22.51403
  0
LINE
  8
ボルト／ビス
  6
CONTINUOUS
 10
94.179465
 20
22.51403
 11
94.24613
 21
22.51403
  0
LINE
  8
ボルト／ビス
  6
CONTINUOUS
 10
94.24613
 20
21.780697
 11
94.24613
 21
22.51403
  0
LINE
  8
ボルト／ビス
  6
CONTINUOUS
 10
94.14613
 20
21.847365
 11
94.179465
 21
21.847365
  0
LINE
  8
ボルト／ビス
  6
CONTINUOUS
 10
94.14613
 20
21.847365
 11
94.14613
 21
22.447365
  0
LINE
  8
ボルト／ビス
  6
CONTINUOUS
 10
94.14613
 20
22.447365
 11
94.179465
 21
22.447365
  0
LINE
  8
ボルト／ビス
  6
CONTINUOUS
 62
    64
 10
93.94613
 20
21.98699
 11
93.957805
 21
21.954915
  0
ARC
  8
ボルト／ビス
  6
CONTINUOUS
 62
    64
 10
94.05111
 20
22.003028
 40
0.104978
 50
152.721967
 51
180.0
  0
ARC
  8
ボルト／ビス
  6
CONTINUOUS
 62
    64
 10
94.348534
 20
22.147365
 40
0.402402
 50
166.165002
 51
193.834985
  0
LINE
  8
ボルト／ビス
  6
CONTINUOUS
 62
    64
 10
93.94613
 20
22.30774
 11
93.957805
 21
22.339815
  0
ARC
  8
ボルト／ビス
  6
CONTINUOUS
 62
    64
 10
94.05111
 20
22.291703
 40
0.104978
 50
180.0
 51
207.278033
  0
LINE
  8
ボルト／ビス
  6
CONTINUOUS
 62
    64
 10
93.94613
 20
21.98699
 11
93.94613
 21
22.30774
  0
LINE
  8
ボルト／ビス
  6
CONTINUOUS
 62
    64
 10
93.957805
 20
22.339815
 11
94.079465
 21
22.339815
  0
LINE
  8
ボルト／ビス
  6
CONTINUOUS
 62
    64
 10
93.957805
 20
22.24359
 11
94.079465
 21
22.24359
  0
LINE
  8
ボルト／ビス
  6
CONTINUOUS
 62
    64
 10
93.957805
 20
21.954915
 11
94.079465
 21
21.954915
  0
LINE
  8
ボルト／ビス
  6
CONTINUOUS
 62
    64
 10
93.957805
 20
22.05114
 11
94.079465
 21
22.05114
  0
LINE
  8
ボルト／ビス
  6
CONTINUOUS
 10
94.079465
 20
21.954915
 11
94.079465
 21
22.339815
  0
LINE
  8
ボルト／ビス
  6
CONTINUOUS
 10
94.079465
 20
21.947365
 11
94.14613
 21
21.947365
  0
LINE
  8
ボルト／ビス
  6
CONTINUOUS
 10
94.079465
 20
21.947365
 11
94.079465
 21
22.347365
  0
LINE
  8
ボルト／ビス
  6
CONTINUOUS
 10
94.079465
 20
22.347365
 11
94.14613
 21
22.347365
  0
ENDBLK
  0
BLOCK
  2
*GRP_0025
 70
    65
 10
0.0
 20
0.0
  0
LINE
  8
ボルト／ビス
  6
CONTINUOUS
 10
94.24613
 20
43.4807
 11
93.779465
 21
43.4807
  0
LINE
  8
ボルト／ビス
  6
CONTINUOUS
 10
94.24613
 20
43.114033
 11
94.179465
 21
43.114033
  0
LINE
  8
ボルト／ビス
  6
CONTINUOUS
 10
94.179465
 20
43.114033
 11
94.179465
 21
43.847365
  0
LINE
  8
ボルト／ビス
  6
CONTINUOUS
 10
94.179465
 20
43.847365
 11
94.24613
 21
43.847365
  0
LINE
  8
ボルト／ビス
  6
CONTINUOUS
 10
94.24613
 20
43.114033
 11
94.24613
 21
43.847365
  0
LINE
  8
ボルト／ビス
  6
CONTINUOUS
 10
94.14613
 20
43.1807
 11
94.179465
 21
43.1807
  0
LINE
  8
ボルト／ビス
  6
CONTINUOUS
 10
94.14613
 20
43.1807
 11
94.14613
 21
43.7807
  0
LINE
  8
ボルト／ビス
  6
CONTINUOUS
 10
94.14613
 20
43.7807
 11
94.179465
 21
43.7807
  0
LINE
  8
ボルト／ビス
  6
CONTINUOUS
 62
    64
 10
93.94613
 20
43.320325
 11
93.957805
 21
43.28825
  0
ARC
  8
ボルト／ビス
  6
CONTINUOUS
 62
    64
 10
94.05111
 20
43.336363
 40
0.104978
 50
152.721967
 51
180.0
  0
ARC
  8
ボルト／ビス
  6
CONTINUOUS
 62
    64
 10
94.348534
 20
43.4807
 40
0.402402
 50
166.165002
 51
193.834985
  0
LINE
  8
ボルト／ビス
  6
CONTINUOUS
 62
    64
 10
93.94613
 20
43.641075
 11
93.957805
 21
43.67315
  0
ARC
  8
ボルト／ビス
  6
CONTINUOUS
 62
    64
 10
94.05111
 20
43.625038
 40
0.104978
 50
180.0
 51
207.278033
  0
LINE
  8
ボルト／ビス
  6
CONTINUOUS
 62
    64
 10
93.94613
 20
43.320325
 11
93.94613
 21
43.641075
  0
LINE
  8
ボルト／ビス
  6
CONTINUOUS
 62
    64
 10
93.957805
 20
43.67315
 11
94.079465
 21
43.67315
  0
LINE
  8
ボルト／ビス
  6
CONTINUOUS
 62
    64
 10
93.957805
 20
43.576925
 11
94.079465
 21
43.576925
  0
LINE
  8
ボルト／ビス
  6
CONTINUOUS
 62
    64
 10
93.957805
 20
43.28825
 11
94.079465
 21
43.28825
  0
LINE
  8
ボルト／ビス
  6
CONTINUOUS
 62
    64
 10
93.957805
 20
43.384475
 11
94.079465
 21
43.384475
  0
LINE
  8
ボルト／ビス
  6
CONTINUOUS
 10
94.079465
 20
43.28825
 11
94.079465
 21
43.67315
  0
LINE
  8
ボルト／ビス
  6
CONTINUOUS
 10
94.079465
 20
43.2807
 11
94.14613
 21
43.2807
  0
LINE
  8
ボルト／ビス
  6
CONTINUOUS
 10
94.079465
 20
43.2807
 11
94.079465
 21
43.6807
  0
LINE
  8
ボルト／ビス
  6
CONTINUOUS
 10
94.079465
 20
43.6807
 11
94.14613
 21
43.6807
  0
ENDBLK
  0
ENDSEC
  0
SECTION
  2
ENTITIES
  0
POLYLINE
  8
通り芯
  6
CONTINUOUS
 66
     1
 70
     1
  0
VERTEX
  8
通り芯
 10
-210.0
 20
-148.5
  0
VERTEX
  8
通り芯
 10
210.0
 20
-148.5
  0
VERTEX
  8
通り芯
 10
210.0
 20
148.5
  0
VERTEX
  8
通り芯
 10
-210.0
 20
148.5
  0
SEQEND
  0
INSERT
  2
*GRP_0001
  8
型材断面
  6
CONTINUOUS
 10
0.0
 20
0.0
  0
LINE
  8
型材断面
  6
DASHDOT
 10
4.712865
 20
-77.836442
 11
4.712865
 21
42.814033
  0
LINE
  8
型材断面
  6
DASHDOT
 10
-36.953802
 20
-77.836442
 11
-36.953802
 21
42.814033
  0
LINE
  8
型材断面
  6
DASHDOT
 10
-78.620467
 20
-77.836442
 11
-78.620467
 21
42.814033
  0
LINE
  8
型材断面
  6
DASHDOT
 10
102.389627
 20
42.814033
 11
-78.620467
 21
42.814033
  0
LINE
  8
型材断面
  6
DASHDOT
 10
102.389627
 20
32.814033
 11
-78.620467
 21
32.814033
  0
LINE
  8
型材断面
  6
DASHDOT
 10
102.389627
 20
22.814033
 11
-78.620467
 21
22.814033
  0
LINE
  8
型材断面
  6
DOT
 10
-35.703802
 20
22.814033
 11
-35.703802
 21
42.814033
  0
LINE
  8
型材断面
  6
DASHDOT
 10
-36.953802
 20
22.814033
 11
-36.953802
 21
42.814033
  0
LINE
  8
型材断面
  6
DOT
 10
-38.203802
 20
22.814033
 11
-38.203802
 21
42.814033
  0
LINE
  8
型材断面
  6
CONTINUOUS
 10
-61.9538
 20
45.444162
 11
-63.44943
 21
48.03467
  0
LINE
  8
型材断面
  6
CONTINUOUS
 10
-61.9538
 20
45.444162
 11
-60.45817
 21
48.03467
  0
LINE
  8
型材断面
  6
CONTINUOUS
 10
-60.45817
 20
48.03467
 11
-63.44943
 21
48.03467
  0
LINE
  8
型材断面
  6
CONTINUOUS
 10
-119.472675
 20
87.32138
 11
-120.968305
 21
84.730873
  0
LINE
  8
型材断面
  6
CONTINUOUS
 10
-119.472675
 20
87.32138
 11
-117.977045
 21
84.730873
  0
LINE
  8
型材断面
  6
CONTINUOUS
 10
-117.977045
 20
84.730873
 11
-120.968305
 21
84.730873
  0
LINE
  8
型材断面
  6
CONTINUOUS
 10
-125.495263
 20
83.792277
 11
-79.253485
 21
83.792277
  0
LINE
  8
型材断面
  6
CONTINUOUS
 10
-81.250597
 20
32.814033
 11
-83.841105
 21
34.309663
  0
LINE
  8
型材断面
  6
CONTINUOUS
 10
-81.250597
 20
32.814033
 11
-83.841105
 21
31.318403
  0
LINE
  8
型材断面
  6
CONTINUOUS
 10
-83.841105
 20
31.318403
 11
-83.841105
 21
34.309663
  0
LINE
  8
型材断面
  6
CONTINUOUS
 10
-61.9538
 20
20.183902
 11
-63.44943
 21
17.593395
  0
LINE
  8
型材断面
  6
CONTINUOUS
 10
-61.9538
 20
20.183902
 11
-60.45817
 21
17.593395
  0
LINE
  8
型材断面
  6
CONTINUOUS
 10
-60.45817
 20
17.593395
 11
-63.44943
 21
17.593395
  0
LINE
  8
型材断面
  6
CONTINUOUS
 10
-11.953805
 20
45.444162
 11
-10.458175
 21
48.03467
  0
LINE
  8
型材断面
  6
CONTINUOUS
 10
-11.953805
 20
45.444162
 11
-13.449435
 21
48.03467
  0
LINE
  8
型材断面
  6
CONTINUOUS
 10
-13.449435
 20
48.03467
 11
-10.458175
 21
48.03467
  0
LINE
  8
型材断面
  6
CONTINUOUS
 10
7.342993
 20
32.814033
 11
9.9335
 21
34.309663
  0
LINE
  8
型材断面
  6
CONTINUOUS
 10
7.342993
 20
32.814033
 11
9.9335
 21
31.318403
  0
LINE
  8
型材断面
  6
CONTINUOUS
 10
9.9335
 20
31.318403
 11
9.9335
 21
34.309663
  0
LINE
  8
型材断面
  6
CONTINUOUS
 10
-11.953805
 20
20.183902
 11
-10.458175
 21
17.593395
  0
LINE
  8
型材断面
  6
CONTINUOUS
 10
-11.953805
 20
20.183902
 11
-13.449435
 21
17.593395
  0
LINE
  8
型材断面
  6
CONTINUOUS
 10
-13.449435
 20
17.593395
 11
-10.458175
 21
17.593395
  0
LINE
  8
型材断面
  6
CONTINUOUS
 10
-80.777282
 20
-72.742897
 11
-80.777282
 21
-72.292897
  0
LINE
  8
型材断面
  6
CONTINUOUS
 62
    47
 10
-81.227283
 20
-72.292897
 11
-81.227283
 21
-71.792897
  0
LINE
  8
型材断面
  6
CONTINUOUS
 62
    47
 10
-81.227283
 20
-71.792897
 11
-79.352825
 21
-71.209613
  0
LINE
  8
型材断面
  6
CONTINUOUS
 10
-81.227283
 20
-71.792897
 11
-36.953802
 21
-71.792897
  0
LINE
  8
型材断面
  6
CONTINUOUS
 10
-80.777282
 20
-72.742897
 11
-36.953802
 21
-72.742897
  0
LINE
  8
型材断面
  6
CONTINUOUS
 10
96.779415
 20
20.65722
 11
96.329415
 21
20.65722
  0
LINE
  8
型材断面
  6
CONTINUOUS
 62
    47
 10
96.329415
 20
20.20722
 11
95.829415
 21
20.20722
  0
LINE
  8
型材断面
  6
CONTINUOUS
 62
    47
 10
95.829415
 20
20.20722
 11
95.24613
 21
22.081677
  0
LINE
  8
型材断面
  6
CONTINUOUS
 10
95.829415
 20
20.20722
 11
95.829415
 21
32.814033
  0
LINE
  8
型材断面
  6
CONTINUOUS
 10
96.779415
 20
20.65722
 11
96.779415
 21
32.814033
  0
LINE
  8
型材断面
  6
CONTINUOUS
 10
96.779415
 20
44.970845
 11
96.329415
 21
44.970845
  0
LINE
  8
型材断面
  6
CONTINUOUS
 62
    47
 10
96.329415
 20
45.420845
 11
95.829415
 21
45.420845
  0
LINE
  8
型材断面
  6
CONTINUOUS
 62
    47
 10
95.829415
 20
45.420845
 11
95.24613
 21
43.546387
  0
LINE
  8
型材断面
  6
CONTINUOUS
 10
95.829415
 20
45.420845
 11
95.829415
 21
32.814033
  0
LINE
  8
型材断面
  6
CONTINUOUS
 10
96.779415
 20
44.970845
 11
96.779415
 21
32.814033
  0
LINE
  8
型材断面
  6
CONTINUOUS
 10
7.319678
 20
32.814033
 11
7.319678
 21
20.20722
  0
LINE
  8
型材断面
  6
CONTINUOUS
 10
6.779532
 20
20.747365
 11
7.319678
 21
20.20722
  0
LINE
  8
型材断面
  6
CONTINUOUS
 10
6.869678
 20
-72.742897
 11
6.869678
 21
-72.292897
  0
LINE
  8
型材断面
  6
CONTINUOUS
 62
    47
 10
7.319678
 20
-72.292897
 11
7.319678
 21
-71.792897
  0
LINE
  8
型材断面
  6
CONTINUOUS
 62
    47
 10
7.319678
 20
-71.792897
 11
5.44522
 21
-71.209613
  0
LINE
  8
型材断面
  6
CONTINUOUS
 10
7.319678
 20
-71.792897
 11
-36.953802
 21
-71.792897
  0
LINE
  8
型材断面
  6
CONTINUOUS
 10
6.869678
 20
-72.742897
 11
-36.953802
 21
-72.742897
  0
LINE
  8
型材断面
  6
CONTINUOUS
 10
7.319678
 20
20.20722
 11
-36.953802
 21
20.207232
  0
LINE
  8
型材断面
  6
CONTINUOUS
 10
7.319678
 20
32.814033
 11
7.319678
 21
45.420845
  0
LINE
  8
型材断面
  6
CONTINUOUS
 10
6.779532
 20
44.8807
 11
7.319678
 21
45.420845
  0
LINE
  8
型材断面
  6
CONTINUOUS
 10
7.319678
 20
45.420845
 11
-36.953802
 21
45.420832
  0
LINE
  8
型材断面
  6
CONTINUOUS
 10
-81.227283
 20
32.814033
 11
-81.227283
 21
20.20722
  0
LINE
  8
型材断面
  6
CONTINUOUS
 10
-80.687137
 20
20.747365
 11
-81.227283
 21
20.20722
  0
LINE
  8
型材断面
  6
CONTINUOUS
 10
-81.227283
 20
20.20722
 11
-36.953802
 21
20.207232
  0
LINE
  8
型材断面
  6
CONTINUOUS
 10
-81.227283
 20
32.814033
 11
-81.227283
 21
45.420845
  0
LINE
  8
型材断面
  6
CONTINUOUS
 10
-80.687137
 20
44.8807
 11
-81.227283
 21
45.420845
  0
LINE
  8
型材断面
  6
CONTINUOUS
 10
-81.227283
 20
45.420845
 11
-36.953802
 21
45.420832
  0
LINE
  8
型材断面
  6
CONTINUOUS
 10
-125.495263
 20
77.835802
 11
-79.253485
 21
77.835802
  0
LINE
  8
ガラス
  6
CONTINUOUS
 10
101.878765
 20
-87.823622
 11
101.878765
 21
-68.49029
  0
LINE
  8
ガラス
  6
CONTINUOUS
 10
142.662097
 20
-87.823622
 11
142.662097
 21
-68.49029
  0
LINE
  8
ガラス
  6
CONTINUOUS
 10
101.878765
 20
-68.49029
 11
142.662097
 21
-68.49029
  0
LINE
  8
ガラス
  6
CONTINUOUS
 10
101.878765
 20
-87.823622
 11
142.662097
 21
-87.823622
  0
TEXT
  7
TextStyle03
  8
文字
  6
CONTINUOUS
 10
-116.675
 20
84.95
  1
は排水穴位置を示す
 40
3.0
 72
     5
 11
-86.675
 21
84.95
  0
TEXT
  7
TextStyle03
  8
文字
  6
CONTINUOUS
 10
124.05
 20
-81.275
  1
網入り6.8t
 40
3.0
 72
     5
 11
140.7375
 21
-81.275
  0
TEXT
  7
TextStyle03
  8
文字
  6
CONTINUOUS
 10
130.725
 20
-85.95
  1
×２枚
 40
3.0
 72
     5
 11
140.475
 21
-85.95
  0
TEXT
  7
TextStyle03
  8
文字
  6
CONTINUOUS
 10
-99.7
 20
11.275
  1
アンカーピッチ
 40
3.0
 50
90.0
 72
     5
 11
-99.7
 21
34.525
  0
TEXT
  7
TextStyle03
  8
文字
  6
CONTINUOUS
 10
-72.0
 20
80.825
  1
アンカーピッチ
 40
3.0
 72
     5
 11
-48.75
 21
80.825
  0
TEXT
  7
TextStyle03
  8
文字
  6
CONTINUOUS
 10
-120.4
 20
78.775
  1
アンカー数量　１２ヶ所
 40
3.0
 72
     5
 11
-83.65
 21
78.775
  0
TEXT
  7
TextStyle03
  8
文字
  6
CONTINUOUS
 10
78.1
 20
125.25
  1
シリーズ：ＳＴＤＫＬ
 40
5.0
 72
     5
 11
133.725
 21
125.25
  0
TEXT
  7
TextStyle03
  8
文字
  6
CONTINUOUS
 10
78.1
 20
119.625
  1
　　　　　（固定）600×2500タイプ
 40
5.0
 72
     5
 11
170.2875
 21
119.625
  0
TEXT
  7
TextStyle03
  8
文字
  6
CONTINUOUS
 10
78.1
 20
114.0
  1
図面名　：外観姿図
 40
5.0
 72
     5
 11
128.1
 21
114.0
  0
TEXT
  7
TextStyle03
  8
文字
  6
CONTINUOUS
 10
78.1
 20
108.375
  1
　　　　　　
 40
5.0
 72
     5
 11
111.225
 21
108.375
  0
TEXT
  7
TextStyle03
  8
文字
  6
CONTINUOUS
 10
78.05
 20
103.225
  1
ＮＳコード：ＮＳＫＳＬ
 40
5.0
 72
     5
 11
139.3
 21
103.225
  0
INSERT
  2
*DIM_0002
  8
寸法
  6
CONTINUOUS
 10
0.0
 20
0.0
  0
INSERT
  2
*DIM_0003
  8
寸法
  6
CONTINUOUS
 10
0.0
 20
0.0
  0
INSERT
  2
*DIM_0004
  8
寸法
  6
CONTINUOUS
 10
0.0
 20
0.0
  0
INSERT
  2
*DIM_0005
  8
寸法
  6
CONTINUOUS
 10
0.0
 20
0.0
  0
INSERT
  2
*DIM_0006
  8
寸法
  6
CONTINUOUS
 10
0.0
 20
0.0
  0
INSERT
  2
*DIM_0007
  8
寸法
  6
CONTINUOUS
 10
0.0
 20
0.0
  0
INSERT
  2
*DIM_0008
  8
寸法
  6
CONTINUOUS
 10
0.0
 20
0.0
  0
INSERT
  2
*DIM_0009
  8
寸法
  6
CONTINUOUS
 10
0.0
 20
0.0
  0
INSERT
  2
*DIM_0010
  8
寸法
  6
CONTINUOUS
 10
0.0
 20
0.0
  0
INSERT
  2
*DIM_0011
  8
寸法
  6
CONTINUOUS
 10
0.0
 20
0.0
  0
INSERT
  2
*DIM_0012
  8
寸法
  6
CONTINUOUS
 10
0.0
 20
0.0
  0
INSERT
  2
*DIM_0013
  8
寸法
  6
CONTINUOUS
 10
0.0
 20
0.0
  0
INSERT
  2
*DIM_0014
  8
寸法
  6
CONTINUOUS
 10
0.0
 20
0.0
  0
INSERT
  2
*DIM_0016
  8
寸法
  6
CONTINUOUS
 10
0.0
 20
0.0
  0
INSERT
  2
*DIM_0017
  8
寸法
  6
CONTINUOUS
 10
0.0
 20
0.0
  0
INSERT
  2
*DIM_0018
  8
寸法
  6
CONTINUOUS
 10
0.0
 20
0.0
  0
INSERT
  2
*DIM_0019
  8
寸法
  6
CONTINUOUS
 10
0.0
 20
0.0
  0
INSERT
  2
*DIM_0020
  8
寸法
  6
CONTINUOUS
 10
0.0
 20
0.0
  0
INSERT
  2
*DIM_0021
  8
寸法
  6
CONTINUOUS
 10
0.0
 20
0.0
  0
LINE
  8
別途部材
  6
CONTINUOUS
 10
6.779532
 20
20.747365
 11
6.379532
 21
21.147365
  0
LINE
  8
別途部材
  6
CONTINUOUS
 10
4.712865
 20
22.814033
 11
-3.34639
 21
30.87329
  0
LINE
  8
別途部材
  6
CONTINUOUS
 10
6.379532
 20
21.147365
 11
6.379532
 21
32.814033
  0
LINE
  8
別途部材
  6
CONTINUOUS
 10
6.779532
 20
20.747365
 11
6.779532
 21
32.814033
  0
LINE
  8
別途部材
  6
CONTINUOUS
 10
6.779532
 20
44.8807
 11
6.379532
 21
44.4807
  0
LINE
  8
別途部材
  6
CONTINUOUS
 10
4.712865
 20
42.814033
 11
-3.34639
 21
34.754775
  0
LINE
  8
別途部材
  6
CONTINUOUS
 10
6.379532
 20
44.4807
 11
6.379532
 21
32.814033
  0
LINE
  8
別途部材
  6
CONTINUOUS
 10
6.779532
 20
44.8807
 11
6.779532
 21
32.814033
  0
LINE
  8
別途部材
  6
CONTINUOUS
 10
6.379532
 20
44.4807
 11
-36.953802
 21
44.4807
  0
LINE
  8
別途部材
  6
CONTINUOUS
 10
6.779532
 20
44.8807
 11
-36.953802
 21
44.8807
  0
LINE
  8
別途部材
  6
CONTINUOUS
 10
6.379532
 20
21.147365
 11
-36.953802
 21
21.147365
  0
LINE
  8
別途部材
  6
CONTINUOUS
 10
6.779532
 20
20.747365
 11
-36.953802
 21
20.747365
  0
LINE
  8
別途部材
  6
CONTINUOUS
 10
-80.687137
 20
20.747365
 11
-80.287137
 21
21.147365
  0
LINE
  8
別途部材
  6
CONTINUOUS
 10
-78.62047
 20
22.814033
 11
-70.561215
 21
30.87329
  0
LINE
  8
別途部材
  6
CONTINUOUS
 10
-80.287137
 20
21.147365
 11
-80.287137
 21
32.814033
  0
LINE
  8
別途部材
  6
CONTINUOUS
 10
-80.687137
 20
20.747365
 11
-80.687137
 21
32.814033
  0
LINE
  8
別途部材
  6
CONTINUOUS
 10
-80.687137
 20
44.8807
 11
-80.287137
 21
44.4807
  0
LINE
  8
別途部材
  6
CONTINUOUS
 10
-78.62047
 20
42.814033
 11
-70.561215
 21
34.754775
  0
LINE
  8
別途部材
  6
CONTINUOUS
 10
-80.287137
 20
44.4807
 11
-80.287137
 21
32.814033
  0
LINE
  8
別途部材
  6
CONTINUOUS
 10
-80.687137
 20
44.8807
 11
-80.687137
 21
32.814033
  0
LINE
  8
別途部材
  6
CONTINUOUS
 10
-80.287137
 20
44.4807
 11
-36.953802
 21
44.4807
  0
LINE
  8
別途部材
  6
CONTINUOUS
 10
-80.687137
 20
44.8807
 11
-36.953802
 21
44.8807
  0
LINE
  8
別途部材
  6
CONTINUOUS
 10
-80.287137
 20
21.147365
 11
-36.953802
 21
21.147365
  0
LINE
  8
別途部材
  6
CONTINUOUS
 10
-80.687137
 20
20.747365
 11
-36.953802
 21
20.747365
  0
LINE
  8
別途部材
  6
CONTINUOUS
 62
    96
 10
94.24613
 20
21.147365
 11
95.24613
 21
20.747365
  0
LINE
  8
別途部材
  6
CONTINUOUS
 62
    96
 10
94.24613
 20
21.147365
 11
94.24613
 21
32.814033
  0
LINE
  8
別途部材
  6
CONTINUOUS
 10
95.24613
 20
20.747365
 11
95.24613
 21
32.814033
  0
LINE
  8
別途部材
  6
CONTINUOUS
 62
    96
 10
94.24613
 20
44.4807
 11
95.24613
 21
44.8807
  0
LINE
  8
別途部材
  6
CONTINUOUS
 62
    96
 10
94.24613
 20
44.4807
 11
94.24613
 21
32.814033
  0
LINE
  8
別途部材
  6
CONTINUOUS
 10
95.24613
 20
44.8807
 11
95.24613
 21
32.814033
  0
ARC
  8
別途部材
  6
CONTINUOUS
 10
100.954465
 20
32.814033
 40
12.041667
 50
123.855033
 51
236.144967
  0
INSERT
  2
*GRP_0015
  8
別途部材
  6
CONTINUOUS
 10
0.0
 20
0.0
  0
INSERT
  2
*GRP_0022
  8
別途部材
  6
DOT
 10
0.0
 20
0.0
  0
INSERT
  2
*GRP_0023
  8
別途部材
  6
DOT
 10
0.0
 20
0.0
  0
INSERT
  2
*GRP_0024
  8
別途部材
  6
DOT
 10
0.0
 20
0.0
  0
INSERT
  2
*GRP_0025
  8
別途部材
  6
DOT
 10
0.0
 20
0.0
  0
LINE
  8
St
  6
CONTINUOUS
 62
    47
 10
-81.227283
 20
-72.292897
 11
-36.953802
 21
-72.292897
  0
LINE
  8
St
  6
CONTINUOUS
 62
    47
 10
96.329415
 20
20.20722
 11
96.329415
 21
32.814033
  0
LINE
  8
St
  6
CONTINUOUS
 62
    47
 10
96.329415
 20
45.420845
 11
96.329415
 21
32.814033
  0
LINE
  8
St
  6
CONTINUOUS
 62
    47
 10
7.319678
 20
-72.292897
 11
-36.953802
 21
-72.292897
  0
ENDSEC
  0
EOF
