  0
SECTION
  2
HEADER
  9
$EXTMIN
 10
-210.0
 20
-148.5
  9
$EXTMAX
 10
210.0
 20
148.5
  9
$PDMODE
 70
    32
  9
$PDSIZE
 40
1.5
  9
$LTSCALE
 40
10.0
  0
ENDSEC
  0
SECTION
  2
TABLES
  0
TABLE
  2
LTYPE
 70
    15
  0
LTYPE
  2
CONTINUOUS
 70
    64
  3
実線
 72
    65
 73
     0
 40
0.0
  0
LTYPE
  2
DASHED
 70
    64
  3
破線A
 72
    65
 73
     2
 40
0.6
 49
0.4
 49
-0.2
  0
LTYPE
  2
DASHEDX2
 70
    64
  3
破線B
 72
    65
 73
     2
 40
1.3
 49
0.9
 49
-0.4
  0
LTYPE
  2
DASHDOT
 70
    64
  3
１点鎖線A
 72
    65
 73
     4
 40
0.5375
 49
0.375
 49
-0.05
 49
0.0625
 49
-0.05
  0
LTYPE
  2
DASHDOTX2
 70
    64
  3
１点鎖線B
 72
    65
 73
     4
 40
1.075
 49
0.75
 49
-0.1
 49
0.125
 49
-0.1
  0
LTYPE
  2
DIVIDE2
 70
    64
  3
２点鎖線A
 72
    65
 73
     6
 40
0.5125
 49
0.3
 49
-0.0375
 49
0.05
 49
-0.0375
 49
0.05
 49
-0.0375
  0
LTYPE
  2
DIVIDE
 70
    64
  3
２点鎖線B
 72
    65
 73
     6
 40
1.05
 49
0.55
 49
-0.1
 49
0.1
 49
-0.1
 49
0.1
 49
-0.1
  0
LTYPE
  2
DOT
 70
    64
  3
点線A
 72
    65
 73
     2
 40
0.1125
 49
0.0625
 49
-0.05
  0
LTYPE
  2
DOTX2
 70
    64
  3
点線B
 72
    65
 73
     2
 40
0.275
 49
0.15
 49
-0.125
  0
LTYPE
  2
CONTINUOUS
 70
    64
  3
実線
 72
    65
 73
     0
 40
0.0
  0
LTYPE
  2
CONTINUOUS
 70
    64
  3
実線
 72
    65
 73
     0
 40
0.0
  0
LTYPE
  2
CONTINUOUS
 70
    64
  3
実線
 72
    65
 73
     0
 40
0.0
  0
LTYPE
  2
CONTINUOUS
 70
    64
  3
実線
 72
    65
 73
     0
 40
0.0
  0
LTYPE
  2
CONTINUOUS
 70
    64
  3
実線
 72
    65
 73
     0
 40
0.0
  0
LTYPE
  2
CONTINUOUS
 70
    64
  3
実線
 72
    65
 73
     0
 40
0.0
  0
ENDTAB
  0
TABLE
  2
LAYER
 70
    34
  0
LAYER
  2
通り芯
 70
     0
 62
    15
  6
CONTINUOUS
  0
LAYER
  2
補助線
 70
     0
 62
    16
  6
DOT
  0
LAYER
  2
躯体
 70
     0
 62
    31
  6
CONTINUOUS
  0
LAYER
  2
型材
 70
     0
 62
    32
  6
CONTINUOUS
  0
LAYER
  2
型材断面
 70
     0
 62
    47
  6
CONTINUOUS
  0
LAYER
  2
ガラス
 70
     0
 62
    48
  6
CONTINUOUS
  0
LAYER
  2
ゴム等
 70
     0
 62
    63
  6
CONTINUOUS
  0
LAYER
  2
ボルト／ビス
 70
     0
 62
    64
  6
CONTINUOUS
  0
LAYER
  2
文字
 70
     0
 62
    79
  6
CONTINUOUS
  0
LAYER
  2
寸法
 70
     0
 62
    80
  6
CONTINUOUS
  0
LAYER
  2
ﾊｯﾁﾝｸﾞ
 70
     0
 62
    95
  6
CONTINUOUS
  0
LAYER
  2
別途部材
 70
     0
 62
    96
  6
CONTINUOUS
  0
LAYER
  2
曲げ物
 70
     0
 62
   111
  6
CONTINUOUS
  0
LAYER
  2
鉄骨等
 70
     0
 62
   112
  6
CONTINUOUS
  0
LAYER
  2
St
 70
     0
 62
   127
  6
CONTINUOUS
  0
LAYER
  2
その他部品等
 70
     0
 62
   128
  6
CONTINUOUS
  0
LAYER
  2
ｶﾞｽｹｯﾄ
 70
     0
 62
   143
  6
CONTINUOUS
  0
LAYER
  2
ｽｹｯﾁ
 70
     0
 62
    14
  6
CONTINUOUS
  0
LAYER
  2
0
 70
     0
 62
    17
  6
CONTINUOUS
  0
LAYER
  2
1
 70
     0
 62
    30
  6
CONTINUOUS
  0
LAYER
  2
4
 70
     0
 62
    33
  6
CONTINUOUS
  0
LAYER
  2
ﾚｲﾔ3
 70
     0
 62
    46
  6
CONTINUOUS
  0
LAYER
  2
外形線
 70
     0
 62
    49
  6
CONTINUOUS
  0
LAYER
  2
部品
 70
     0
 62
    14
  6
CONTINUOUS
  0
LAYER
  2
サッシ芯
 70
     0
 62
    17
  6
DASHDOTX2
  0
LAYER
  2
寸法線
 70
     0
 62
    62
  6
CONTINUOUS
  0
LAYER
  2
姿図外形線
 70
     0
 62
    65
  6
CONTINUOUS
  0
LAYER
  2
姿補助線
 70
     0
 62
    30
  6
CONTINUOUS
  0
LAYER
  2
透視線
 70
     0
 62
    78
  6
DOT
  0
LAYER
  2
用紙
 70
     0
 62
    81
  6
CONTINUOUS
  0
LAYER
  2
実線図枠
 70
     0
 62
    94
  6
CONTINUOUS
  0
LAYER
  2
補助図枠
 70
     0
 62
    97
  6
CONTINUOUS
  0
LAYER
  2
建具記号
 70
     0
 62
   110
  6
CONTINUOUS
  0
LAYER
  2
補助文字
 70
     0
 62
   113
  6
CONTINUOUS
  0
ENDTAB
  0
TABLE
  2
STYLE
 70
    10
  0
STYLE
  2
STANDARD
 70
     0
 40
1.0
 41
1.0
 42
1.0
 50
0.0
 71
     0
  3
TXT
  4
BIGFONT
  0
STYLE
  2
TATE
 70
     4
 40
1.0
 41
1.0
 42
1.0
 50
0.0
 71
     0
  3
TXT
  4
BIGFONT
  0
STYLE
  2
TextStyle03
 70
     0
 40
1.0
 41
1.0
 42
1.0
 50
0.0
 71
     0
  3
MONOTXT
  4
BIGFONT
  0
STYLE
  2
TextStyle04
 70
     0
 40
1.0
 41
1.0
 42
1.0
 50
0.0
 71
     0
  3
MONOTXT
  4
BIGFONT
  0
STYLE
  2
TextStyle05
 70
     0
 40
1.0
 41
1.0
 42
1.0
 50
0.0
 71
     0
  3
MONOTXT
  4
BIGFONT
  0
STYLE
  2
TextStyle06
 70
     0
 40
1.0
 41
1.0
 42
1.0
 50
0.0
 71
     0
  3
MONOTXT
  4
BIGFONT
  0
STYLE
  2
TextStyle07
 70
     0
 40
1.0
 41
1.0
 42
1.0
 50
0.0
 71
     0
  3
MONOTXT
  4
BIGFONT
  0
STYLE
  2
TextStyle08
 70
     0
 40
1.0
 41
1.0
 42
1.0
 50
0.0
 71
     0
  3
MONOTXT
  4
BIGFONT
  0
STYLE
  2
TextStyle09
 70
     0
 40
1.0
 41
1.0
 42
1.0
 50
0.0
 71
     0
  3
MONOTXT
  4
BIGFONT
  0
STYLE
  2
TextStyle10
 70
     0
 40
1.0
 41
1.0
 42
1.0
 50
0.0
 71
     0
  3
MONOTXT
  4
BIGFONT
  0
ENDTAB
  0
ENDSEC
  0
SECTION
  2
BLOCKS
  0
BLOCK
  2
*GRP_0001
 70
    65
 10
0.0
 20
0.0
  0
LINE
  8
型材断面
  6
CONTINUOUS
 10
195.0
 20
133.5
 11
195.0
 21
-133.5
  0
LINE
  8
型材断面
  6
CONTINUOUS
 10
195.0
 20
-133.5
 11
-185.0
 21
-133.5
  0
LINE
  8
型材断面
  6
CONTINUOUS
 10
-185.0
 20
-133.5
 11
-185.0
 21
133.5
  0
LINE
  8
型材断面
  6
CONTINUOUS
 10
195.0
 20
133.5
 11
-185.0
 21
133.5
  0
LINE
  8
型材断面
  6
CONTINUOUS
 10
145.0
 20
-133.5
 11
145.0
 21
-118.5
  0
LINE
  8
型材断面
  6
CONTINUOUS
 10
195.0
 20
-118.5
 11
145.0
 21
-118.5
  0
ENDBLK
  0
BLOCK
  2
*DIM_0002
 70
    65
 10
0.0
 20
0.0
  0
LINE
  8
寸法
  6
BYBLOCK
 62
     0
 10
37.224393
 20
-64.87628
 11
62.194043
 21
-64.87628
  0
LINE
  8
寸法
  6
BYBLOCK
 62
     0
 10
62.194043
 20
-70.209613
 11
62.194043
 21
-64.87628
  0
POINT
  8
寸法
 62
     0
 10
62.194043
 20
-70.209613
  0
POINT
  8
寸法
 62
     0
 10
62.194043
 20
-64.87628
  0
TEXT
  7
TextStyle03
  8
寸法
  6
CONTINUOUS
 62
     0
 10
61.8
 20
-69.9875
  1
160
 40
3.0
 50
90.0
 72
     5
 11
61.8
 21
-65.1125
  0
ENDBLK
  0
BLOCK
  2
*DIM_0003
 70
    65
 10
0.0
 20
0.0
  0
LINE
  8
寸法
  6
BYBLOCK
 62
     0
 10
-70.442275
 20
-16.511205
 11
-70.442275
 21
-13.121378
  0
LINE
  8
寸法
  6
BYBLOCK
 62
     0
 10
46.224393
 20
-13.121378
 11
-70.442275
 21
-13.121378
  0
POINT
  8
寸法
 62
     0
 10
46.224393
 20
-13.121378
  0
POINT
  8
寸法
 62
     0
 10
-70.442275
 20
-13.121378
  0
TEXT
  7
TextStyle03
  8
寸法
  6
CONTINUOUS
 62
     0
 10
-23.84375
 20
-12.75
  1
呼称寸法　3500
 40
3.0
 72
     5
 11
-0.40625
 21
-12.75
  0
ENDBLK
  0
BLOCK
  2
*DIM_0004
 70
    65
 10
0.0
 20
0.0
  0
LINE
  8
寸法
  6
BYBLOCK
 62
     0
 10
-53.775608
 20
19.183902
 11
-53.775608
 21
14.042105
  0
LINE
  8
寸法
  6
BYBLOCK
 62
     0
 10
29.557727
 20
19.183902
 11
29.557727
 21
14.042105
  0
LINE
  8
寸法
  6
BYBLOCK
 62
     0
 10
-53.775608
 20
14.042105
 11
29.557727
 21
14.042105
  0
POINT
  8
寸法
 62
     0
 10
-53.775608
 20
14.042105
  0
POINT
  8
寸法
 62
     0
 10
29.557727
 20
14.042105
  0
TEXT
  7
TextStyle03
  8
寸法
  6
CONTINUOUS
 62
     0
 10
-15.40625
 20
14.4
  1
2500
 40
3.0
 72
     5
 11
-8.84375
 21
14.4
  0
ENDBLK
  0
BLOCK
  2
*DIM_0005
 70
    65
 10
0.0
 20
0.0
  0
LINE
  8
寸法
  6
BYBLOCK
 62
     0
 10
48.89106
 20
-70.209613
 11
62.194043
 21
-70.209613
  0
LINE
  8
寸法
  6
BYBLOCK
 62
     0
 10
49.831205
 20
-72.292897
 11
62.194043
 21
-72.292897
  0
LINE
  8
寸法
  6
BYBLOCK
 62
     0
 10
62.194043
 20
-70.209613
 11
62.194043
 21
-72.292897
  0
POINT
  8
寸法
 62
     0
 10
62.194043
 20
-70.209613
  0
POINT
  8
寸法
 62
     0
 10
62.194043
 20
-72.292897
  0
TEXT
  7
TextStyle03
  8
寸法
  6
CONTINUOUS
 62
     0
 10
61.8
 20
-81.30625
  1
62.5
 40
3.0
 50
90.0
 72
     5
 11
61.8
 21
-74.74375
  0
ENDBLK
  0
BLOCK
  2
*DIM_0006
 70
    65
 10
0.0
 20
0.0
  0
LINE
  8
寸法
  6
BYBLOCK
 62
     0
 10
48.831205
 20
-70.792897
 11
48.831205
 21
-13.121378
  0
LINE
  8
寸法
  6
BYBLOCK
 62
     0
 10
46.224393
 20
-13.121378
 11
48.831205
 21
-13.121378
  0
POINT
  8
寸法
 62
     0
 10
46.224393
 20
-13.121378
  0
POINT
  8
寸法
 62
     0
 10
48.831205
 20
-13.121378
  0
TEXT
  7
TextStyle03
  8
寸法
  6
CONTINUOUS
 62
     0
 10
50.96875
 20
-12.75
  1
78.2
 40
3.0
 72
     5
 11
57.53125
 21
-12.75
  0
ENDBLK
  0
BLOCK
  2
*DIM_0007
 70
    65
 10
0.0
 20
0.0
  0
LINE
  8
寸法
  6
BYBLOCK
 62
     0
 10
80.244043
 20
22.814033
 11
80.244043
 21
42.814033
  0
POINT
  8
寸法
 62
     0
 10
80.244043
 20
22.814033
  0
POINT
  8
寸法
 62
     0
 10
80.244043
 20
42.814033
  0
TEXT
  7
TextStyle03
  8
寸法
  6
CONTINUOUS
 62
     0
 10
79.85
 20
21.925
  1
呼称寸法　600
 40
3.0
 50
90.0
 72
     5
 11
79.85
 21
43.675
  0
ENDBLK
  0
BLOCK
  2
*DIM_0008
 70
    65
 10
0.0
 20
0.0
  0
LINE
  8
寸法
  6
BYBLOCK
 62
     0
 10
130.424325
 20
33.814033
 11
130.424325
 21
60.666798
  0
LINE
  8
寸法
  6
BYBLOCK
 62
     0
 10
135.757657
 20
60.666798
 11
130.424325
 21
60.666798
  0
POINT
  8
寸法
 62
     0
 10
135.757657
 20
60.666798
  0
POINT
  8
寸法
 62
     0
 10
130.424325
 20
60.666798
  0
TEXT
  7
TextStyle03
  8
寸法
  6
CONTINUOUS
 62
     0
 10
130.6375
 20
61.025
  1
160
 40
3.0
 72
     5
 11
135.5125
 21
61.025
  0
ENDBLK
  0
BLOCK
  2
*DIM_0009
 70
    65
 10
0.0
 20
0.0
  0
LINE
  8
寸法
  6
BYBLOCK
 62
     0
 10
135.757657
 20
45.4807
 11
135.757657
 21
60.666798
  0
LINE
  8
寸法
  6
BYBLOCK
 62
     0
 10
137.840942
 20
46.420845
 11
137.840942
 21
60.666798
  0
LINE
  8
寸法
  6
BYBLOCK
 62
     0
 10
135.757657
 20
60.666798
 11
137.840942
 21
60.666798
  0
POINT
  8
寸法
 62
     0
 10
135.757657
 20
60.666798
  0
POINT
  8
寸法
 62
     0
 10
137.840942
 20
60.666798
  0
TEXT
  7
TextStyle03
  8
寸法
  6
CONTINUOUS
 62
     0
 10
140.24375
 20
61.025
  1
62.5
 40
3.0
 72
     5
 11
146.80625
 21
61.025
  0
ENDBLK
  0
BLOCK
  2
*DIM_0010
 70
    65
 10
0.0
 20
0.0
  0
LINE
  8
寸法
  6
BYBLOCK
 62
     0
 10
136.340942
 20
45.420845
 11
80.244043
 21
45.420845
  0
LINE
  8
寸法
  6
BYBLOCK
 62
     0
 10
80.244043
 20
42.814033
 11
80.244043
 21
45.420845
  0
POINT
  8
寸法
 62
     0
 10
80.244043
 20
42.814033
  0
POINT
  8
寸法
 62
     0
 10
80.244043
 20
45.420845
  0
TEXT
  7
TextStyle03
  8
寸法
  6
CONTINUOUS
 62
     0
 10
79.85
 20
47.56875
  1
78.2
 40
3.0
 50
90.0
 72
     5
 11
79.85
 21
54.13125
  0
ENDBLK
  0
BLOCK
  2
*DIM_0011
 70
    65
 10
0.0
 20
0.0
  0
LINE
  8
寸法
  6
BYBLOCK
 62
     0
 10
136.340942
 20
20.20722
 11
80.244043
 21
20.20722
  0
LINE
  8
寸法
  6
BYBLOCK
 62
     0
 10
80.244043
 20
22.814033
 11
80.244043
 21
20.20722
  0
POINT
  8
寸法
 62
     0
 10
80.244043
 20
22.814033
  0
POINT
  8
寸法
 62
     0
 10
80.244043
 20
20.20722
  0
TEXT
  7
TextStyle03
  8
寸法
  6
CONTINUOUS
 62
     0
 10
79.85
 20
11.46875
  1
78.2
 40
3.0
 50
90.0
 72
     5
 11
79.85
 21
18.03125
  0
ENDBLK
  0
BLOCK
  2
*DIM_0012
 70
    65
 10
0.0
 20
0.0
  0
LINE
  8
寸法
  6
BYBLOCK
 62
     0
 10
-73.049085
 20
-70.792897
 11
-73.049085
 21
-13.121378
  0
LINE
  8
寸法
  6
BYBLOCK
 62
     0
 10
-70.442275
 20
-13.121378
 11
-73.049085
 21
-13.121378
  0
POINT
  8
寸法
 62
     0
 10
-70.442275
 20
-13.121378
  0
POINT
  8
寸法
 62
     0
 10
-73.049085
 20
-13.121378
  0
TEXT
  7
TextStyle03
  8
寸法
  6
CONTINUOUS
 62
     0
 10
-81.78125
 20
-12.75
  1
78.2
 40
3.0
 72
     5
 11
-75.21875
 21
-12.75
  0
ENDBLK
  0
BLOCK
  2
*GRP_0013
 70
    65
 10
0.0
 20
0.0
  0
LINE
  8
別途部材
  6
CONTINUOUS
 62
    96
 10
-72.10894
 20
-70.209613
 11
-72.50894
 21
-71.209613
  0
ARC
  8
別途部材
  6
CONTINUOUS
 10
-60.442272
 20
-76.917946
 40
12.041668
 50
90.0
 51
146.144967
  0
LINE
  8
別途部材
  6
CONTINUOUS
 10
-72.50894
 20
-71.209613
 11
-12.10894
 21
-71.209613
  0
LINE
  8
別途部材
  6
CONTINUOUS
 62
    96
 10
-72.10894
 20
-70.209613
 11
-12.10894
 21
-70.209613
  0
LINE
  8
別途部材
  6
CONTINUOUS
 10
-12.60894
 20
-63.87628
 11
-13.60894
 21
-64.87628
  0
LINE
  8
別途部材
  6
CONTINUOUS
 10
-14.60894
 20
-64.87628
 11
-15.60894
 21
-63.87628
  0
LINE
  8
別途部材
  6
CONTINUOUS
 10
-16.60894
 20
-63.87628
 11
-17.60894
 21
-64.87628
  0
LINE
  8
別途部材
  6
CONTINUOUS
 10
-15.60894
 20
-63.87628
 11
-16.60894
 21
-63.87628
  0
LINE
  8
別途部材
  6
CONTINUOUS
 10
-12.60894
 20
-63.87628
 11
-12.10894
 21
-63.87628
  0
LINE
  8
別途部材
  6
CONTINUOUS
 10
-18.60894
 20
-64.87628
 11
-19.60894
 21
-63.87628
  0
LINE
  8
別途部材
  6
CONTINUOUS
 10
-20.60894
 20
-63.87628
 11
-21.60894
 21
-64.87628
  0
LINE
  8
別途部材
  6
CONTINUOUS
 10
-19.60894
 20
-63.87628
 11
-20.60894
 21
-63.87628
  0
LINE
  8
別途部材
  6
CONTINUOUS
 10
-22.60894
 20
-64.87628
 11
-23.60894
 21
-63.87628
  0
LINE
  8
別途部材
  6
CONTINUOUS
 10
-24.60894
 20
-63.87628
 11
-25.60894
 21
-64.87628
  0
LINE
  8
別途部材
  6
CONTINUOUS
 10
-23.60894
 20
-63.87628
 11
-24.60894
 21
-63.87628
  0
LINE
  8
別途部材
  6
CONTINUOUS
 10
-26.60894
 20
-64.87628
 11
-27.60894
 21
-63.87628
  0
LINE
  8
別途部材
  6
CONTINUOUS
 10
-28.60894
 20
-63.87628
 11
-29.60894
 21
-64.87628
  0
LINE
  8
別途部材
  6
CONTINUOUS
 10
-27.60894
 20
-63.87628
 11
-28.60894
 21
-63.87628
  0
LINE
  8
別途部材
  6
CONTINUOUS
 10
-30.60894
 20
-64.87628
 11
-31.60894
 21
-63.87628
  0
LINE
  8
別途部材
  6
CONTINUOUS
 10
-32.60894
 20
-63.87628
 11
-33.60894
 21
-64.87628
  0
LINE
  8
別途部材
  6
CONTINUOUS
 10
-31.60894
 20
-63.87628
 11
-32.60894
 21
-63.87628
  0
LINE
  8
別途部材
  6
CONTINUOUS
 10
-34.60894
 20
-64.87628
 11
-35.60894
 21
-63.87628
  0
LINE
  8
別途部材
  6
CONTINUOUS
 10
-36.60894
 20
-63.87628
 11
-37.60894
 21
-64.87628
  0
LINE
  8
別途部材
  6
CONTINUOUS
 10
-35.60894
 20
-63.87628
 11
-36.60894
 21
-63.87628
  0
LINE
  8
別途部材
  6
CONTINUOUS
 10
-38.60894
 20
-64.87628
 11
-39.60894
 21
-63.87628
  0
LINE
  8
別途部材
  6
CONTINUOUS
 10
-40.60894
 20
-63.87628
 11
-41.60894
 21
-64.87628
  0
LINE
  8
別途部材
  6
CONTINUOUS
 10
-39.60894
 20
-63.87628
 11
-40.60894
 21
-63.87628
  0
LINE
  8
別途部材
  6
CONTINUOUS
 10
-42.60894
 20
-64.87628
 11
-43.60894
 21
-63.87628
  0
LINE
  8
別途部材
  6
CONTINUOUS
 10
-44.60894
 20
-63.87628
 11
-45.60894
 21
-64.87628
  0
LINE
  8
別途部材
  6
CONTINUOUS
 10
-43.60894
 20
-63.87628
 11
-44.60894
 21
-63.87628
  0
LINE
  8
別途部材
  6
CONTINUOUS
 10
-46.60894
 20
-64.87628
 11
-47.60894
 21
-63.87628
  0
LINE
  8
別途部材
  6
CONTINUOUS
 10
-48.60894
 20
-63.87628
 11
-49.60894
 21
-64.87628
  0
LINE
  8
別途部材
  6
CONTINUOUS
 10
-47.60894
 20
-63.87628
 11
-48.60894
 21
-63.87628
  0
LINE
  8
別途部材
  6
CONTINUOUS
 10
-50.60894
 20
-64.87628
 11
-51.60894
 21
-63.87628
  0
LINE
  8
別途部材
  6
CONTINUOUS
 10
-52.60894
 20
-63.87628
 11
-53.60894
 21
-64.87628
  0
LINE
  8
別途部材
  6
CONTINUOUS
 10
-51.60894
 20
-63.87628
 11
-52.60894
 21
-63.87628
  0
LINE
  8
別途部材
  6
CONTINUOUS
 10
-54.60894
 20
-64.87628
 11
-55.60894
 21
-63.87628
  0
LINE
  8
別途部材
  6
CONTINUOUS
 10
-56.60894
 20
-63.87628
 11
-57.60894
 21
-64.87628
  0
LINE
  8
別途部材
  6
CONTINUOUS
 10
-55.60894
 20
-63.87628
 11
-56.60894
 21
-63.87628
  0
LINE
  8
別途部材
  6
CONTINUOUS
 10
-53.60894
 20
-64.87628
 11
-54.60894
 21
-64.87628
  0
LINE
  8
別途部材
  6
CONTINUOUS
 10
-49.60894
 20
-64.87628
 11
-50.60894
 21
-64.87628
  0
LINE
  8
別途部材
  6
CONTINUOUS
 10
-45.60894
 20
-64.87628
 11
-46.60894
 21
-64.87628
  0
LINE
  8
別途部材
  6
CONTINUOUS
 10
-41.60894
 20
-64.87628
 11
-42.60894
 21
-64.87628
  0
LINE
  8
別途部材
  6
CONTINUOUS
 10
-37.60894
 20
-64.87628
 11
-38.60894
 21
-64.87628
  0
LINE
  8
別途部材
  6
CONTINUOUS
 10
-33.60894
 20
-64.87628
 11
-34.60894
 21
-64.87628
  0
LINE
  8
別途部材
  6
CONTINUOUS
 10
-29.60894
 20
-64.87628
 11
-30.60894
 21
-64.87628
  0
LINE
  8
別途部材
  6
CONTINUOUS
 10
-25.60894
 20
-64.87628
 11
-26.60894
 21
-64.87628
  0
LINE
  8
別途部材
  6
CONTINUOUS
 10
-21.60894
 20
-64.87628
 11
-22.60894
 21
-64.87628
  0
LINE
  8
別途部材
  6
CONTINUOUS
 10
-17.60894
 20
-64.87628
 11
-18.60894
 21
-64.87628
  0
LINE
  8
別途部材
  6
CONTINUOUS
 10
-14.60894
 20
-64.87628
 11
-13.60894
 21
-64.87628
  0
LINE
  8
別途部材
  6
CONTINUOUS
 10
-56.60894
 20
-63.87628
 11
-56.60894
 21
-70.209613
  0
LINE
  8
別途部材
  6
CONTINUOUS
 10
-57.60894
 20
-64.87628
 11
-57.60894
 21
-70.209613
  0
LINE
  8
別途部材
  6
CONTINUOUS
 10
-55.60894
 20
-63.87628
 11
-55.60894
 21
-70.209613
  0
LINE
  8
別途部材
  6
CONTINUOUS
 10
-54.60894
 20
-64.87628
 11
-54.60894
 21
-70.209613
  0
LINE
  8
別途部材
  6
CONTINUOUS
 10
-52.60894
 20
-63.87628
 11
-52.60894
 21
-70.209613
  0
LINE
  8
別途部材
  6
CONTINUOUS
 10
-53.60894
 20
-64.87628
 11
-53.60894
 21
-70.209613
  0
LINE
  8
別途部材
  6
CONTINUOUS
 10
-49.60894
 20
-64.87628
 11
-49.60894
 21
-70.209613
  0
LINE
  8
別途部材
  6
CONTINUOUS
 10
-50.60894
 20
-64.87628
 11
-50.60894
 21
-70.209613
  0
LINE
  8
別途部材
  6
CONTINUOUS
 10
-51.60894
 20
-63.87628
 11
-51.60894
 21
-70.209613
  0
LINE
  8
別途部材
  6
CONTINUOUS
 10
-48.60894
 20
-63.87628
 11
-48.60894
 21
-70.209613
  0
LINE
  8
別途部材
  6
CONTINUOUS
 10
-47.60894
 20
-63.87628
 11
-47.60894
 21
-70.209613
  0
LINE
  8
別途部材
  6
CONTINUOUS
 10
-46.60894
 20
-64.87628
 11
-46.60894
 21
-70.209613
  0
LINE
  8
別途部材
  6
CONTINUOUS
 10
-44.60894
 20
-63.87628
 11
-44.60894
 21
-70.209613
  0
LINE
  8
別途部材
  6
CONTINUOUS
 10
-40.60894
 20
-63.87628
 11
-40.60894
 21
-70.209613
  0
LINE
  8
別途部材
  6
CONTINUOUS
 10
-41.60894
 20
-64.87628
 11
-41.60894
 21
-70.209613
  0
LINE
  8
別途部材
  6
CONTINUOUS
 10
-42.60894
 20
-64.87628
 11
-42.60894
 21
-70.209613
  0
LINE
  8
別途部材
  6
CONTINUOUS
 10
-43.60894
 20
-63.87628
 11
-43.60894
 21
-70.209613
  0
LINE
  8
別途部材
  6
CONTINUOUS
 10
-45.60894
 20
-64.87628
 11
-45.60894
 21
-70.209613
  0
LINE
  8
別途部材
  6
CONTINUOUS
 10
-38.60894
 20
-64.87628
 11
-38.60894
 21
-70.209613
  0
LINE
  8
別途部材
  6
CONTINUOUS
 10
-39.60894
 20
-63.87628
 11
-39.60894
 21
-70.209613
  0
LINE
  8
別途部材
  6
CONTINUOUS
 10
-37.60894
 20
-64.87628
 11
-37.60894
 21
-70.209613
  0
LINE
  8
別途部材
  6
CONTINUOUS
 10
-36.60894
 20
-63.87628
 11
-36.60894
 21
-70.209613
  0
LINE
  8
別途部材
  6
CONTINUOUS
 10
-32.60894
 20
-63.87628
 11
-32.60894
 21
-70.209613
  0
LINE
  8
別途部材
  6
CONTINUOUS
 10
-31.60894
 20
-63.87628
 11
-31.60894
 21
-70.209613
  0
LINE
  8
別途部材
  6
CONTINUOUS
 10
-33.60894
 20
-64.87628
 11
-33.60894
 21
-70.209613
  0
LINE
  8
別途部材
  6
CONTINUOUS
 10
-34.60894
 20
-64.87628
 11
-34.60894
 21
-70.209613
  0
LINE
  8
別途部材
  6
CONTINUOUS
 10
-35.60894
 20
-63.87628
 11
-35.60894
 21
-70.209613
  0
LINE
  8
別途部材
  6
CONTINUOUS
 10
-30.60894
 20
-64.87628
 11
-30.60894
 21
-70.209613
  0
LINE
  8
別途部材
  6
CONTINUOUS
 10
-28.60894
 20
-63.87628
 11
-28.60894
 21
-70.209613
  0
LINE
  8
別途部材
  6
CONTINUOUS
 10
-27.60894
 20
-63.87628
 11
-27.60894
 21
-70.209613
  0
LINE
  8
別途部材
  6
CONTINUOUS
 10
-26.60894
 20
-64.87628
 11
-26.60894
 21
-70.209613
  0
LINE
  8
別途部材
  6
CONTINUOUS
 10
-25.60894
 20
-64.87628
 11
-25.60894
 21
-70.209613
  0
LINE
  8
別途部材
  6
CONTINUOUS
 10
-24.60894
 20
-63.87628
 11
-24.60894
 21
-70.209613
  0
LINE
  8
別途部材
  6
CONTINUOUS
 10
-29.60894
 20
-64.87628
 11
-29.60894
 21
-70.209613
  0
LINE
  8
別途部材
  6
CONTINUOUS
 10
-23.60894
 20
-63.87628
 11
-23.60894
 21
-70.209613
  0
LINE
  8
別途部材
  6
CONTINUOUS
 10
-22.60894
 20
-64.87628
 11
-22.60894
 21
-70.209613
  0
LINE
  8
別途部材
  6
CONTINUOUS
 10
-21.60894
 20
-64.87628
 11
-21.60894
 21
-70.209613
  0
LINE
  8
別途部材
  6
CONTINUOUS
 10
-19.60894
 20
-63.87628
 11
-19.60894
 21
-70.209613
  0
LINE
  8
別途部材
  6
CONTINUOUS
 10
-17.60894
 20
-64.87628
 11
-17.60894
 21
-70.209613
  0
LINE
  8
別途部材
  6
CONTINUOUS
 10
-16.60894
 20
-63.87628
 11
-16.60894
 21
-70.209613
  0
LINE
  8
別途部材
  6
CONTINUOUS
 10
-14.60894
 20
-64.87628
 11
-14.60894
 21
-70.209613
  0
LINE
  8
別途部材
  6
CONTINUOUS
 10
-13.60894
 20
-64.87628
 11
-13.60894
 21
-70.209613
  0
LINE
  8
別途部材
  6
CONTINUOUS
 10
-12.60894
 20
-63.87628
 11
-12.60894
 21
-70.209613
  0
LINE
  8
別途部材
  6
CONTINUOUS
 10
-15.60894
 20
-63.87628
 11
-15.60894
 21
-70.209613
  0
LINE
  8
別途部材
  6
CONTINUOUS
 10
-18.60894
 20
-64.87628
 11
-18.60894
 21
-70.209613
  0
LINE
  8
別途部材
  6
CONTINUOUS
 10
-20.60894
 20
-63.87628
 11
-20.60894
 21
-70.209613
  0
LINE
  8
別途部材
  6
CONTINUOUS
 10
-57.60894
 20
-64.87628
 11
-60.442273
 21
-64.87628
  0
LINE
  8
別途部材
  6
CONTINUOUS
 62
    96
 10
47.89106
 20
-70.209613
 11
48.29106
 21
-71.209613
  0
ARC
  8
別途部材
  6
CONTINUOUS
 10
36.224392
 20
-76.917946
 40
12.041668
 50
33.855033
 51
90.0
  0
LINE
  8
別途部材
  6
CONTINUOUS
 10
48.29106
 20
-71.209613
 11
-12.10894
 21
-71.209613
  0
LINE
  8
別途部材
  6
CONTINUOUS
 62
    96
 10
47.89106
 20
-70.209613
 11
-12.10894
 21
-70.209613
  0
LINE
  8
別途部材
  6
CONTINUOUS
 10
-11.60894
 20
-63.87628
 11
-10.60894
 21
-64.87628
  0
LINE
  8
別途部材
  6
CONTINUOUS
 10
-9.60894
 20
-64.87628
 11
-8.60894
 21
-63.87628
  0
LINE
  8
別途部材
  6
CONTINUOUS
 10
-7.60894
 20
-63.87628
 11
-6.60894
 21
-64.87628
  0
LINE
  8
別途部材
  6
CONTINUOUS
 10
-8.60894
 20
-63.87628
 11
-7.60894
 21
-63.87628
  0
LINE
  8
別途部材
  6
CONTINUOUS
 10
-11.60894
 20
-63.87628
 11
-12.10894
 21
-63.87628
  0
LINE
  8
別途部材
  6
CONTINUOUS
 10
-5.60894
 20
-64.87628
 11
-4.60894
 21
-63.87628
  0
LINE
  8
別途部材
  6
CONTINUOUS
 10
-3.60894
 20
-63.87628
 11
-2.60894
 21
-64.87628
  0
LINE
  8
別途部材
  6
CONTINUOUS
 10
-4.60894
 20
-63.87628
 11
-3.60894
 21
-63.87628
  0
LINE
  8
別途部材
  6
CONTINUOUS
 10
-1.60894
 20
-64.87628
 11
-0.60894
 21
-63.87628
  0
LINE
  8
別途部材
  6
CONTINUOUS
 10
0.39106
 20
-63.87628
 11
1.39106
 21
-64.87628
  0
LINE
  8
別途部材
  6
CONTINUOUS
 10
-0.60894
 20
-63.87628
 11
0.39106
 21
-63.87628
  0
LINE
  8
別途部材
  6
CONTINUOUS
 10
2.39106
 20
-64.87628
 11
3.39106
 21
-63.87628
  0
LINE
  8
別途部材
  6
CONTINUOUS
 10
4.39106
 20
-63.87628
 11
5.39106
 21
-64.87628
  0
LINE
  8
別途部材
  6
CONTINUOUS
 10
3.39106
 20
-63.87628
 11
4.39106
 21
-63.87628
  0
LINE
  8
別途部材
  6
CONTINUOUS
 10
6.39106
 20
-64.87628
 11
7.39106
 21
-63.87628
  0
LINE
  8
別途部材
  6
CONTINUOUS
 10
8.39106
 20
-63.87628
 11
9.39106
 21
-64.87628
  0
LINE
  8
別途部材
  6
CONTINUOUS
 10
7.39106
 20
-63.87628
 11
8.39106
 21
-63.87628
  0
LINE
  8
別途部材
  6
CONTINUOUS
 10
10.39106
 20
-64.87628
 11
11.39106
 21
-63.87628
  0
LINE
  8
別途部材
  6
CONTINUOUS
 10
12.39106
 20
-63.87628
 11
13.39106
 21
-64.87628
  0
LINE
  8
別途部材
  6
CONTINUOUS
 10
11.39106
 20
-63.87628
 11
12.39106
 21
-63.87628
  0
LINE
  8
別途部材
  6
CONTINUOUS
 10
14.39106
 20
-64.87628
 11
15.39106
 21
-63.87628
  0
LINE
  8
別途部材
  6
CONTINUOUS
 10
16.39106
 20
-63.87628
 11
17.39106
 21
-64.87628
  0
LINE
  8
別途部材
  6
CONTINUOUS
 10
15.39106
 20
-63.87628
 11
16.39106
 21
-63.87628
  0
LINE
  8
別途部材
  6
CONTINUOUS
 10
18.39106
 20
-64.87628
 11
19.39106
 21
-63.87628
  0
LINE
  8
別途部材
  6
CONTINUOUS
 10
20.39106
 20
-63.87628
 11
21.39106
 21
-64.87628
  0
LINE
  8
別途部材
  6
CONTINUOUS
 10
19.39106
 20
-63.87628
 11
20.39106
 21
-63.87628
  0
LINE
  8
別途部材
  6
CONTINUOUS
 10
22.39106
 20
-64.87628
 11
23.39106
 21
-63.87628
  0
LINE
  8
別途部材
  6
CONTINUOUS
 10
24.39106
 20
-63.87628
 11
25.39106
 21
-64.87628
  0
LINE
  8
別途部材
  6
CONTINUOUS
 10
23.39106
 20
-63.87628
 11
24.39106
 21
-63.87628
  0
LINE
  8
別途部材
  6
CONTINUOUS
 10
26.39106
 20
-64.87628
 11
27.39106
 21
-63.87628
  0
LINE
  8
別途部材
  6
CONTINUOUS
 10
28.39106
 20
-63.87628
 11
29.39106
 21
-64.87628
  0
LINE
  8
別途部材
  6
CONTINUOUS
 10
27.39106
 20
-63.87628
 11
28.39106
 21
-63.87628
  0
LINE
  8
別途部材
  6
CONTINUOUS
 10
30.39106
 20
-64.87628
 11
31.39106
 21
-63.87628
  0
LINE
  8
別途部材
  6
CONTINUOUS
 10
32.39106
 20
-63.87628
 11
33.39106
 21
-64.87628
  0
LINE
  8
別途部材
  6
CONTINUOUS
 10
31.39106
 20
-63.87628
 11
32.39106
 21
-63.87628
  0
LINE
  8
別途部材
  6
CONTINUOUS
 10
29.39106
 20
-64.87628
 11
30.39106
 21
-64.87628
  0
LINE
  8
別途部材
  6
CONTINUOUS
 10
25.39106
 20
-64.87628
 11
26.39106
 21
-64.87628
  0
LINE
  8
別途部材
  6
CONTINUOUS
 10
21.39106
 20
-64.87628
 11
22.39106
 21
-64.87628
  0
LINE
  8
別途部材
  6
CONTINUOUS
 10
17.39106
 20
-64.87628
 11
18.39106
 21
-64.87628
  0
LINE
  8
別途部材
  6
CONTINUOUS
 10
13.39106
 20
-64.87628
 11
14.39106
 21
-64.87628
  0
LINE
  8
別途部材
  6
CONTINUOUS
 10
9.39106
 20
-64.87628
 11
10.39106
 21
-64.87628
  0
LINE
  8
別途部材
  6
CONTINUOUS
 10
5.39106
 20
-64.87628
 11
6.39106
 21
-64.87628
  0
LINE
  8
別途部材
  6
CONTINUOUS
 10
1.39106
 20
-64.87628
 11
2.39106
 21
-64.87628
  0
LINE
  8
別途部材
  6
CONTINUOUS
 10
-2.60894
 20
-64.87628
 11
-1.60894
 21
-64.87628
  0
LINE
  8
別途部材
  6
CONTINUOUS
 10
-6.60894
 20
-64.87628
 11
-5.60894
 21
-64.87628
  0
LINE
  8
別途部材
  6
CONTINUOUS
 10
-9.60894
 20
-64.87628
 11
-10.60894
 21
-64.87628
  0
LINE
  8
別途部材
  6
CONTINUOUS
 10
32.39106
 20
-63.87628
 11
32.39106
 21
-70.209613
  0
LINE
  8
別途部材
  6
CONTINUOUS
 10
33.39106
 20
-64.87628
 11
33.39106
 21
-70.209613
  0
LINE
  8
別途部材
  6
CONTINUOUS
 10
31.39106
 20
-63.87628
 11
31.39106
 21
-70.209613
  0
LINE
  8
別途部材
  6
CONTINUOUS
 10
30.39106
 20
-64.87628
 11
30.39106
 21
-70.209613
  0
LINE
  8
別途部材
  6
CONTINUOUS
 10
28.39106
 20
-63.87628
 11
28.39106
 21
-70.209613
  0
LINE
  8
別途部材
  6
CONTINUOUS
 10
29.39106
 20
-64.87628
 11
29.39106
 21
-70.209613
  0
LINE
  8
別途部材
  6
CONTINUOUS
 10
25.39106
 20
-64.87628
 11
25.39106
 21
-70.209613
  0
LINE
  8
別途部材
  6
CONTINUOUS
 10
26.39106
 20
-64.87628
 11
26.39106
 21
-70.209613
  0
LINE
  8
別途部材
  6
CONTINUOUS
 10
27.39106
 20
-63.87628
 11
27.39106
 21
-70.209613
  0
LINE
  8
別途部材
  6
CONTINUOUS
 10
24.39106
 20
-63.87628
 11
24.39106
 21
-70.209613
  0
LINE
  8
別途部材
  6
CONTINUOUS
 10
23.39106
 20
-63.87628
 11
23.39106
 21
-70.209613
  0
LINE
  8
別途部材
  6
CONTINUOUS
 10
22.39106
 20
-64.87628
 11
22.39106
 21
-70.209613
  0
LINE
  8
別途部材
  6
CONTINUOUS
 10
20.39106
 20
-63.87628
 11
20.39106
 21
-70.209613
  0
LINE
  8
別途部材
  6
CONTINUOUS
 10
16.39106
 20
-63.87628
 11
16.39106
 21
-70.209613
  0
LINE
  8
別途部材
  6
CONTINUOUS
 10
17.39106
 20
-64.87628
 11
17.39106
 21
-70.209613
  0
LINE
  8
別途部材
  6
CONTINUOUS
 10
18.39106
 20
-64.87628
 11
18.39106
 21
-70.209613
  0
LINE
  8
別途部材
  6
CONTINUOUS
 10
19.39106
 20
-63.87628
 11
19.39106
 21
-70.209613
  0
LINE
  8
別途部材
  6
CONTINUOUS
 10
21.39106
 20
-64.87628
 11
21.39106
 21
-70.209613
  0
LINE
  8
別途部材
  6
CONTINUOUS
 10
14.39106
 20
-64.87628
 11
14.39106
 21
-70.209613
  0
LINE
  8
別途部材
  6
CONTINUOUS
 10
15.39106
 20
-63.87628
 11
15.39106
 21
-70.209613
  0
LINE
  8
別途部材
  6
CONTINUOUS
 10
13.39106
 20
-64.87628
 11
13.39106
 21
-70.209613
  0
LINE
  8
別途部材
  6
CONTINUOUS
 10
12.39106
 20
-63.87628
 11
12.39106
 21
-70.209613
  0
LINE
  8
別途部材
  6
CONTINUOUS
 10
8.39106
 20
-63.87628
 11
8.39106
 21
-70.209613
  0
LINE
  8
別途部材
  6
CONTINUOUS
 10
7.39106
 20
-63.87628
 11
7.39106
 21
-70.209613
  0
LINE
  8
別途部材
  6
CONTINUOUS
 10
9.39106
 20
-64.87628
 11
9.39106
 21
-70.209613
  0
LINE
  8
別途部材
  6
CONTINUOUS
 10
10.39106
 20
-64.87628
 11
10.39106
 21
-70.209613
  0
LINE
  8
別途部材
  6
CONTINUOUS
 10
11.39106
 20
-63.87628
 11
11.39106
 21
-70.209613
  0
LINE
  8
別途部材
  6
CONTINUOUS
 10
6.39106
 20
-64.87628
 11
6.39106
 21
-70.209613
  0
LINE
  8
別途部材
  6
CONTINUOUS
 10
4.39106
 20
-63.87628
 11
4.39106
 21
-70.209613
  0
LINE
  8
別途部材
  6
CONTINUOUS
 10
3.39106
 20
-63.87628
 11
3.39106
 21
-70.209613
  0
LINE
  8
別途部材
  6
CONTINUOUS
 10
2.39106
 20
-64.87628
 11
2.39106
 21
-70.209613
  0
LINE
  8
別途部材
  6
CONTINUOUS
 10
1.39106
 20
-64.87628
 11
1.39106
 21
-70.209613
  0
LINE
  8
別途部材
  6
CONTINUOUS
 10
0.39106
 20
-63.87628
 11
0.39106
 21
-70.209613
  0
LINE
  8
別途部材
  6
CONTINUOUS
 10
5.39106
 20
-64.87628
 11
5.39106
 21
-70.209613
  0
LINE
  8
別途部材
  6
CONTINUOUS
 10
-0.60894
 20
-63.87628
 11
-0.60894
 21
-70.209613
  0
LINE
  8
別途部材
  6
CONTINUOUS
 10
-1.60894
 20
-64.87628
 11
-1.60894
 21
-70.209613
  0
LINE
  8
別途部材
  6
CONTINUOUS
 10
-2.60894
 20
-64.87628
 11
-2.60894
 21
-70.209613
  0
LINE
  8
別途部材
  6
CONTINUOUS
 10
-4.60894
 20
-63.87628
 11
-4.60894
 21
-70.209613
  0
LINE
  8
別途部材
  6
CONTINUOUS
 10
-6.60894
 20
-64.87628
 11
-6.60894
 21
-70.209613
  0
LINE
  8
別途部材
  6
CONTINUOUS
 10
-7.60894
 20
-63.87628
 11
-7.60894
 21
-70.209613
  0
LINE
  8
別途部材
  6
CONTINUOUS
 10
-9.60894
 20
-64.87628
 11
-9.60894
 21
-70.209613
  0
LINE
  8
別途部材
  6
CONTINUOUS
 10
-10.60894
 20
-64.87628
 11
-10.60894
 21
-70.209613
  0
LINE
  8
別途部材
  6
CONTINUOUS
 10
-11.60894
 20
-63.87628
 11
-11.60894
 21
-70.209613
  0
LINE
  8
別途部材
  6
CONTINUOUS
 10
-8.60894
 20
-63.87628
 11
-8.60894
 21
-70.209613
  0
LINE
  8
別途部材
  6
CONTINUOUS
 10
-5.60894
 20
-64.87628
 11
-5.60894
 21
-70.209613
  0
LINE
  8
別途部材
  6
CONTINUOUS
 10
-3.60894
 20
-63.87628
 11
-3.60894
 21
-70.209613
  0
LINE
  8
別途部材
  6
CONTINUOUS
 10
33.39106
 20
-64.87628
 11
36.224393
 21
-64.87628
  0
ENDBLK
  0
BLOCK
  2
*DIM_0014
 70
    65
 10
0.0
 20
0.0
  0
LINE
  8
寸法
  6
BYBLOCK
 62
     0
 10
145.328765
 20
-87.823622
 11
155.941423
 21
-87.823622
  0
LINE
  8
寸法
  6
BYBLOCK
 62
     0
 10
145.328765
 20
-68.49029
 11
155.941423
 21
-68.49029
  0
LINE
  8
寸法
  6
BYBLOCK
 62
     0
 10
155.941423
 20
-87.823622
 11
155.941423
 21
-68.49029
  0
POINT
  8
寸法
 62
     0
 10
155.941423
 20
-87.823622
  0
POINT
  8
寸法
 62
     0
 10
155.941423
 20
-68.49029
  0
TEXT
  7
TextStyle03
  8
寸法
  6
CONTINUOUS
 62
     0
 10
155.55
 20
-80.6125
  1
580
 40
3.0
 50
90.0
 72
     5
 11
155.55
 21
-75.7375
  0
ENDBLK
  0
BLOCK
  2
*DIM_0015
 70
    65
 10
0.0
 20
0.0
  0
LINE
  8
寸法
  6
BYBLOCK
 62
     0
 10
-73.442275
 20
39.4807
 11
-86.735113
 21
39.4807
  0
LINE
  8
寸法
  6
BYBLOCK
 62
     0
 10
-73.442275
 20
26.147365
 11
-86.735113
 21
26.147365
  0
LINE
  8
寸法
  6
BYBLOCK
 62
     0
 10
-86.735113
 20
39.4807
 11
-86.735113
 21
26.147365
  0
POINT
  8
寸法
 62
     0
 10
-86.735113
 20
39.4807
  0
POINT
  8
寸法
 62
     0
 10
-86.735113
 20
26.147365
  0
TEXT
  7
TextStyle03
  8
寸法
  6
CONTINUOUS
 62
     0
 10
-87.175
 20
30.3625
  1
400
 40
3.0
 50
90.0
 72
     5
 11
-87.175
 21
35.2375
  0
ENDBLK
  0
BLOCK
  2
*DIM_0016
 70
    65
 10
0.0
 20
0.0
  0
LINE
  8
寸法
  6
BYBLOCK
 62
     0
 10
-65.442273
 20
45.814033
 11
-65.442273
 21
74.922105
  0
LINE
  8
寸法
  6
BYBLOCK
 62
     0
 10
-38.775608
 20
45.814033
 11
-38.775608
 21
74.922105
  0
LINE
  8
寸法
  6
BYBLOCK
 62
     0
 10
-65.442273
 20
74.922105
 11
-38.775608
 21
74.922105
  0
POINT
  8
寸法
 62
     0
 10
-65.442273
 20
74.922105
  0
POINT
  8
寸法
 62
     0
 10
-38.775608
 20
74.922105
  0
TEXT
  7
TextStyle03
  8
寸法
  6
CONTINUOUS
 62
     0
 10
-54.5625
 20
75.3
  1
800
 40
3.0
 72
     5
 11
-49.6875
 21
75.3
  0
ENDBLK
  0
BLOCK
  2
*DIM_0017
 70
    65
 10
0.0
 20
0.0
  0
LINE
  8
寸法
  6
BYBLOCK
 62
     0
 10
-12.10894
 20
45.814033
 11
-12.10894
 21
74.922105
  0
LINE
  8
寸法
  6
BYBLOCK
 62
     0
 10
-38.775608
 20
74.922105
 11
-12.10894
 21
74.922105
  0
POINT
  8
寸法
 62
     0
 10
-12.10894
 20
74.922105
  0
TEXT
  7
TextStyle03
  8
寸法
  6
CONTINUOUS
 62
     0
 10
-27.9125
 20
75.3
  1
800
 40
3.0
 72
     5
 11
-23.0375
 21
75.3
  0
ENDBLK
  0
BLOCK
  2
*DIM_0018
 70
    65
 10
0.0
 20
0.0
  0
LINE
  8
寸法
  6
BYBLOCK
 62
     0
 10
14.557727
 20
45.814033
 11
14.557727
 21
74.922105
  0
LINE
  8
寸法
  6
BYBLOCK
 62
     0
 10
-12.10894
 20
74.922105
 11
14.557727
 21
74.922105
  0
POINT
  8
寸法
 62
     0
 10
14.557727
 20
74.922105
  0
TEXT
  7
TextStyle03
  8
寸法
  6
CONTINUOUS
 62
     0
 10
-1.2375
 20
75.3
  1
800
 40
3.0
 72
     5
 11
3.6375
 21
75.3
  0
ENDBLK
  0
BLOCK
  2
*DIM_0019
 70
    65
 10
0.0
 20
0.0
  0
LINE
  8
寸法
  6
BYBLOCK
 62
     0
 10
41.224393
 20
45.814033
 11
41.224393
 21
74.922105
  0
LINE
  8
寸法
  6
BYBLOCK
 62
     0
 10
14.557727
 20
74.922105
 11
41.224393
 21
74.922105
  0
POINT
  8
寸法
 62
     0
 10
41.224393
 20
74.922105
  0
TEXT
  7
TextStyle03
  8
寸法
  6
CONTINUOUS
 62
     0
 10
25.4375
 20
75.3
  1
800
 40
3.0
 72
     5
 11
30.3125
 21
75.3
  0
ENDBLK
  0
BLOCK
  2
*DIM_0020
 70
    65
 10
0.0
 20
0.0
  0
LINE
  8
寸法
  6
CONTINUOUS
 10
104.828765
 20
-66.274323
 11
104.828765
 21
-53.791115
  0
LINE
  8
寸法
  6
CONTINUOUS
 10
142.762097
 20
-66.274323
 11
142.762097
 21
-53.791115
  0
LINE
  8
寸法
  6
CONTINUOUS
 10
104.828765
 20
-53.791115
 11
142.762097
 21
-53.791115
  0
POINT
  8
寸法
 10
104.828765
 20
-53.791115
  0
POINT
  8
寸法
 10
142.762097
 20
-53.791115
  0
TEXT
  7
TextStyle03
  8
寸法
  6
CONTINUOUS
 10
120.49375
 20
-53.425
  1
1138
 40
3.0
 72
     5
 11
127.05625
 21
-53.425
  0
ENDBLK
  0
BLOCK
  2
*GRP_0021
 70
    65
 10
0.0
 20
0.0
  0
LINE
  8
ボルト／ビス
  6
CONTINUOUS
 10
-71.10894
 20
-70.209613
 11
-71.10894
 21
-69.742945
  0
LINE
  8
ボルト／ビス
  6
CONTINUOUS
 10
-71.475608
 20
-70.209613
 11
-71.475608
 21
-70.142945
  0
LINE
  8
ボルト／ビス
  6
CONTINUOUS
 10
-71.475608
 20
-70.142945
 11
-70.742273
 21
-70.142945
  0
LINE
  8
ボルト／ビス
  6
CONTINUOUS
 10
-70.742273
 20
-70.142945
 11
-70.742273
 21
-70.209613
  0
LINE
  8
ボルト／ビス
  6
CONTINUOUS
 10
-71.475608
 20
-70.209613
 11
-70.742273
 21
-70.209613
  0
LINE
  8
ボルト／ビス
  6
CONTINUOUS
 10
-71.40894
 20
-70.109612
 11
-71.40894
 21
-70.142945
  0
LINE
  8
ボルト／ビス
  6
CONTINUOUS
 10
-71.40894
 20
-70.109612
 11
-70.80894
 21
-70.109612
  0
LINE
  8
ボルト／ビス
  6
CONTINUOUS
 10
-70.80894
 20
-70.109612
 11
-70.80894
 21
-70.142945
  0
LINE
  8
ボルト／ビス
  6
CONTINUOUS
 62
    64
 10
-71.269315
 20
-69.909613
 11
-71.30139
 21
-69.921288
  0
ARC
  8
ボルト／ビス
  6
CONTINUOUS
 62
    64
 10
-71.253277
 20
-70.014591
 40
0.104978
 50
62.721967
 51
90.0
  0
ARC
  8
ボルト／ビス
  6
CONTINUOUS
 62
    64
 10
-71.108939
 20
-70.312015
 40
0.402402
 50
76.165002
 51
103.834985
  0
LINE
  8
ボルト／ビス
  6
CONTINUOUS
 62
    64
 10
-70.948565
 20
-69.909613
 11
-70.91649
 21
-69.921288
  0
ARC
  8
ボルト／ビス
  6
CONTINUOUS
 62
    64
 10
-70.964601
 20
-70.014591
 40
0.104978
 50
90.0
 51
117.278033
  0
LINE
  8
ボルト／ビス
  6
CONTINUOUS
 62
    64
 10
-71.269315
 20
-69.909613
 11
-70.948565
 21
-69.909613
  0
LINE
  8
ボルト／ビス
  6
CONTINUOUS
 62
    64
 10
-70.91649
 20
-69.921288
 11
-70.91649
 21
-70.042945
  0
LINE
  8
ボルト／ビス
  6
CONTINUOUS
 62
    64
 10
-71.012715
 20
-69.921288
 11
-71.012715
 21
-70.042945
  0
LINE
  8
ボルト／ビス
  6
CONTINUOUS
 62
    64
 10
-71.30139
 20
-69.921288
 11
-71.30139
 21
-70.042945
  0
LINE
  8
ボルト／ビス
  6
CONTINUOUS
 62
    64
 10
-71.205165
 20
-69.921288
 11
-71.205165
 21
-70.042945
  0
LINE
  8
ボルト／ビス
  6
CONTINUOUS
 10
-71.30139
 20
-70.042945
 11
-70.91649
 21
-70.042945
  0
LINE
  8
ボルト／ビス
  6
CONTINUOUS
 10
-71.30894
 20
-70.042945
 11
-71.30894
 21
-70.109612
  0
LINE
  8
ボルト／ビス
  6
CONTINUOUS
 10
-71.30894
 20
-70.042945
 11
-70.90894
 21
-70.042945
  0
LINE
  8
ボルト／ビス
  6
CONTINUOUS
 10
-70.90894
 20
-70.042945
 11
-70.90894
 21
-70.109612
  0
ENDBLK
  0
BLOCK
  2
*GRP_0022
 70
    65
 10
0.0
 20
0.0
  0
LINE
  8
ボルト／ビス
  6
CONTINUOUS
 10
46.89106
 20
-70.209613
 11
46.89106
 21
-69.742945
  0
LINE
  8
ボルト／ビス
  6
CONTINUOUS
 10
46.524393
 20
-70.209613
 11
46.524393
 21
-70.142945
  0
LINE
  8
ボルト／ビス
  6
CONTINUOUS
 10
46.524393
 20
-70.142945
 11
47.257727
 21
-70.142945
  0
LINE
  8
ボルト／ビス
  6
CONTINUOUS
 10
47.257727
 20
-70.142945
 11
47.257727
 21
-70.209613
  0
LINE
  8
ボルト／ビス
  6
CONTINUOUS
 10
46.524393
 20
-70.209613
 11
47.257727
 21
-70.209613
  0
LINE
  8
ボルト／ビス
  6
CONTINUOUS
 10
46.59106
 20
-70.109612
 11
46.59106
 21
-70.142945
  0
LINE
  8
ボルト／ビス
  6
CONTINUOUS
 10
46.59106
 20
-70.109612
 11
47.19106
 21
-70.109612
  0
LINE
  8
ボルト／ビス
  6
CONTINUOUS
 10
47.19106
 20
-70.109612
 11
47.19106
 21
-70.142945
  0
LINE
  8
ボルト／ビス
  6
CONTINUOUS
 62
    64
 10
46.730685
 20
-69.909613
 11
46.69861
 21
-69.921288
  0
ARC
  8
ボルト／ビス
  6
CONTINUOUS
 62
    64
 10
46.746723
 20
-70.014591
 40
0.104978
 50
62.721967
 51
90.0
  0
ARC
  8
ボルト／ビス
  6
CONTINUOUS
 62
    64
 10
46.891061
 20
-70.312015
 40
0.402402
 50
76.165002
 51
103.834985
  0
LINE
  8
ボルト／ビス
  6
CONTINUOUS
 62
    64
 10
47.051435
 20
-69.909613
 11
47.08351
 21
-69.921288
  0
ARC
  8
ボルト／ビス
  6
CONTINUOUS
 62
    64
 10
47.035399
 20
-70.014591
 40
0.104978
 50
90.0
 51
117.278033
  0
LINE
  8
ボルト／ビス
  6
CONTINUOUS
 62
    64
 10
46.730685
 20
-69.909613
 11
47.051435
 21
-69.909613
  0
LINE
  8
ボルト／ビス
  6
CONTINUOUS
 62
    64
 10
47.08351
 20
-69.921288
 11
47.08351
 21
-70.042945
  0
LINE
  8
ボルト／ビス
  6
CONTINUOUS
 62
    64
 10
46.987285
 20
-69.921288
 11
46.987285
 21
-70.042945
  0
LINE
  8
ボルト／ビス
  6
CONTINUOUS
 62
    64
 10
46.69861
 20
-69.921288
 11
46.69861
 21
-70.042945
  0
LINE
  8
ボルト／ビス
  6
CONTINUOUS
 62
    64
 10
46.794835
 20
-69.921288
 11
46.794835
 21
-70.042945
  0
LINE
  8
ボルト／ビス
  6
CONTINUOUS
 10
46.69861
 20
-70.042945
 11
47.08351
 21
-70.042945
  0
LINE
  8
ボルト／ビス
  6
CONTINUOUS
 10
46.69106
 20
-70.042945
 11
46.69106
 21
-70.109612
  0
LINE
  8
ボルト／ビス
  6
CONTINUOUS
 10
46.69106
 20
-70.042945
 11
47.09106
 21
-70.042945
  0
LINE
  8
ボルト／ビス
  6
CONTINUOUS
 10
47.09106
 20
-70.042945
 11
47.09106
 21
-70.109612
  0
ENDBLK
  0
BLOCK
  2
*GRP_0023
 70
    65
 10
0.0
 20
0.0
  0
LINE
  8
ボルト／ビス
  6
CONTINUOUS
 10
135.757657
 20
22.147365
 11
135.29099
 21
22.147365
  0
LINE
  8
ボルト／ビス
  6
CONTINUOUS
 10
135.757657
 20
21.780697
 11
135.69099
 21
21.780697
  0
LINE
  8
ボルト／ビス
  6
CONTINUOUS
 10
135.69099
 20
21.780697
 11
135.69099
 21
22.514033
  0
LINE
  8
ボルト／ビス
  6
CONTINUOUS
 10
135.69099
 20
22.514033
 11
135.757657
 21
22.514033
  0
LINE
  8
ボルト／ビス
  6
CONTINUOUS
 10
135.757657
 20
21.780697
 11
135.757657
 21
22.514033
  0
LINE
  8
ボルト／ビス
  6
CONTINUOUS
 10
135.657657
 20
21.847365
 11
135.69099
 21
21.847365
  0
LINE
  8
ボルト／ビス
  6
CONTINUOUS
 10
135.657657
 20
21.847365
 11
135.657657
 21
22.447365
  0
LINE
  8
ボルト／ビス
  6
CONTINUOUS
 10
135.657657
 20
22.447365
 11
135.69099
 21
22.447365
  0
LINE
  8
ボルト／ビス
  6
CONTINUOUS
 62
    64
 10
135.457657
 20
21.98699
 11
135.469333
 21
21.954915
  0
ARC
  8
ボルト／ビス
  6
CONTINUOUS
 62
    64
 10
135.562636
 20
22.003027
 40
0.104978
 50
152.721967
 51
180.0
  0
ARC
  8
ボルト／ビス
  6
CONTINUOUS
 62
    64
 10
135.86006
 20
22.147365
 40
0.402402
 50
166.165002
 51
193.834985
  0
LINE
  8
ボルト／ビス
  6
CONTINUOUS
 62
    64
 10
135.457657
 20
22.30774
 11
135.469333
 21
22.339815
  0
ARC
  8
ボルト／ビス
  6
CONTINUOUS
 62
    64
 10
135.562636
 20
22.291703
 40
0.104978
 50
180.0
 51
207.278033
  0
LINE
  8
ボルト／ビス
  6
CONTINUOUS
 62
    64
 10
135.457657
 20
21.98699
 11
135.457657
 21
22.30774
  0
LINE
  8
ボルト／ビス
  6
CONTINUOUS
 62
    64
 10
135.469333
 20
22.339815
 11
135.59099
 21
22.339815
  0
LINE
  8
ボルト／ビス
  6
CONTINUOUS
 62
    64
 10
135.469333
 20
22.24359
 11
135.59099
 21
22.24359
  0
LINE
  8
ボルト／ビス
  6
CONTINUOUS
 62
    64
 10
135.469333
 20
21.954915
 11
135.59099
 21
21.954915
  0
LINE
  8
ボルト／ビス
  6
CONTINUOUS
 62
    64
 10
135.469333
 20
22.05114
 11
135.59099
 21
22.05114
  0
LINE
  8
ボルト／ビス
  6
CONTINUOUS
 10
135.59099
 20
21.954915
 11
135.59099
 21
22.339815
  0
LINE
  8
ボルト／ビス
  6
CONTINUOUS
 10
135.59099
 20
21.947365
 11
135.657657
 21
21.947365
  0
LINE
  8
ボルト／ビス
  6
CONTINUOUS
 10
135.59099
 20
21.947365
 11
135.59099
 21
22.347365
  0
LINE
  8
ボルト／ビス
  6
CONTINUOUS
 10
135.59099
 20
22.347365
 11
135.657657
 21
22.347365
  0
ENDBLK
  0
BLOCK
  2
*GRP_0024
 70
    65
 10
0.0
 20
0.0
  0
LINE
  8
ボルト／ビス
  6
CONTINUOUS
 10
135.757657
 20
43.4807
 11
135.29099
 21
43.4807
  0
LINE
  8
ボルト／ビス
  6
CONTINUOUS
 10
135.757657
 20
43.114033
 11
135.69099
 21
43.114033
  0
LINE
  8
ボルト／ビス
  6
CONTINUOUS
 10
135.69099
 20
43.114033
 11
135.69099
 21
43.847367
  0
LINE
  8
ボルト／ビス
  6
CONTINUOUS
 10
135.69099
 20
43.847367
 11
135.757657
 21
43.847367
  0
LINE
  8
ボルト／ビス
  6
CONTINUOUS
 10
135.757657
 20
43.114033
 11
135.757657
 21
43.847367
  0
LINE
  8
ボルト／ビス
  6
CONTINUOUS
 10
135.657657
 20
43.1807
 11
135.69099
 21
43.1807
  0
LINE
  8
ボルト／ビス
  6
CONTINUOUS
 10
135.657657
 20
43.1807
 11
135.657657
 21
43.7807
  0
LINE
  8
ボルト／ビス
  6
CONTINUOUS
 10
135.657657
 20
43.7807
 11
135.69099
 21
43.7807
  0
LINE
  8
ボルト／ビス
  6
CONTINUOUS
 62
    64
 10
135.457657
 20
43.320325
 11
135.469333
 21
43.28825
  0
ARC
  8
ボルト／ビス
  6
CONTINUOUS
 62
    64
 10
135.562636
 20
43.336362
 40
0.104978
 50
152.721967
 51
180.0
  0
ARC
  8
ボルト／ビス
  6
CONTINUOUS
 62
    64
 10
135.86006
 20
43.4807
 40
0.402402
 50
166.165002
 51
193.834985
  0
LINE
  8
ボルト／ビス
  6
CONTINUOUS
 62
    64
 10
135.457657
 20
43.641075
 11
135.469333
 21
43.67315
  0
ARC
  8
ボルト／ビス
  6
CONTINUOUS
 62
    64
 10
135.562636
 20
43.625038
 40
0.104978
 50
180.0
 51
207.278033
  0
LINE
  8
ボルト／ビス
  6
CONTINUOUS
 62
    64
 10
135.457657
 20
43.320325
 11
135.457657
 21
43.641075
  0
LINE
  8
ボルト／ビス
  6
CONTINUOUS
 62
    64
 10
135.469333
 20
43.67315
 11
135.59099
 21
43.67315
  0
LINE
  8
ボルト／ビス
  6
CONTINUOUS
 62
    64
 10
135.469333
 20
43.576925
 11
135.59099
 21
43.576925
  0
LINE
  8
ボルト／ビス
  6
CONTINUOUS
 62
    64
 10
135.469333
 20
43.28825
 11
135.59099
 21
43.28825
  0
LINE
  8
ボルト／ビス
  6
CONTINUOUS
 62
    64
 10
135.469333
 20
43.384475
 11
135.59099
 21
43.384475
  0
LINE
  8
ボルト／ビス
  6
CONTINUOUS
 10
135.59099
 20
43.28825
 11
135.59099
 21
43.67315
  0
LINE
  8
ボルト／ビス
  6
CONTINUOUS
 10
135.59099
 20
43.2807
 11
135.657657
 21
43.2807
  0
LINE
  8
ボルト／ビス
  6
CONTINUOUS
 10
135.59099
 20
43.2807
 11
135.59099
 21
43.6807
  0
LINE
  8
ボルト／ビス
  6
CONTINUOUS
 10
135.59099
 20
43.6807
 11
135.657657
 21
43.6807
  0
ENDBLK
  0
ENDSEC
  0
SECTION
  2
ENTITIES
  0
POLYLINE
  8
通り芯
  6
CONTINUOUS
 66
     1
 70
     1
  0
VERTEX
  8
通り芯
 10
-210.0
 20
-148.5
  0
VERTEX
  8
通り芯
 10
210.0
 20
-148.5
  0
VERTEX
  8
通り芯
 10
210.0
 20
148.5
  0
VERTEX
  8
通り芯
 10
-210.0
 20
148.5
  0
SEQEND
  0
INSERT
  2
*GRP_0001
  8
型材断面
  6
CONTINUOUS
 10
0.0
 20
0.0
  0
LINE
  8
型材断面
  6
DASHDOT
 10
46.224393
 20
-77.836442
 11
46.224393
 21
42.814033
  0
LINE
  8
型材断面
  6
DASHDOT
 10
-12.10894
 20
-77.836442
 11
-12.10894
 21
42.814033
  0
LINE
  8
型材断面
  6
DASHDOT
 10
-70.442275
 20
-77.836442
 11
-70.442275
 21
42.814033
  0
LINE
  8
型材断面
  6
DASHDOT
 10
143.901155
 20
42.814033
 11
-70.442275
 21
42.814033
  0
LINE
  8
型材断面
  6
DASHDOT
 10
143.901155
 20
32.814033
 11
-70.442275
 21
32.814033
  0
LINE
  8
型材断面
  6
DASHDOT
 10
143.901155
 20
22.814033
 11
-70.442275
 21
22.814033
  0
LINE
  8
型材断面
  6
CONTINUOUS
 10
-53.775608
 20
45.444162
 11
-55.271238
 21
48.03467
  0
LINE
  8
型材断面
  6
CONTINUOUS
 10
-53.775608
 20
45.444162
 11
-52.279978
 21
48.03467
  0
LINE
  8
型材断面
  6
CONTINUOUS
 10
-52.279978
 20
48.03467
 11
-55.271238
 21
48.03467
  0
LINE
  8
型材断面
  6
CONTINUOUS
 10
-111.294482
 20
87.32138
 11
-112.790113
 21
84.730873
  0
LINE
  8
型材断面
  6
CONTINUOUS
 10
-111.294482
 20
87.32138
 11
-109.798852
 21
84.730873
  0
LINE
  8
型材断面
  6
CONTINUOUS
 10
-109.798852
 20
84.730873
 11
-112.790113
 21
84.730873
  0
LINE
  8
型材断面
  6
CONTINUOUS
 10
-117.31707
 20
83.792277
 11
-71.075292
 21
83.792277
  0
LINE
  8
型材断面
  6
CONTINUOUS
 10
-73.072405
 20
32.814033
 11
-75.662913
 21
34.309663
  0
LINE
  8
型材断面
  6
CONTINUOUS
 10
-73.072405
 20
32.814033
 11
-75.662913
 21
31.318403
  0
LINE
  8
型材断面
  6
CONTINUOUS
 10
-75.662913
 20
31.318403
 11
-75.662913
 21
34.309663
  0
LINE
  8
型材断面
  6
CONTINUOUS
 10
-53.775608
 20
20.183902
 11
-55.271238
 21
17.593395
  0
LINE
  8
型材断面
  6
CONTINUOUS
 10
-53.775608
 20
20.183902
 11
-52.279978
 21
17.593395
  0
LINE
  8
型材断面
  6
CONTINUOUS
 10
-52.279978
 20
17.593395
 11
-55.271238
 21
17.593395
  0
LINE
  8
型材断面
  6
CONTINUOUS
 10
29.557727
 20
45.444162
 11
31.053357
 21
48.03467
  0
LINE
  8
型材断面
  6
CONTINUOUS
 10
29.557727
 20
45.444162
 11
28.062097
 21
48.03467
  0
LINE
  8
型材断面
  6
CONTINUOUS
 10
28.062097
 20
48.03467
 11
31.053357
 21
48.03467
  0
LINE
  8
型材断面
  6
CONTINUOUS
 10
48.854525
 20
32.814033
 11
51.445032
 21
34.309663
  0
LINE
  8
型材断面
  6
CONTINUOUS
 10
48.854525
 20
32.814033
 11
51.445032
 21
31.318403
  0
LINE
  8
型材断面
  6
CONTINUOUS
 10
51.445032
 20
31.318403
 11
51.445032
 21
34.309663
  0
LINE
  8
型材断面
  6
CONTINUOUS
 10
29.557727
 20
20.183902
 11
31.053357
 21
17.593395
  0
LINE
  8
型材断面
  6
CONTINUOUS
 10
29.557727
 20
20.183902
 11
28.062097
 21
17.593395
  0
LINE
  8
型材断面
  6
CONTINUOUS
 10
28.062097
 20
17.593395
 11
31.053357
 21
17.593395
  0
LINE
  8
型材断面
  6
CONTINUOUS
 10
-117.31707
 20
77.835802
 11
-71.075292
 21
77.835802
  0
LINE
  8
型材断面
  6
CONTINUOUS
 10
138.290942
 20
20.65722
 11
137.840942
 21
20.65722
  0
LINE
  8
型材断面
  6
CONTINUOUS
 62
    47
 10
137.840942
 20
20.20722
 11
137.340942
 21
20.20722
  0
LINE
  8
型材断面
  6
CONTINUOUS
 62
    47
 10
137.340942
 20
20.20722
 11
136.757657
 21
22.081677
  0
LINE
  8
型材断面
  6
CONTINUOUS
 10
137.340942
 20
20.20722
 11
137.340942
 21
32.814033
  0
LINE
  8
型材断面
  6
CONTINUOUS
 10
138.290942
 20
20.65722
 11
138.290942
 21
32.814033
  0
LINE
  8
型材断面
  6
CONTINUOUS
 10
138.290942
 20
44.970845
 11
137.840942
 21
44.970845
  0
LINE
  8
型材断面
  6
CONTINUOUS
 62
    47
 10
137.840942
 20
45.420845
 11
137.340942
 21
45.420845
  0
LINE
  8
型材断面
  6
CONTINUOUS
 62
    47
 10
137.340942
 20
45.420845
 11
136.757657
 21
43.546387
  0
LINE
  8
型材断面
  6
CONTINUOUS
 10
137.340942
 20
45.420845
 11
137.340942
 21
32.814033
  0
LINE
  8
型材断面
  6
CONTINUOUS
 10
138.290942
 20
44.970845
 11
138.290942
 21
32.814033
  0
LINE
  8
型材断面
  6
CONTINUOUS
 10
-72.599085
 20
-72.742897
 11
-72.599085
 21
-72.292897
  0
LINE
  8
型材断面
  6
CONTINUOUS
 62
    47
 10
-73.049085
 20
-72.292897
 11
-73.049085
 21
-71.792897
  0
LINE
  8
型材断面
  6
CONTINUOUS
 62
    47
 10
-73.049085
 20
-71.792897
 11
-71.174628
 21
-71.209613
  0
LINE
  8
型材断面
  6
CONTINUOUS
 10
-73.049085
 20
-71.792897
 11
-12.10894
 21
-71.792897
  0
LINE
  8
型材断面
  6
CONTINUOUS
 10
-72.599085
 20
-72.742897
 11
-12.10894
 21
-72.742897
  0
LINE
  8
型材断面
  6
CONTINUOUS
 10
48.381205
 20
-72.742897
 11
48.381205
 21
-72.292897
  0
LINE
  8
型材断面
  6
CONTINUOUS
 62
    47
 10
48.831205
 20
-72.292897
 11
48.831205
 21
-71.792897
  0
LINE
  8
型材断面
  6
CONTINUOUS
 62
    47
 10
48.831205
 20
-71.792897
 11
46.956747
 21
-71.209613
  0
LINE
  8
型材断面
  6
CONTINUOUS
 10
48.831205
 20
-71.792897
 11
-12.10894
 21
-71.792897
  0
LINE
  8
型材断面
  6
CONTINUOUS
 10
48.381205
 20
-72.742897
 11
-12.10894
 21
-72.742897
  0
LINE
  8
型材断面
  6
CONTINUOUS
 10
48.29106
 20
20.747365
 11
48.831205
 21
20.20722
  0
LINE
  8
型材断面
  6
CONTINUOUS
 10
48.831205
 20
20.20722
 11
-12.10894
 21
20.20722
  0
LINE
  8
型材断面
  6
CONTINUOUS
 10
48.831205
 20
20.20722
 11
48.831205
 21
32.814033
  0
LINE
  8
型材断面
  6
CONTINUOUS
 10
48.29106
 20
44.8807
 11
48.831205
 21
45.420845
  0
LINE
  8
型材断面
  6
CONTINUOUS
 10
48.831205
 20
45.420845
 11
-12.10894
 21
45.420845
  0
LINE
  8
型材断面
  6
CONTINUOUS
 10
48.831205
 20
45.420845
 11
48.831205
 21
32.814033
  0
LINE
  8
型材断面
  6
CONTINUOUS
 10
-72.50894
 20
44.8807
 11
-73.049085
 21
45.420845
  0
LINE
  8
型材断面
  6
CONTINUOUS
 10
-73.049085
 20
45.420845
 11
-12.10894
 21
45.420845
  0
LINE
  8
型材断面
  6
CONTINUOUS
 10
-73.049085
 20
45.420845
 11
-73.049085
 21
32.814033
  0
LINE
  8
型材断面
  6
CONTINUOUS
 10
-72.50894
 20
20.747365
 11
-73.049085
 21
20.20722
  0
LINE
  8
型材断面
  6
CONTINUOUS
 10
-73.049085
 20
20.20722
 11
-12.10894
 21
20.20722
  0
LINE
  8
型材断面
  6
CONTINUOUS
 10
-73.049085
 20
20.20722
 11
-73.049085
 21
32.814033
  0
LINE
  8
型材断面
  6
DOT
 10
-30.37561
 20
22.814033
 11
-30.37561
 21
42.814033
  0
LINE
  8
型材断面
  6
DASHDOT
 10
-31.62561
 20
22.814033
 11
-31.62561
 21
42.814033
  0
LINE
  8
型材断面
  6
DOT
 10
-32.87561
 20
22.814033
 11
-32.87561
 21
42.814033
  0
LINE
  8
型材断面
  6
DOT
 10
6.15773
 20
22.814033
 11
6.15773
 21
42.814033
  0
LINE
  8
型材断面
  6
DASHDOT
 10
7.40773
 20
22.814033
 11
7.40773
 21
42.814033
  0
LINE
  8
型材断面
  6
DOT
 10
8.65773
 20
22.814033
 11
8.65773
 21
42.814033
  0
LINE
  8
ガラス
  6
CONTINUOUS
 10
104.828765
 20
-87.823622
 11
104.828765
 21
-68.49029
  0
LINE
  8
ガラス
  6
CONTINUOUS
 10
142.762097
 20
-87.823622
 11
142.762097
 21
-68.49029
  0
LINE
  8
ガラス
  6
CONTINUOUS
 10
104.828765
 20
-68.49029
 11
142.762097
 21
-68.49029
  0
LINE
  8
ガラス
  6
CONTINUOUS
 10
104.828765
 20
-87.823622
 11
142.762097
 21
-87.823622
  0
TEXT
  7
TextStyle03
  8
文字
  6
CONTINUOUS
 10
-108.5
 20
84.95
  1
は排水穴位置を示す
 40
3.0
 72
     5
 11
-78.5
 21
84.95
  0
TEXT
  7
TextStyle03
  8
文字
  6
CONTINUOUS
 10
124.05
 20
-81.275
  1
網入り6.8t
 40
3.0
 72
     5
 11
140.7375
 21
-81.275
  0
TEXT
  7
TextStyle03
  8
文字
  6
CONTINUOUS
 10
130.725
 20
-85.95
  1
×３枚
 40
3.0
 72
     5
 11
140.475
 21
-85.95
  0
TEXT
  7
TextStyle03
  8
文字
  6
CONTINUOUS
 10
-91.525
 20
11.275
  1
アンカーピッチ
 40
3.0
 50
90.0
 72
     5
 11
-91.525
 21
34.525
  0
TEXT
  7
TextStyle03
  8
文字
  6
CONTINUOUS
 10
-59.3
 20
79.775
  1
アンカーピッチ
 40
3.0
 72
     5
 11
-36.05
 21
79.775
  0
TEXT
  7
TextStyle03
  8
文字
  6
CONTINUOUS
 10
-112.225
 20
78.775
  1
アンカー数量　１４ヶ所
 40
3.0
 72
     5
 11
-75.475
 21
78.775
  0
TEXT
  7
TextStyle03
  8
文字
  6
CONTINUOUS
 10
78.1
 20
125.25
  1
シリーズ：ＳＴＤＫＬ
 40
5.0
 72
     5
 11
133.725
 21
125.25
  0
TEXT
  7
TextStyle03
  8
文字
  6
CONTINUOUS
 10
78.1
 20
119.625
  1
　　　　　（固定）600×3500タイプ
 40
5.0
 72
     5
 11
170.2875
 21
119.625
  0
TEXT
  7
TextStyle03
  8
文字
  6
CONTINUOUS
 10
78.1
 20
114.0
  1
図面名　：外観姿図
 40
5.0
 72
     5
 11
128.1
 21
114.0
  0
TEXT
  7
TextStyle03
  8
文字
  6
CONTINUOUS
 10
78.1
 20
108.375
  1
　　　　　　
 40
5.0
 72
     5
 11
111.225
 21
108.375
  0
TEXT
  7
TextStyle03
  8
文字
  6
CONTINUOUS
 10
78.05
 20
103.225
  1
ＮＳコード：ＮＳＫＳＬ
 40
5.0
 72
     5
 11
139.3
 21
103.225
  0
INSERT
  2
*DIM_0002
  8
寸法
  6
CONTINUOUS
 10
0.0
 20
0.0
  0
INSERT
  2
*DIM_0003
  8
寸法
  6
CONTINUOUS
 10
0.0
 20
0.0
  0
INSERT
  2
*DIM_0004
  8
寸法
  6
CONTINUOUS
 10
0.0
 20
0.0
  0
INSERT
  2
*DIM_0005
  8
寸法
  6
CONTINUOUS
 10
0.0
 20
0.0
  0
INSERT
  2
*DIM_0006
  8
寸法
  6
CONTINUOUS
 10
0.0
 20
0.0
  0
INSERT
  2
*DIM_0007
  8
寸法
  6
CONTINUOUS
 10
0.0
 20
0.0
  0
INSERT
  2
*DIM_0008
  8
寸法
  6
CONTINUOUS
 10
0.0
 20
0.0
  0
INSERT
  2
*DIM_0009
  8
寸法
  6
CONTINUOUS
 10
0.0
 20
0.0
  0
INSERT
  2
*DIM_0010
  8
寸法
  6
CONTINUOUS
 10
0.0
 20
0.0
  0
INSERT
  2
*DIM_0011
  8
寸法
  6
CONTINUOUS
 10
0.0
 20
0.0
  0
INSERT
  2
*DIM_0012
  8
寸法
  6
CONTINUOUS
 10
0.0
 20
0.0
  0
INSERT
  2
*DIM_0014
  8
寸法
  6
CONTINUOUS
 10
0.0
 20
0.0
  0
INSERT
  2
*DIM_0015
  8
寸法
  6
CONTINUOUS
 10
0.0
 20
0.0
  0
INSERT
  2
*DIM_0016
  8
寸法
  6
CONTINUOUS
 10
0.0
 20
0.0
  0
INSERT
  2
*DIM_0017
  8
寸法
  6
CONTINUOUS
 10
0.0
 20
0.0
  0
INSERT
  2
*DIM_0018
  8
寸法
  6
CONTINUOUS
 10
0.0
 20
0.0
  0
INSERT
  2
*DIM_0019
  8
寸法
  6
CONTINUOUS
 10
0.0
 20
0.0
  0
INSERT
  2
*DIM_0020
  8
寸法
  6
CONTINUOUS
 10
0.0
 20
0.0
  0
LINE
  8
別途部材
  6
CONTINUOUS
 10
48.29106
 20
20.747365
 11
47.89106
 21
21.147365
  0
LINE
  8
別途部材
  6
CONTINUOUS
 10
46.224393
 20
22.814033
 11
38.165137
 21
30.87329
  0
LINE
  8
別途部材
  6
CONTINUOUS
 10
47.89106
 20
21.147365
 11
47.89106
 21
32.814033
  0
LINE
  8
別途部材
  6
CONTINUOUS
 10
48.29106
 20
20.747365
 11
48.29106
 21
32.814033
  0
LINE
  8
別途部材
  6
CONTINUOUS
 10
48.29106
 20
44.8807
 11
47.89106
 21
44.4807
  0
LINE
  8
別途部材
  6
CONTINUOUS
 10
46.224393
 20
42.814033
 11
38.165137
 21
34.754775
  0
LINE
  8
別途部材
  6
CONTINUOUS
 10
47.89106
 20
44.4807
 11
47.89106
 21
32.814033
  0
LINE
  8
別途部材
  6
CONTINUOUS
 10
48.29106
 20
44.8807
 11
48.29106
 21
32.814033
  0
LINE
  8
別途部材
  6
CONTINUOUS
 10
47.89106
 20
44.4807
 11
-12.10894
 21
44.4807
  0
LINE
  8
別途部材
  6
CONTINUOUS
 10
48.29106
 20
44.8807
 11
-12.10894
 21
44.8807
  0
LINE
  8
別途部材
  6
CONTINUOUS
 10
48.29106
 20
20.747365
 11
-12.10894
 21
20.747365
  0
LINE
  8
別途部材
  6
CONTINUOUS
 10
47.89106
 20
21.147365
 11
-12.10894
 21
21.147365
  0
LINE
  8
別途部材
  6
CONTINUOUS
 10
-72.50894
 20
20.747365
 11
-72.10894
 21
21.147365
  0
LINE
  8
別途部材
  6
CONTINUOUS
 10
-70.442273
 20
22.814033
 11
-62.383018
 21
30.87329
  0
LINE
  8
別途部材
  6
CONTINUOUS
 10
-72.10894
 20
21.147365
 11
-72.10894
 21
32.814033
  0
LINE
  8
別途部材
  6
CONTINUOUS
 10
-72.50894
 20
20.747365
 11
-72.50894
 21
32.814033
  0
LINE
  8
別途部材
  6
CONTINUOUS
 10
-72.50894
 20
44.8807
 11
-72.10894
 21
44.4807
  0
LINE
  8
別途部材
  6
CONTINUOUS
 10
-70.442273
 20
42.814033
 11
-62.383018
 21
34.754775
  0
LINE
  8
別途部材
  6
CONTINUOUS
 10
-72.10894
 20
44.4807
 11
-72.10894
 21
32.814033
  0
LINE
  8
別途部材
  6
CONTINUOUS
 10
-72.50894
 20
44.8807
 11
-72.50894
 21
32.814033
  0
LINE
  8
別途部材
  6
CONTINUOUS
 10
-72.10894
 20
44.4807
 11
-12.10894
 21
44.4807
  0
LINE
  8
別途部材
  6
CONTINUOUS
 10
-72.50894
 20
44.8807
 11
-12.10894
 21
44.8807
  0
LINE
  8
別途部材
  6
CONTINUOUS
 10
-72.50894
 20
20.747365
 11
-12.10894
 21
20.747365
  0
LINE
  8
別途部材
  6
CONTINUOUS
 10
-72.10894
 20
21.147365
 11
-12.10894
 21
21.147365
  0
LINE
  8
別途部材
  6
CONTINUOUS
 62
    96
 10
135.757657
 20
21.147365
 11
136.757657
 21
20.747365
  0
LINE
  8
別途部材
  6
CONTINUOUS
 62
    96
 10
135.757657
 20
21.147365
 11
135.757657
 21
32.814033
  0
LINE
  8
別途部材
  6
CONTINUOUS
 10
136.757657
 20
20.747365
 11
136.757657
 21
32.814033
  0
LINE
  8
別途部材
  6
CONTINUOUS
 62
    96
 10
135.757657
 20
44.4807
 11
136.757657
 21
44.8807
  0
LINE
  8
別途部材
  6
CONTINUOUS
 62
    96
 10
135.757657
 20
44.4807
 11
135.757657
 21
32.814033
  0
LINE
  8
別途部材
  6
CONTINUOUS
 10
136.757657
 20
44.8807
 11
136.757657
 21
32.814033
  0
ARC
  8
別途部材
  6
CONTINUOUS
 10
142.465993
 20
32.814033
 40
12.041667
 50
123.855033
 51
236.144967
  0
INSERT
  2
*GRP_0013
  8
別途部材
  6
CONTINUOUS
 10
0.0
 20
0.0
  0
INSERT
  2
*GRP_0021
  8
別途部材
  6
DOT
 10
0.0
 20
0.0
  0
INSERT
  2
*GRP_0022
  8
別途部材
  6
DOT
 10
0.0
 20
0.0
  0
INSERT
  2
*GRP_0023
  8
別途部材
  6
DOT
 10
0.0
 20
0.0
  0
INSERT
  2
*GRP_0024
  8
別途部材
  6
DOT
 10
0.0
 20
0.0
  0
LINE
  8
St
  6
CONTINUOUS
 62
    47
 10
137.840942
 20
20.20722
 11
137.840942
 21
32.814033
  0
LINE
  8
St
  6
CONTINUOUS
 62
    47
 10
137.840942
 20
45.420845
 11
137.840942
 21
32.814033
  0
LINE
  8
St
  6
CONTINUOUS
 62
    47
 10
-73.049085
 20
-72.292897
 11
-12.10894
 21
-72.292897
  0
LINE
  8
St
  6
CONTINUOUS
 62
    47
 10
48.831205
 20
-72.292897
 11
-12.10894
 21
-72.292897
  0
ENDSEC
  0
EOF
