  0
SECTION
  2
HEADER
  9
$EXTMIN
 10
-210.0
 20
-148.5
  9
$EXTMAX
 10
210.0
 20
148.5
  9
$PDMODE
 70
    32
  9
$PDSIZE
 40
1.5
  9
$LTSCALE
 40
10.0
  0
ENDSEC
  0
SECTION
  2
TABLES
  0
TABLE
  2
LTYPE
 70
    15
  0
LTYPE
  2
CONTINUOUS
 70
    64
  3
実線
 72
    65
 73
     0
 40
0.0
  0
LTYPE
  2
DASHED
 70
    64
  3
破線A
 72
    65
 73
     2
 40
0.6
 49
0.4
 49
-0.2
  0
LTYPE
  2
DASHEDX2
 70
    64
  3
破線B
 72
    65
 73
     2
 40
1.3
 49
0.9
 49
-0.4
  0
LTYPE
  2
DASHDOT
 70
    64
  3
１点鎖線A
 72
    65
 73
     4
 40
0.5375
 49
0.375
 49
-0.05
 49
0.0625
 49
-0.05
  0
LTYPE
  2
DASHDOTX2
 70
    64
  3
１点鎖線B
 72
    65
 73
     4
 40
1.075
 49
0.75
 49
-0.1
 49
0.125
 49
-0.1
  0
LTYPE
  2
DIVIDE2
 70
    64
  3
２点鎖線A
 72
    65
 73
     6
 40
0.5125
 49
0.3
 49
-0.0375
 49
0.05
 49
-0.0375
 49
0.05
 49
-0.0375
  0
LTYPE
  2
DIVIDE
 70
    64
  3
２点鎖線B
 72
    65
 73
     6
 40
1.05
 49
0.55
 49
-0.1
 49
0.1
 49
-0.1
 49
0.1
 49
-0.1
  0
LTYPE
  2
DOT
 70
    64
  3
点線A
 72
    65
 73
     2
 40
0.1125
 49
0.0625
 49
-0.05
  0
LTYPE
  2
DOTX2
 70
    64
  3
点線B
 72
    65
 73
     2
 40
0.275
 49
0.15
 49
-0.125
  0
LTYPE
  2
CONTINUOUS
 70
    64
  3
実線
 72
    65
 73
     0
 40
0.0
  0
LTYPE
  2
CONTINUOUS
 70
    64
  3
実線
 72
    65
 73
     0
 40
0.0
  0
LTYPE
  2
CONTINUOUS
 70
    64
  3
実線
 72
    65
 73
     0
 40
0.0
  0
LTYPE
  2
CONTINUOUS
 70
    64
  3
実線
 72
    65
 73
     0
 40
0.0
  0
LTYPE
  2
CONTINUOUS
 70
    64
  3
実線
 72
    65
 73
     0
 40
0.0
  0
LTYPE
  2
CONTINUOUS
 70
    64
  3
実線
 72
    65
 73
     0
 40
0.0
  0
ENDTAB
  0
TABLE
  2
LAYER
 70
    34
  0
LAYER
  2
通り芯
 70
     0
 62
    15
  6
CONTINUOUS
  0
LAYER
  2
補助線
 70
     0
 62
    16
  6
DOT
  0
LAYER
  2
躯体
 70
     0
 62
    31
  6
CONTINUOUS
  0
LAYER
  2
型材
 70
     0
 62
    32
  6
CONTINUOUS
  0
LAYER
  2
型材断面
 70
     0
 62
    47
  6
CONTINUOUS
  0
LAYER
  2
ガラス
 70
     0
 62
    48
  6
CONTINUOUS
  0
LAYER
  2
ゴム等
 70
     0
 62
    63
  6
CONTINUOUS
  0
LAYER
  2
ボルト／ビス
 70
     0
 62
    64
  6
CONTINUOUS
  0
LAYER
  2
文字
 70
     0
 62
    79
  6
CONTINUOUS
  0
LAYER
  2
寸法
 70
     0
 62
    80
  6
CONTINUOUS
  0
LAYER
  2
ﾊｯﾁﾝｸﾞ
 70
     0
 62
    95
  6
CONTINUOUS
  0
LAYER
  2
別途部材
 70
     0
 62
    96
  6
CONTINUOUS
  0
LAYER
  2
曲げ物
 70
     0
 62
   111
  6
CONTINUOUS
  0
LAYER
  2
鉄骨等
 70
     0
 62
   112
  6
CONTINUOUS
  0
LAYER
  2
St
 70
     0
 62
   127
  6
CONTINUOUS
  0
LAYER
  2
その他部品等
 70
     0
 62
   128
  6
CONTINUOUS
  0
LAYER
  2
ｶﾞｽｹｯﾄ
 70
     0
 62
   143
  6
CONTINUOUS
  0
LAYER
  2
ｽｹｯﾁ
 70
     0
 62
    14
  6
CONTINUOUS
  0
LAYER
  2
0
 70
     0
 62
    17
  6
CONTINUOUS
  0
LAYER
  2
1
 70
     0
 62
    30
  6
CONTINUOUS
  0
LAYER
  2
4
 70
     0
 62
    33
  6
CONTINUOUS
  0
LAYER
  2
ﾚｲﾔ3
 70
     0
 62
    46
  6
CONTINUOUS
  0
LAYER
  2
外形線
 70
     0
 62
    49
  6
CONTINUOUS
  0
LAYER
  2
部品
 70
     0
 62
    14
  6
CONTINUOUS
  0
LAYER
  2
サッシ芯
 70
     0
 62
    17
  6
DASHDOTX2
  0
LAYER
  2
寸法線
 70
     0
 62
    62
  6
CONTINUOUS
  0
LAYER
  2
姿図外形線
 70
     0
 62
    65
  6
CONTINUOUS
  0
LAYER
  2
姿補助線
 70
     0
 62
    30
  6
CONTINUOUS
  0
LAYER
  2
透視線
 70
     0
 62
    78
  6
DOT
  0
LAYER
  2
用紙
 70
     0
 62
    81
  6
CONTINUOUS
  0
LAYER
  2
実線図枠
 70
     0
 62
    94
  6
CONTINUOUS
  0
LAYER
  2
補助図枠
 70
     0
 62
    97
  6
CONTINUOUS
  0
LAYER
  2
建具記号
 70
     0
 62
   110
  6
CONTINUOUS
  0
LAYER
  2
補助文字
 70
     0
 62
   113
  6
CONTINUOUS
  0
ENDTAB
  0
TABLE
  2
STYLE
 70
    10
  0
STYLE
  2
STANDARD
 70
     0
 40
1.0
 41
1.0
 42
1.0
 50
0.0
 71
     0
  3
TXT
  4
BIGFONT
  0
STYLE
  2
TATE
 70
     4
 40
1.0
 41
1.0
 42
1.0
 50
0.0
 71
     0
  3
TXT
  4
BIGFONT
  0
STYLE
  2
TextStyle03
 70
     0
 40
1.0
 41
1.0
 42
1.0
 50
0.0
 71
     0
  3
MONOTXT
  4
BIGFONT
  0
STYLE
  2
TextStyle04
 70
     0
 40
1.0
 41
1.0
 42
1.0
 50
0.0
 71
     0
  3
MONOTXT
  4
BIGFONT
  0
STYLE
  2
TextStyle05
 70
     0
 40
1.0
 41
1.0
 42
1.0
 50
0.0
 71
     0
  3
MONOTXT
  4
BIGFONT
  0
STYLE
  2
TextStyle06
 70
     0
 40
1.0
 41
1.0
 42
1.0
 50
0.0
 71
     0
  3
MONOTXT
  4
BIGFONT
  0
STYLE
  2
TextStyle07
 70
     0
 40
1.0
 41
1.0
 42
1.0
 50
0.0
 71
     0
  3
MONOTXT
  4
BIGFONT
  0
STYLE
  2
TextStyle08
 70
     0
 40
1.0
 41
1.0
 42
1.0
 50
0.0
 71
     0
  3
MONOTXT
  4
BIGFONT
  0
STYLE
  2
TextStyle09
 70
     0
 40
1.0
 41
1.0
 42
1.0
 50
0.0
 71
     0
  3
MONOTXT
  4
BIGFONT
  0
STYLE
  2
TextStyle10
 70
     0
 40
1.0
 41
1.0
 42
1.0
 50
0.0
 71
     0
  3
MONOTXT
  4
BIGFONT
  0
ENDTAB
  0
ENDSEC
  0
SECTION
  2
BLOCKS
  0
BLOCK
  2
*GRP_0001
 70
    65
 10
0.0
 20
0.0
  0
LINE
  8
型材断面
  6
CONTINUOUS
 10
195.0
 20
133.5
 11
195.0
 21
-133.5
  0
LINE
  8
型材断面
  6
CONTINUOUS
 10
195.0
 20
-133.5
 11
-185.0
 21
-133.5
  0
LINE
  8
型材断面
  6
CONTINUOUS
 10
-185.0
 20
-133.5
 11
-185.0
 21
133.5
  0
LINE
  8
型材断面
  6
CONTINUOUS
 10
195.0
 20
133.5
 11
-185.0
 21
133.5
  0
LINE
  8
型材断面
  6
CONTINUOUS
 10
145.0
 20
-133.5
 11
145.0
 21
-118.5
  0
LINE
  8
型材断面
  6
CONTINUOUS
 10
195.0
 20
-118.5
 11
145.0
 21
-118.5
  0
ENDBLK
  0
BLOCK
  2
*DIM_0002
 70
    65
 10
0.0
 20
0.0
  0
LINE
  8
寸法
  6
BYBLOCK
 62
     0
 10
57.257007
 20
-71.291265
 11
87.226657
 21
-71.291265
  0
LINE
  8
寸法
  6
BYBLOCK
 62
     0
 10
87.226657
 20
-79.624597
 11
87.226657
 21
-71.291265
  0
POINT
  8
寸法
 62
     0
 10
87.226657
 20
-79.624597
  0
POINT
  8
寸法
 62
     0
 10
87.226657
 20
-71.291265
  0
TEXT
  7
TextStyle03
  8
寸法
  6
CONTINUOUS
 62
     0
 10
86.85
 20
-77.9125
  1
250
 40
3.0
 50
90.0
 72
     5
 11
86.85
 21
-73.0375
  0
ENDBLK
  0
BLOCK
  2
*DIM_0003
 70
    65
 10
0.0
 20
0.0
  0
LINE
  8
寸法
  6
BYBLOCK
 62
     0
 10
-112.076325
 20
-22.92619
 11
-112.076325
 21
-22.536362
  0
LINE
  8
寸法
  6
BYBLOCK
 62
     0
 10
71.257007
 20
-22.536362
 11
-112.076325
 21
-22.536362
  0
POINT
  8
寸法
 62
     0
 10
71.257007
 20
-22.536362
  0
POINT
  8
寸法
 62
     0
 10
-112.076325
 20
-22.536362
  0
TEXT
  7
TextStyle03
  8
寸法
  6
CONTINUOUS
 62
     0
 10
-32.14375
 20
-22.175
  1
呼称寸法　5500
 40
3.0
 72
     5
 11
-8.70625
 21
-22.175
  0
ENDBLK
  0
BLOCK
  2
*DIM_0004
 70
    65
 10
0.0
 20
0.0
  0
LINE
  8
寸法
  6
BYBLOCK
 62
     0
 10
-95.409657
 20
9.768917
 11
-95.409657
 21
4.783553
  0
LINE
  8
寸法
  6
BYBLOCK
 62
     0
 10
-20.40966
 20
9.76892
 11
-20.40966
 21
4.783553
  0
LINE
  8
寸法
  6
BYBLOCK
 62
     0
 10
-95.409657
 20
4.783553
 11
-20.40966
 21
4.783553
  0
POINT
  8
寸法
 62
     0
 10
-95.409657
 20
4.783553
  0
POINT
  8
寸法
 62
     0
 10
-20.40966
 20
4.783553
  0
TEXT
  7
TextStyle03
  8
寸法
  6
CONTINUOUS
 62
     0
 10
-61.20625
 20
5.15
  1
2250
 40
3.0
 72
     5
 11
-54.64375
 21
5.15
  0
ENDBLK
  0
BLOCK
  2
*DIM_0005
 70
    65
 10
0.0
 20
0.0
  0
LINE
  8
寸法
  6
BYBLOCK
 62
     0
 10
54.590337
 20
9.768917
 11
54.590337
 21
4.783553
  0
LINE
  8
寸法
  6
BYBLOCK
 62
     0
 10
-20.40966
 20
4.783553
 11
54.590337
 21
4.783553
  0
POINT
  8
寸法
 62
     0
 10
54.590337
 20
4.783553
  0
TEXT
  7
TextStyle03
  8
寸法
  6
CONTINUOUS
 62
     0
 10
13.79375
 20
5.15
  1
2250
 40
3.0
 72
     5
 11
20.35625
 21
5.15
  0
ENDBLK
  0
BLOCK
  2
*DIM_0006
 70
    65
 10
0.0
 20
0.0
  0
LINE
  8
寸法
  6
BYBLOCK
 62
     0
 10
152.45694
 20
29.399048
 11
152.45694
 21
58.954983
  0
LINE
  8
寸法
  6
BYBLOCK
 62
     0
 10
160.790272
 20
58.954983
 11
152.45694
 21
58.954983
  0
POINT
  8
寸法
 62
     0
 10
160.790272
 20
58.954983
  0
POINT
  8
寸法
 62
     0
 10
152.45694
 20
58.954983
  0
TEXT
  7
TextStyle03
  8
寸法
  6
CONTINUOUS
 62
     0
 10
154.1625
 20
59.325
  1
250
 40
3.0
 72
     5
 11
159.0375
 21
59.325
  0
ENDBLK
  0
BLOCK
  2
*DIM_0007
 70
    65
 10
0.0
 20
0.0
  0
LINE
  8
寸法
  6
BYBLOCK
 62
     0
 10
105.276657
 20
13.399048
 11
105.276657
 21
43.399048
  0
POINT
  8
寸法
 62
     0
 10
105.276657
 20
13.399048
  0
POINT
  8
寸法
 62
     0
 10
105.276657
 20
43.399048
  0
TEXT
  7
TextStyle03
  8
寸法
  6
CONTINUOUS
 62
     0
 10
104.9
 20
17.5
  1
呼称寸法　900
 40
3.0
 50
90.0
 72
     5
 11
104.9
 21
39.25
  0
ENDBLK
  0
BLOCK
  2
*DIM_0008
 70
    65
 10
0.0
 20
0.0
  0
LINE
  8
寸法
  6
BYBLOCK
 62
     0
 10
161.373558
 20
10.792235
 11
105.276657
 21
10.792235
  0
LINE
  8
寸法
  6
BYBLOCK
 62
     0
 10
105.276657
 20
13.399048
 11
105.276657
 21
10.792235
  0
POINT
  8
寸法
 62
     0
 10
105.276657
 20
13.399048
  0
POINT
  8
寸法
 62
     0
 10
105.276657
 20
10.792235
  0
TEXT
  7
TextStyle03
  8
寸法
  6
CONTINUOUS
 62
     0
 10
104.825
 20
2.06875
  1
78.2
 40
3.0
 50
90.0
 72
     5
 11
104.825
 21
8.63125
  0
ENDBLK
  0
BLOCK
  2
*DIM_0009
 70
    65
 10
0.0
 20
0.0
  0
LINE
  8
寸法
  6
BYBLOCK
 62
     0
 10
161.373558
 20
46.00586
 11
105.276657
 21
46.00586
  0
LINE
  8
寸法
  6
BYBLOCK
 62
     0
 10
105.276657
 20
43.399048
 11
105.276657
 21
46.00586
  0
POINT
  8
寸法
 62
     0
 10
105.276657
 20
43.399048
  0
POINT
  8
寸法
 62
     0
 10
105.276657
 20
46.00586
  0
TEXT
  7
TextStyle03
  8
寸法
  6
CONTINUOUS
 62
     0
 10
104.825
 20
48.16875
  1
78.2
 40
3.0
 50
90.0
 72
     5
 11
104.825
 21
54.73125
  0
ENDBLK
  0
BLOCK
  2
*DIM_0010
 70
    65
 10
0.0
 20
0.0
  0
LINE
  8
寸法
  6
BYBLOCK
 62
     0
 10
160.790272
 20
46.065715
 11
160.790272
 21
58.954983
  0
LINE
  8
寸法
  6
BYBLOCK
 62
     0
 10
162.873558
 20
47.00586
 11
162.873558
 21
58.954983
  0
LINE
  8
寸法
  6
BYBLOCK
 62
     0
 10
160.790272
 20
58.954983
 11
162.873558
 21
58.954983
  0
POINT
  8
寸法
 62
     0
 10
160.790272
 20
58.954983
  0
POINT
  8
寸法
 62
     0
 10
162.873558
 20
58.954983
  0
TEXT
  7
TextStyle03
  8
寸法
  6
CONTINUOUS
 62
     0
 10
165.24375
 20
59.325
  1
62.5
 40
3.0
 72
     5
 11
171.80625
 21
59.325
  0
ENDBLK
  0
BLOCK
  2
*DIM_0011
 70
    65
 10
0.0
 20
0.0
  0
LINE
  8
寸法
  6
BYBLOCK
 62
     0
 10
73.923675
 20
-79.624597
 11
87.226657
 21
-79.624597
  0
LINE
  8
寸法
  6
BYBLOCK
 62
     0
 10
74.86382
 20
-81.707882
 11
87.226657
 21
-81.707882
  0
LINE
  8
寸法
  6
BYBLOCK
 62
     0
 10
87.226657
 20
-79.624597
 11
87.226657
 21
-81.707882
  0
POINT
  8
寸法
 62
     0
 10
87.226657
 20
-79.624597
  0
POINT
  8
寸法
 62
     0
 10
87.226657
 20
-81.707882
  0
TEXT
  7
TextStyle03
  8
寸法
  6
CONTINUOUS
 62
     0
 10
86.775
 20
-90.70625
  1
62.5
 40
3.0
 50
90.0
 72
     5
 11
86.775
 21
-84.14375
  0
ENDBLK
  0
BLOCK
  2
*DIM_0012
 70
    65
 10
0.0
 20
0.0
  0
LINE
  8
寸法
  6
BYBLOCK
 62
     0
 10
73.86382
 20
-80.207882
 11
73.86382
 21
-22.536362
  0
LINE
  8
寸法
  6
BYBLOCK
 62
     0
 10
71.257007
 20
-22.536362
 11
73.86382
 21
-22.536362
  0
POINT
  8
寸法
 62
     0
 10
71.257007
 20
-22.536362
  0
POINT
  8
寸法
 62
     0
 10
73.86382
 20
-22.536362
  0
TEXT
  7
TextStyle03
  8
寸法
  6
CONTINUOUS
 62
     0
 10
75.94375
 20
-22.15
  1
78.2
 40
3.0
 72
     5
 11
82.50625
 21
-22.15
  0
ENDBLK
  0
BLOCK
  2
*DIM_0013
 70
    65
 10
0.0
 20
0.0
  0
LINE
  8
寸法
  6
BYBLOCK
 62
     0
 10
-114.68314
 20
-80.207882
 11
-114.68314
 21
-22.536362
  0
LINE
  8
寸法
  6
BYBLOCK
 62
     0
 10
-112.076325
 20
-22.536362
 11
-114.68314
 21
-22.536362
  0
POINT
  8
寸法
 62
     0
 10
-112.076325
 20
-22.536362
  0
POINT
  8
寸法
 62
     0
 10
-114.68314
 20
-22.536362
  0
TEXT
  7
TextStyle03
  8
寸法
  6
CONTINUOUS
 62
     0
 10
-123.43125
 20
-22.175
  1
78.2
 40
3.0
 72
     5
 11
-116.86875
 21
-22.175
  0
ENDBLK
  0
BLOCK
  2
*GRP_0014
 70
    65
 10
0.0
 20
0.0
  0
LINE
  8
別途部材
  6
CONTINUOUS
 62
    96
 10
-113.742993
 20
-79.624597
 11
-114.142993
 21
-80.624597
  0
LINE
  8
別途部材
  6
CONTINUOUS
 10
-114.142993
 20
-80.624597
 11
-20.409657
 21
-80.624597
  0
LINE
  8
別途部材
  6
CONTINUOUS
 62
    96
 10
-113.742993
 20
-79.624597
 11
-20.409657
 21
-79.624597
  0
LINE
  8
別途部材
  6
CONTINUOUS
 10
-20.909657
 20
-70.291265
 11
-21.909657
 21
-71.291265
  0
LINE
  8
別途部材
  6
CONTINUOUS
 10
-22.909657
 20
-71.291265
 11
-23.909657
 21
-70.291265
  0
LINE
  8
別途部材
  6
CONTINUOUS
 10
-24.909657
 20
-70.291265
 11
-25.909657
 21
-71.291265
  0
LINE
  8
別途部材
  6
CONTINUOUS
 10
-23.909657
 20
-70.291265
 11
-24.909657
 21
-70.291265
  0
LINE
  8
別途部材
  6
CONTINUOUS
 10
-20.909657
 20
-70.291265
 11
-20.409657
 21
-70.291265
  0
LINE
  8
別途部材
  6
CONTINUOUS
 10
-26.909657
 20
-71.291265
 11
-27.909657
 21
-70.291265
  0
LINE
  8
別途部材
  6
CONTINUOUS
 10
-28.909657
 20
-70.291265
 11
-29.909657
 21
-71.291265
  0
LINE
  8
別途部材
  6
CONTINUOUS
 10
-27.909657
 20
-70.291265
 11
-28.909657
 21
-70.291265
  0
LINE
  8
別途部材
  6
CONTINUOUS
 10
-30.909657
 20
-71.291265
 11
-31.909657
 21
-70.291265
  0
LINE
  8
別途部材
  6
CONTINUOUS
 10
-32.909657
 20
-70.291265
 11
-33.909657
 21
-71.291265
  0
LINE
  8
別途部材
  6
CONTINUOUS
 10
-31.909657
 20
-70.291265
 11
-32.909657
 21
-70.291265
  0
LINE
  8
別途部材
  6
CONTINUOUS
 10
-34.909657
 20
-71.291265
 11
-35.909657
 21
-70.291265
  0
LINE
  8
別途部材
  6
CONTINUOUS
 10
-36.909657
 20
-70.291265
 11
-37.909657
 21
-71.291265
  0
LINE
  8
別途部材
  6
CONTINUOUS
 10
-35.909657
 20
-70.291265
 11
-36.909657
 21
-70.291265
  0
LINE
  8
別途部材
  6
CONTINUOUS
 10
-38.909657
 20
-71.291265
 11
-39.909657
 21
-70.291265
  0
LINE
  8
別途部材
  6
CONTINUOUS
 10
-40.909657
 20
-70.291265
 11
-41.909657
 21
-71.291265
  0
LINE
  8
別途部材
  6
CONTINUOUS
 10
-39.909657
 20
-70.291265
 11
-40.909657
 21
-70.291265
  0
LINE
  8
別途部材
  6
CONTINUOUS
 10
-42.909657
 20
-71.291265
 11
-43.909657
 21
-70.291265
  0
LINE
  8
別途部材
  6
CONTINUOUS
 10
-44.909657
 20
-70.291265
 11
-45.909657
 21
-71.291265
  0
LINE
  8
別途部材
  6
CONTINUOUS
 10
-43.909657
 20
-70.291265
 11
-44.909657
 21
-70.291265
  0
LINE
  8
別途部材
  6
CONTINUOUS
 10
-46.909657
 20
-71.291265
 11
-47.909657
 21
-70.291265
  0
LINE
  8
別途部材
  6
CONTINUOUS
 10
-48.909657
 20
-70.291265
 11
-49.909657
 21
-71.291265
  0
LINE
  8
別途部材
  6
CONTINUOUS
 10
-47.909657
 20
-70.291265
 11
-48.909657
 21
-70.291265
  0
LINE
  8
別途部材
  6
CONTINUOUS
 10
-50.909657
 20
-71.291265
 11
-51.909657
 21
-70.291265
  0
LINE
  8
別途部材
  6
CONTINUOUS
 10
-52.909657
 20
-70.291265
 11
-53.909657
 21
-71.291265
  0
LINE
  8
別途部材
  6
CONTINUOUS
 10
-51.909657
 20
-70.291265
 11
-52.909657
 21
-70.291265
  0
LINE
  8
別途部材
  6
CONTINUOUS
 10
-54.909657
 20
-71.291265
 11
-55.909657
 21
-70.291265
  0
LINE
  8
別途部材
  6
CONTINUOUS
 10
-56.909657
 20
-70.291265
 11
-57.909657
 21
-71.291265
  0
LINE
  8
別途部材
  6
CONTINUOUS
 10
-55.909657
 20
-70.291265
 11
-56.909657
 21
-70.291265
  0
LINE
  8
別途部材
  6
CONTINUOUS
 10
-58.909657
 20
-71.291265
 11
-59.909657
 21
-70.291265
  0
LINE
  8
別途部材
  6
CONTINUOUS
 10
-60.909657
 20
-70.291265
 11
-61.909657
 21
-71.291265
  0
LINE
  8
別途部材
  6
CONTINUOUS
 10
-59.909657
 20
-70.291265
 11
-60.909657
 21
-70.291265
  0
LINE
  8
別途部材
  6
CONTINUOUS
 10
-62.909657
 20
-71.291265
 11
-63.909657
 21
-70.291265
  0
LINE
  8
別途部材
  6
CONTINUOUS
 10
-64.909657
 20
-70.291265
 11
-65.909657
 21
-71.291265
  0
LINE
  8
別途部材
  6
CONTINUOUS
 10
-63.909657
 20
-70.291265
 11
-64.909657
 21
-70.291265
  0
LINE
  8
別途部材
  6
CONTINUOUS
 10
-61.909657
 20
-71.291265
 11
-62.909657
 21
-71.291265
  0
LINE
  8
別途部材
  6
CONTINUOUS
 10
-57.909657
 20
-71.291265
 11
-58.909657
 21
-71.291265
  0
LINE
  8
別途部材
  6
CONTINUOUS
 10
-53.909657
 20
-71.291265
 11
-54.909657
 21
-71.291265
  0
LINE
  8
別途部材
  6
CONTINUOUS
 10
-49.909657
 20
-71.291265
 11
-50.909657
 21
-71.291265
  0
LINE
  8
別途部材
  6
CONTINUOUS
 10
-45.909657
 20
-71.291265
 11
-46.909657
 21
-71.291265
  0
LINE
  8
別途部材
  6
CONTINUOUS
 10
-41.909657
 20
-71.291265
 11
-42.909657
 21
-71.291265
  0
LINE
  8
別途部材
  6
CONTINUOUS
 10
-37.909657
 20
-71.291265
 11
-38.909657
 21
-71.291265
  0
LINE
  8
別途部材
  6
CONTINUOUS
 10
-33.909657
 20
-71.291265
 11
-34.909657
 21
-71.291265
  0
LINE
  8
別途部材
  6
CONTINUOUS
 10
-29.909657
 20
-71.291265
 11
-30.909657
 21
-71.291265
  0
LINE
  8
別途部材
  6
CONTINUOUS
 10
-25.909657
 20
-71.291265
 11
-26.909657
 21
-71.291265
  0
LINE
  8
別途部材
  6
CONTINUOUS
 10
-22.909657
 20
-71.291265
 11
-21.909657
 21
-71.291265
  0
LINE
  8
別途部材
  6
CONTINUOUS
 10
-66.909657
 20
-71.291265
 11
-67.909657
 21
-70.291265
  0
LINE
  8
別途部材
  6
CONTINUOUS
 10
-68.909657
 20
-70.291265
 11
-69.909657
 21
-71.291265
  0
LINE
  8
別途部材
  6
CONTINUOUS
 10
-67.909657
 20
-70.291265
 11
-68.909657
 21
-70.291265
  0
LINE
  8
別途部材
  6
CONTINUOUS
 10
-70.909657
 20
-71.291265
 11
-71.909657
 21
-70.291265
  0
LINE
  8
別途部材
  6
CONTINUOUS
 10
-72.909657
 20
-70.291265
 11
-73.909657
 21
-71.291265
  0
LINE
  8
別途部材
  6
CONTINUOUS
 10
-71.909657
 20
-70.291265
 11
-72.909657
 21
-70.291265
  0
LINE
  8
別途部材
  6
CONTINUOUS
 10
-74.909657
 20
-71.291265
 11
-75.909657
 21
-70.291265
  0
LINE
  8
別途部材
  6
CONTINUOUS
 10
-76.909657
 20
-70.291265
 11
-77.909657
 21
-71.291265
  0
LINE
  8
別途部材
  6
CONTINUOUS
 10
-75.909657
 20
-70.291265
 11
-76.909657
 21
-70.291265
  0
LINE
  8
別途部材
  6
CONTINUOUS
 10
-78.909657
 20
-71.291265
 11
-79.909657
 21
-70.291265
  0
LINE
  8
別途部材
  6
CONTINUOUS
 10
-80.909657
 20
-70.291265
 11
-81.909657
 21
-71.291265
  0
LINE
  8
別途部材
  6
CONTINUOUS
 10
-79.909657
 20
-70.291265
 11
-80.909657
 21
-70.291265
  0
LINE
  8
別途部材
  6
CONTINUOUS
 10
-82.909657
 20
-71.291265
 11
-83.909657
 21
-70.291265
  0
LINE
  8
別途部材
  6
CONTINUOUS
 10
-84.909657
 20
-70.291265
 11
-85.909657
 21
-71.291265
  0
LINE
  8
別途部材
  6
CONTINUOUS
 10
-83.909657
 20
-70.291265
 11
-84.909657
 21
-70.291265
  0
LINE
  8
別途部材
  6
CONTINUOUS
 10
-86.909657
 20
-71.291265
 11
-87.909657
 21
-70.291265
  0
LINE
  8
別途部材
  6
CONTINUOUS
 10
-88.909657
 20
-70.291265
 11
-89.909657
 21
-71.291265
  0
LINE
  8
別途部材
  6
CONTINUOUS
 10
-87.909657
 20
-70.291265
 11
-88.909657
 21
-70.291265
  0
LINE
  8
別途部材
  6
CONTINUOUS
 10
-90.909657
 20
-71.291265
 11
-91.909657
 21
-70.291265
  0
LINE
  8
別途部材
  6
CONTINUOUS
 10
-92.909657
 20
-70.291265
 11
-93.909657
 21
-71.291265
  0
LINE
  8
別途部材
  6
CONTINUOUS
 10
-91.909657
 20
-70.291265
 11
-92.909657
 21
-70.291265
  0
LINE
  8
別途部材
  6
CONTINUOUS
 10
-94.909657
 20
-71.291265
 11
-95.909657
 21
-70.291265
  0
LINE
  8
別途部材
  6
CONTINUOUS
 10
-96.909657
 20
-70.291265
 11
-97.909657
 21
-71.291265
  0
LINE
  8
別途部材
  6
CONTINUOUS
 10
-95.909657
 20
-70.291265
 11
-96.909657
 21
-70.291265
  0
LINE
  8
別途部材
  6
CONTINUOUS
 10
-93.909657
 20
-71.291265
 11
-94.909657
 21
-71.291265
  0
LINE
  8
別途部材
  6
CONTINUOUS
 10
-89.909657
 20
-71.291265
 11
-90.909657
 21
-71.291265
  0
LINE
  8
別途部材
  6
CONTINUOUS
 10
-85.909657
 20
-71.291265
 11
-86.909657
 21
-71.291265
  0
LINE
  8
別途部材
  6
CONTINUOUS
 10
-81.909657
 20
-71.291265
 11
-82.909657
 21
-71.291265
  0
LINE
  8
別途部材
  6
CONTINUOUS
 10
-77.909657
 20
-71.291265
 11
-78.909657
 21
-71.291265
  0
LINE
  8
別途部材
  6
CONTINUOUS
 10
-73.909657
 20
-71.291265
 11
-74.909657
 21
-71.291265
  0
LINE
  8
別途部材
  6
CONTINUOUS
 10
-69.909657
 20
-71.291265
 11
-70.909657
 21
-71.291265
  0
LINE
  8
別途部材
  6
CONTINUOUS
 10
-65.909657
 20
-71.291265
 11
-66.909657
 21
-71.291265
  0
LINE
  8
別途部材
  6
CONTINUOUS
 10
-97.909657
 20
-71.291265
 11
-97.909657
 21
-79.624597
  0
LINE
  8
別途部材
  6
CONTINUOUS
 10
-95.909657
 20
-70.291265
 11
-95.909657
 21
-79.624597
  0
LINE
  8
別途部材
  6
CONTINUOUS
 10
-96.909657
 20
-70.291265
 11
-96.909657
 21
-79.624597
  0
LINE
  8
別途部材
  6
CONTINUOUS
 10
-93.909657
 20
-71.291265
 11
-93.909657
 21
-79.624597
  0
LINE
  8
別途部材
  6
CONTINUOUS
 10
-94.909657
 20
-71.291265
 11
-94.909657
 21
-79.624597
  0
LINE
  8
別途部材
  6
CONTINUOUS
 10
-92.909657
 20
-70.291265
 11
-92.909657
 21
-79.624597
  0
LINE
  8
別途部材
  6
CONTINUOUS
 10
-90.909657
 20
-71.291265
 11
-90.909657
 21
-79.624597
  0
LINE
  8
別途部材
  6
CONTINUOUS
 10
-91.909657
 20
-70.291265
 11
-91.909657
 21
-79.624597
  0
LINE
  8
別途部材
  6
CONTINUOUS
 10
-89.909657
 20
-71.291265
 11
-89.909657
 21
-79.624597
  0
LINE
  8
別途部材
  6
CONTINUOUS
 10
-88.909657
 20
-70.291265
 11
-88.909657
 21
-79.624597
  0
LINE
  8
別途部材
  6
CONTINUOUS
 10
-86.909657
 20
-71.291265
 11
-86.909657
 21
-79.624597
  0
LINE
  8
別途部材
  6
CONTINUOUS
 10
-87.909657
 20
-70.291265
 11
-87.909657
 21
-79.624597
  0
LINE
  8
別途部材
  6
CONTINUOUS
 10
-84.909657
 20
-70.291265
 11
-84.909657
 21
-79.624597
  0
LINE
  8
別途部材
  6
CONTINUOUS
 10
-85.909657
 20
-71.291265
 11
-85.909657
 21
-79.624597
  0
LINE
  8
別途部材
  6
CONTINUOUS
 10
-82.909657
 20
-71.291265
 11
-82.909657
 21
-79.624597
  0
LINE
  8
別途部材
  6
CONTINUOUS
 10
-83.909657
 20
-70.291265
 11
-83.909657
 21
-79.624597
  0
LINE
  8
別途部材
  6
CONTINUOUS
 10
-81.909657
 20
-71.291265
 11
-81.909657
 21
-79.624597
  0
LINE
  8
別途部材
  6
CONTINUOUS
 10
-79.909657
 20
-70.291265
 11
-79.909657
 21
-79.624597
  0
LINE
  8
別途部材
  6
CONTINUOUS
 10
-80.909657
 20
-70.291265
 11
-80.909657
 21
-79.624597
  0
LINE
  8
別途部材
  6
CONTINUOUS
 10
-78.909657
 20
-71.291265
 11
-78.909657
 21
-79.624597
  0
LINE
  8
別途部材
  6
CONTINUOUS
 10
-77.909657
 20
-71.291265
 11
-77.909657
 21
-79.624597
  0
LINE
  8
別途部材
  6
CONTINUOUS
 10
-76.909657
 20
-70.291265
 11
-76.909657
 21
-79.624597
  0
LINE
  8
別途部材
  6
CONTINUOUS
 10
-75.909657
 20
-70.291265
 11
-75.909657
 21
-79.624597
  0
LINE
  8
別途部材
  6
CONTINUOUS
 10
-71.909657
 20
-70.291265
 11
-71.909657
 21
-79.624597
  0
LINE
  8
別途部材
  6
CONTINUOUS
 10
-64.909657
 20
-70.291265
 11
-64.909657
 21
-79.624597
  0
LINE
  8
別途部材
  6
CONTINUOUS
 10
-60.909657
 20
-70.291265
 11
-60.909657
 21
-79.624597
  0
LINE
  8
別途部材
  6
CONTINUOUS
 10
-58.909657
 20
-71.291265
 11
-58.909657
 21
-79.624597
  0
LINE
  8
別途部材
  6
CONTINUOUS
 10
-63.909657
 20
-70.291265
 11
-63.909657
 21
-79.624597
  0
LINE
  8
別途部材
  6
CONTINUOUS
 10
-67.909657
 20
-70.291265
 11
-67.909657
 21
-79.624597
  0
LINE
  8
別途部材
  6
CONTINUOUS
 10
-69.909657
 20
-71.291265
 11
-69.909657
 21
-79.624597
  0
LINE
  8
別途部材
  6
CONTINUOUS
 10
-72.909657
 20
-70.291265
 11
-72.909657
 21
-79.624597
  0
LINE
  8
別途部材
  6
CONTINUOUS
 10
-73.909657
 20
-71.291265
 11
-73.909657
 21
-79.624597
  0
LINE
  8
別途部材
  6
CONTINUOUS
 10
-74.909657
 20
-71.291265
 11
-74.909657
 21
-79.624597
  0
LINE
  8
別途部材
  6
CONTINUOUS
 10
-70.909657
 20
-71.291265
 11
-70.909657
 21
-79.624597
  0
LINE
  8
別途部材
  6
CONTINUOUS
 10
-68.909657
 20
-70.291265
 11
-68.909657
 21
-79.624597
  0
LINE
  8
別途部材
  6
CONTINUOUS
 10
-66.909657
 20
-71.291265
 11
-66.909657
 21
-79.624597
  0
LINE
  8
別途部材
  6
CONTINUOUS
 10
-65.909657
 20
-71.291265
 11
-65.909657
 21
-79.624597
  0
LINE
  8
別途部材
  6
CONTINUOUS
 10
-62.909657
 20
-71.291265
 11
-62.909657
 21
-79.624597
  0
LINE
  8
別途部材
  6
CONTINUOUS
 10
-61.909657
 20
-71.291265
 11
-61.909657
 21
-79.624597
  0
LINE
  8
別途部材
  6
CONTINUOUS
 10
-59.909657
 20
-70.291265
 11
-59.909657
 21
-79.624597
  0
LINE
  8
別途部材
  6
CONTINUOUS
 10
-56.909657
 20
-70.291265
 11
-56.909657
 21
-79.624597
  0
LINE
  8
別途部材
  6
CONTINUOUS
 10
-57.909657
 20
-71.291265
 11
-57.909657
 21
-79.624597
  0
LINE
  8
別途部材
  6
CONTINUOUS
 10
-55.909657
 20
-70.291265
 11
-55.909657
 21
-79.624597
  0
LINE
  8
別途部材
  6
CONTINUOUS
 10
-54.909657
 20
-71.291265
 11
-54.909657
 21
-79.624597
  0
LINE
  8
別途部材
  6
CONTINUOUS
 10
-53.909657
 20
-71.291265
 11
-53.909657
 21
-79.624597
  0
LINE
  8
別途部材
  6
CONTINUOUS
 10
-52.909657
 20
-70.291265
 11
-52.909657
 21
-79.624597
  0
LINE
  8
別途部材
  6
CONTINUOUS
 10
-50.909657
 20
-71.291265
 11
-50.909657
 21
-79.624597
  0
LINE
  8
別途部材
  6
CONTINUOUS
 10
-51.909657
 20
-70.291265
 11
-51.909657
 21
-79.624597
  0
LINE
  8
別途部材
  6
CONTINUOUS
 10
-48.909657
 20
-70.291265
 11
-48.909657
 21
-79.624597
  0
LINE
  8
別途部材
  6
CONTINUOUS
 10
-49.909657
 20
-71.291265
 11
-49.909657
 21
-79.624597
  0
LINE
  8
別途部材
  6
CONTINUOUS
 10
-45.909657
 20
-71.291265
 11
-45.909657
 21
-79.624597
  0
LINE
  8
別途部材
  6
CONTINUOUS
 10
-44.909657
 20
-70.291265
 11
-44.909657
 21
-79.624597
  0
LINE
  8
別途部材
  6
CONTINUOUS
 10
-43.909657
 20
-70.291265
 11
-43.909657
 21
-79.624597
  0
LINE
  8
別途部材
  6
CONTINUOUS
 10
-46.909657
 20
-71.291265
 11
-46.909657
 21
-79.624597
  0
LINE
  8
別途部材
  6
CONTINUOUS
 10
-47.909657
 20
-70.291265
 11
-47.909657
 21
-79.624597
  0
LINE
  8
別途部材
  6
CONTINUOUS
 10
-39.909657
 20
-70.291265
 11
-39.909657
 21
-79.624597
  0
LINE
  8
別途部材
  6
CONTINUOUS
 10
-41.909657
 20
-71.291265
 11
-41.909657
 21
-79.624597
  0
LINE
  8
別途部材
  6
CONTINUOUS
 10
-42.909657
 20
-71.291265
 11
-42.909657
 21
-79.624597
  0
LINE
  8
別途部材
  6
CONTINUOUS
 10
-40.909657
 20
-70.291265
 11
-40.909657
 21
-79.624597
  0
LINE
  8
別途部材
  6
CONTINUOUS
 10
-38.909657
 20
-71.291265
 11
-38.909657
 21
-79.624597
  0
LINE
  8
別途部材
  6
CONTINUOUS
 10
-36.909657
 20
-70.291265
 11
-36.909657
 21
-79.624597
  0
LINE
  8
別途部材
  6
CONTINUOUS
 10
-35.909657
 20
-70.291265
 11
-35.909657
 21
-79.624597
  0
LINE
  8
別途部材
  6
CONTINUOUS
 10
-33.909657
 20
-71.291265
 11
-33.909657
 21
-79.624597
  0
LINE
  8
別途部材
  6
CONTINUOUS
 10
-34.909657
 20
-71.291265
 11
-34.909657
 21
-79.624597
  0
LINE
  8
別途部材
  6
CONTINUOUS
 10
-37.909657
 20
-71.291265
 11
-37.909657
 21
-79.624597
  0
LINE
  8
別途部材
  6
CONTINUOUS
 10
-32.909657
 20
-70.291265
 11
-32.909657
 21
-79.624597
  0
LINE
  8
別途部材
  6
CONTINUOUS
 10
-30.909657
 20
-71.291265
 11
-30.909657
 21
-79.624597
  0
LINE
  8
別途部材
  6
CONTINUOUS
 10
-31.909657
 20
-70.291265
 11
-31.909657
 21
-79.624597
  0
LINE
  8
別途部材
  6
CONTINUOUS
 10
-29.909657
 20
-71.291265
 11
-29.909657
 21
-79.624597
  0
LINE
  8
別途部材
  6
CONTINUOUS
 10
-28.909657
 20
-70.291265
 11
-28.909657
 21
-79.624597
  0
LINE
  8
別途部材
  6
CONTINUOUS
 10
-26.909657
 20
-71.291265
 11
-26.909657
 21
-79.624597
  0
LINE
  8
別途部材
  6
CONTINUOUS
 10
-27.909657
 20
-70.291265
 11
-27.909657
 21
-79.624597
  0
LINE
  8
別途部材
  6
CONTINUOUS
 10
-25.909657
 20
-71.291265
 11
-25.909657
 21
-79.624597
  0
LINE
  8
別途部材
  6
CONTINUOUS
 10
-24.909657
 20
-70.291265
 11
-24.909657
 21
-79.624597
  0
LINE
  8
別途部材
  6
CONTINUOUS
 10
-22.909657
 20
-71.291265
 11
-22.909657
 21
-79.624597
  0
LINE
  8
別途部材
  6
CONTINUOUS
 10
-23.909657
 20
-70.291265
 11
-23.909657
 21
-79.624597
  0
LINE
  8
別途部材
  6
CONTINUOUS
 10
-21.909657
 20
-71.291265
 11
-21.909657
 21
-79.624597
  0
LINE
  8
別途部材
  6
CONTINUOUS
 10
-20.909657
 20
-70.291265
 11
-20.909657
 21
-79.624597
  0
ARC
  8
別途部材
  6
CONTINUOUS
 10
-97.076326
 20
-88.957936
 40
17.666667
 50
92.703632
 51
148.109204
  0
LINE
  8
別途部材
  6
CONTINUOUS
 62
    96
 10
72.923675
 20
-79.624597
 11
73.323675
 21
-80.624597
  0
LINE
  8
別途部材
  6
CONTINUOUS
 10
73.323675
 20
-80.624597
 11
-20.409657
 21
-80.624597
  0
LINE
  8
別途部材
  6
CONTINUOUS
 62
    96
 10
72.923675
 20
-79.624597
 11
-20.409657
 21
-79.624597
  0
LINE
  8
別途部材
  6
CONTINUOUS
 10
-19.909657
 20
-70.291265
 11
-18.909657
 21
-71.291265
  0
LINE
  8
別途部材
  6
CONTINUOUS
 10
-17.909657
 20
-71.291265
 11
-16.909657
 21
-70.291265
  0
LINE
  8
別途部材
  6
CONTINUOUS
 10
-15.909657
 20
-70.291265
 11
-14.909657
 21
-71.291265
  0
LINE
  8
別途部材
  6
CONTINUOUS
 10
-16.909657
 20
-70.291265
 11
-15.909657
 21
-70.291265
  0
LINE
  8
別途部材
  6
CONTINUOUS
 10
-19.909657
 20
-70.291265
 11
-20.409657
 21
-70.291265
  0
LINE
  8
別途部材
  6
CONTINUOUS
 10
-13.909657
 20
-71.291265
 11
-12.909657
 21
-70.291265
  0
LINE
  8
別途部材
  6
CONTINUOUS
 10
-11.909657
 20
-70.291265
 11
-10.909657
 21
-71.291265
  0
LINE
  8
別途部材
  6
CONTINUOUS
 10
-12.909657
 20
-70.291265
 11
-11.909657
 21
-70.291265
  0
LINE
  8
別途部材
  6
CONTINUOUS
 10
-9.909657
 20
-71.291265
 11
-8.909657
 21
-70.291265
  0
LINE
  8
別途部材
  6
CONTINUOUS
 10
-7.909657
 20
-70.291265
 11
-6.909657
 21
-71.291265
  0
LINE
  8
別途部材
  6
CONTINUOUS
 10
-8.909657
 20
-70.291265
 11
-7.909657
 21
-70.291265
  0
LINE
  8
別途部材
  6
CONTINUOUS
 10
-5.909657
 20
-71.291265
 11
-4.909657
 21
-70.291265
  0
LINE
  8
別途部材
  6
CONTINUOUS
 10
-3.909657
 20
-70.291265
 11
-2.909657
 21
-71.291265
  0
LINE
  8
別途部材
  6
CONTINUOUS
 10
-4.909657
 20
-70.291265
 11
-3.909657
 21
-70.291265
  0
LINE
  8
別途部材
  6
CONTINUOUS
 10
-1.909657
 20
-71.291265
 11
-0.909657
 21
-70.291265
  0
LINE
  8
別途部材
  6
CONTINUOUS
 10
0.090343
 20
-70.291265
 11
1.090343
 21
-71.291265
  0
LINE
  8
別途部材
  6
CONTINUOUS
 10
-0.909657
 20
-70.291265
 11
0.090343
 21
-70.291265
  0
LINE
  8
別途部材
  6
CONTINUOUS
 10
2.090343
 20
-71.291265
 11
3.090343
 21
-70.291265
  0
LINE
  8
別途部材
  6
CONTINUOUS
 10
4.090343
 20
-70.291265
 11
5.090343
 21
-71.291265
  0
LINE
  8
別途部材
  6
CONTINUOUS
 10
3.090343
 20
-70.291265
 11
4.090343
 21
-70.291265
  0
LINE
  8
別途部材
  6
CONTINUOUS
 10
6.090343
 20
-71.291265
 11
7.090343
 21
-70.291265
  0
LINE
  8
別途部材
  6
CONTINUOUS
 10
8.090343
 20
-70.291265
 11
9.090343
 21
-71.291265
  0
LINE
  8
別途部材
  6
CONTINUOUS
 10
7.090343
 20
-70.291265
 11
8.090343
 21
-70.291265
  0
LINE
  8
別途部材
  6
CONTINUOUS
 10
10.090343
 20
-71.291265
 11
11.090343
 21
-70.291265
  0
LINE
  8
別途部材
  6
CONTINUOUS
 10
12.090343
 20
-70.291265
 11
13.090343
 21
-71.291265
  0
LINE
  8
別途部材
  6
CONTINUOUS
 10
11.090343
 20
-70.291265
 11
12.090343
 21
-70.291265
  0
LINE
  8
別途部材
  6
CONTINUOUS
 10
14.090343
 20
-71.291265
 11
15.090343
 21
-70.291265
  0
LINE
  8
別途部材
  6
CONTINUOUS
 10
16.090343
 20
-70.291265
 11
17.090343
 21
-71.291265
  0
LINE
  8
別途部材
  6
CONTINUOUS
 10
15.090343
 20
-70.291265
 11
16.090343
 21
-70.291265
  0
LINE
  8
別途部材
  6
CONTINUOUS
 10
18.090343
 20
-71.291265
 11
19.090343
 21
-70.291265
  0
LINE
  8
別途部材
  6
CONTINUOUS
 10
20.090343
 20
-70.291265
 11
21.090343
 21
-71.291265
  0
LINE
  8
別途部材
  6
CONTINUOUS
 10
19.090343
 20
-70.291265
 11
20.090343
 21
-70.291265
  0
LINE
  8
別途部材
  6
CONTINUOUS
 10
22.090343
 20
-71.291265
 11
23.090343
 21
-70.291265
  0
LINE
  8
別途部材
  6
CONTINUOUS
 10
24.090343
 20
-70.291265
 11
25.090343
 21
-71.291265
  0
LINE
  8
別途部材
  6
CONTINUOUS
 10
23.090343
 20
-70.291265
 11
24.090343
 21
-70.291265
  0
LINE
  8
別途部材
  6
CONTINUOUS
 10
21.090343
 20
-71.291265
 11
22.090343
 21
-71.291265
  0
LINE
  8
別途部材
  6
CONTINUOUS
 10
17.090343
 20
-71.291265
 11
18.090343
 21
-71.291265
  0
LINE
  8
別途部材
  6
CONTINUOUS
 10
13.090343
 20
-71.291265
 11
14.090343
 21
-71.291265
  0
LINE
  8
別途部材
  6
CONTINUOUS
 10
9.090343
 20
-71.291265
 11
10.090343
 21
-71.291265
  0
LINE
  8
別途部材
  6
CONTINUOUS
 10
5.090343
 20
-71.291265
 11
6.090343
 21
-71.291265
  0
LINE
  8
別途部材
  6
CONTINUOUS
 10
1.090343
 20
-71.291265
 11
2.090343
 21
-71.291265
  0
LINE
  8
別途部材
  6
CONTINUOUS
 10
-2.909657
 20
-71.291265
 11
-1.909657
 21
-71.291265
  0
LINE
  8
別途部材
  6
CONTINUOUS
 10
-6.909657
 20
-71.291265
 11
-5.909657
 21
-71.291265
  0
LINE
  8
別途部材
  6
CONTINUOUS
 10
-10.909657
 20
-71.291265
 11
-9.909657
 21
-71.291265
  0
LINE
  8
別途部材
  6
CONTINUOUS
 10
-14.909657
 20
-71.291265
 11
-13.909657
 21
-71.291265
  0
LINE
  8
別途部材
  6
CONTINUOUS
 10
-17.909657
 20
-71.291265
 11
-18.909657
 21
-71.291265
  0
LINE
  8
別途部材
  6
CONTINUOUS
 10
26.090343
 20
-71.291265
 11
27.090343
 21
-70.291265
  0
LINE
  8
別途部材
  6
CONTINUOUS
 10
28.090343
 20
-70.291265
 11
29.090343
 21
-71.291265
  0
LINE
  8
別途部材
  6
CONTINUOUS
 10
27.090343
 20
-70.291265
 11
28.090343
 21
-70.291265
  0
LINE
  8
別途部材
  6
CONTINUOUS
 10
30.090343
 20
-71.291265
 11
31.090343
 21
-70.291265
  0
LINE
  8
別途部材
  6
CONTINUOUS
 10
32.090343
 20
-70.291265
 11
33.090343
 21
-71.291265
  0
LINE
  8
別途部材
  6
CONTINUOUS
 10
31.090343
 20
-70.291265
 11
32.090343
 21
-70.291265
  0
LINE
  8
別途部材
  6
CONTINUOUS
 10
34.090343
 20
-71.291265
 11
35.090343
 21
-70.291265
  0
LINE
  8
別途部材
  6
CONTINUOUS
 10
36.090343
 20
-70.291265
 11
37.090343
 21
-71.291265
  0
LINE
  8
別途部材
  6
CONTINUOUS
 10
35.090343
 20
-70.291265
 11
36.090343
 21
-70.291265
  0
LINE
  8
別途部材
  6
CONTINUOUS
 10
38.090343
 20
-71.291265
 11
39.090343
 21
-70.291265
  0
LINE
  8
別途部材
  6
CONTINUOUS
 10
40.090343
 20
-70.291265
 11
41.090343
 21
-71.291265
  0
LINE
  8
別途部材
  6
CONTINUOUS
 10
39.090343
 20
-70.291265
 11
40.090343
 21
-70.291265
  0
LINE
  8
別途部材
  6
CONTINUOUS
 10
42.090343
 20
-71.291265
 11
43.090343
 21
-70.291265
  0
LINE
  8
別途部材
  6
CONTINUOUS
 10
44.090343
 20
-70.291265
 11
45.090343
 21
-71.291265
  0
LINE
  8
別途部材
  6
CONTINUOUS
 10
43.090343
 20
-70.291265
 11
44.090343
 21
-70.291265
  0
LINE
  8
別途部材
  6
CONTINUOUS
 10
46.090343
 20
-71.291265
 11
47.090343
 21
-70.291265
  0
LINE
  8
別途部材
  6
CONTINUOUS
 10
48.090343
 20
-70.291265
 11
49.090343
 21
-71.291265
  0
LINE
  8
別途部材
  6
CONTINUOUS
 10
47.090343
 20
-70.291265
 11
48.090343
 21
-70.291265
  0
LINE
  8
別途部材
  6
CONTINUOUS
 10
50.090343
 20
-71.291265
 11
51.090343
 21
-70.291265
  0
LINE
  8
別途部材
  6
CONTINUOUS
 10
52.090343
 20
-70.291265
 11
53.090343
 21
-71.291265
  0
LINE
  8
別途部材
  6
CONTINUOUS
 10
51.090343
 20
-70.291265
 11
52.090343
 21
-70.291265
  0
LINE
  8
別途部材
  6
CONTINUOUS
 10
54.090343
 20
-71.291265
 11
55.090343
 21
-70.291265
  0
LINE
  8
別途部材
  6
CONTINUOUS
 10
56.090343
 20
-70.291265
 11
57.090343
 21
-71.291265
  0
LINE
  8
別途部材
  6
CONTINUOUS
 10
55.090343
 20
-70.291265
 11
56.090343
 21
-70.291265
  0
LINE
  8
別途部材
  6
CONTINUOUS
 10
53.090343
 20
-71.291265
 11
54.090343
 21
-71.291265
  0
LINE
  8
別途部材
  6
CONTINUOUS
 10
49.090343
 20
-71.291265
 11
50.090343
 21
-71.291265
  0
LINE
  8
別途部材
  6
CONTINUOUS
 10
45.090343
 20
-71.291265
 11
46.090343
 21
-71.291265
  0
LINE
  8
別途部材
  6
CONTINUOUS
 10
41.090343
 20
-71.291265
 11
42.090343
 21
-71.291265
  0
LINE
  8
別途部材
  6
CONTINUOUS
 10
37.090343
 20
-71.291265
 11
38.090343
 21
-71.291265
  0
LINE
  8
別途部材
  6
CONTINUOUS
 10
33.090343
 20
-71.291265
 11
34.090343
 21
-71.291265
  0
LINE
  8
別途部材
  6
CONTINUOUS
 10
29.090343
 20
-71.291265
 11
30.090343
 21
-71.291265
  0
LINE
  8
別途部材
  6
CONTINUOUS
 10
25.090343
 20
-71.291265
 11
26.090343
 21
-71.291265
  0
LINE
  8
別途部材
  6
CONTINUOUS
 10
57.090343
 20
-71.291265
 11
57.090343
 21
-79.624597
  0
LINE
  8
別途部材
  6
CONTINUOUS
 10
55.090343
 20
-70.291265
 11
55.090343
 21
-79.624597
  0
LINE
  8
別途部材
  6
CONTINUOUS
 10
56.090343
 20
-70.291265
 11
56.090343
 21
-79.624597
  0
LINE
  8
別途部材
  6
CONTINUOUS
 10
53.090343
 20
-71.291265
 11
53.090343
 21
-79.624597
  0
LINE
  8
別途部材
  6
CONTINUOUS
 10
54.090343
 20
-71.291265
 11
54.090343
 21
-79.624597
  0
LINE
  8
別途部材
  6
CONTINUOUS
 10
52.090343
 20
-70.291265
 11
52.090343
 21
-79.624597
  0
LINE
  8
別途部材
  6
CONTINUOUS
 10
50.090343
 20
-71.291265
 11
50.090343
 21
-79.624597
  0
LINE
  8
別途部材
  6
CONTINUOUS
 10
51.090343
 20
-70.291265
 11
51.090343
 21
-79.624597
  0
LINE
  8
別途部材
  6
CONTINUOUS
 10
49.090343
 20
-71.291265
 11
49.090343
 21
-79.624597
  0
LINE
  8
別途部材
  6
CONTINUOUS
 10
48.090343
 20
-70.291265
 11
48.090343
 21
-79.624597
  0
LINE
  8
別途部材
  6
CONTINUOUS
 10
46.090343
 20
-71.291265
 11
46.090343
 21
-79.624597
  0
LINE
  8
別途部材
  6
CONTINUOUS
 10
47.090343
 20
-70.291265
 11
47.090343
 21
-79.624597
  0
LINE
  8
別途部材
  6
CONTINUOUS
 10
44.090343
 20
-70.291265
 11
44.090343
 21
-79.624597
  0
LINE
  8
別途部材
  6
CONTINUOUS
 10
45.090343
 20
-71.291265
 11
45.090343
 21
-79.624597
  0
LINE
  8
別途部材
  6
CONTINUOUS
 10
42.090343
 20
-71.291265
 11
42.090343
 21
-79.624597
  0
LINE
  8
別途部材
  6
CONTINUOUS
 10
43.090343
 20
-70.291265
 11
43.090343
 21
-79.624597
  0
LINE
  8
別途部材
  6
CONTINUOUS
 10
41.090343
 20
-71.291265
 11
41.090343
 21
-79.624597
  0
LINE
  8
別途部材
  6
CONTINUOUS
 10
39.090343
 20
-70.291265
 11
39.090343
 21
-79.624597
  0
LINE
  8
別途部材
  6
CONTINUOUS
 10
40.090343
 20
-70.291265
 11
40.090343
 21
-79.624597
  0
LINE
  8
別途部材
  6
CONTINUOUS
 10
38.090343
 20
-71.291265
 11
38.090343
 21
-79.624597
  0
LINE
  8
別途部材
  6
CONTINUOUS
 10
37.090343
 20
-71.291265
 11
37.090343
 21
-79.624597
  0
LINE
  8
別途部材
  6
CONTINUOUS
 10
36.090343
 20
-70.291265
 11
36.090343
 21
-79.624597
  0
LINE
  8
別途部材
  6
CONTINUOUS
 10
35.090343
 20
-70.291265
 11
35.090343
 21
-79.624597
  0
LINE
  8
別途部材
  6
CONTINUOUS
 10
31.090343
 20
-70.291265
 11
31.090343
 21
-79.624597
  0
LINE
  8
別途部材
  6
CONTINUOUS
 10
24.090343
 20
-70.291265
 11
24.090343
 21
-79.624597
  0
LINE
  8
別途部材
  6
CONTINUOUS
 10
20.090343
 20
-70.291265
 11
20.090343
 21
-79.624597
  0
LINE
  8
別途部材
  6
CONTINUOUS
 10
18.090343
 20
-71.291265
 11
18.090343
 21
-79.624597
  0
LINE
  8
別途部材
  6
CONTINUOUS
 10
23.090343
 20
-70.291265
 11
23.090343
 21
-79.624597
  0
LINE
  8
別途部材
  6
CONTINUOUS
 10
27.090343
 20
-70.291265
 11
27.090343
 21
-79.624597
  0
LINE
  8
別途部材
  6
CONTINUOUS
 10
29.090343
 20
-71.291265
 11
29.090343
 21
-79.624597
  0
LINE
  8
別途部材
  6
CONTINUOUS
 10
32.090343
 20
-70.291265
 11
32.090343
 21
-79.624597
  0
LINE
  8
別途部材
  6
CONTINUOUS
 10
33.090343
 20
-71.291265
 11
33.090343
 21
-79.624597
  0
LINE
  8
別途部材
  6
CONTINUOUS
 10
34.090343
 20
-71.291265
 11
34.090343
 21
-79.624597
  0
LINE
  8
別途部材
  6
CONTINUOUS
 10
30.090343
 20
-71.291265
 11
30.090343
 21
-79.624597
  0
LINE
  8
別途部材
  6
CONTINUOUS
 10
28.090343
 20
-70.291265
 11
28.090343
 21
-79.624597
  0
LINE
  8
別途部材
  6
CONTINUOUS
 10
26.090343
 20
-71.291265
 11
26.090343
 21
-79.624597
  0
LINE
  8
別途部材
  6
CONTINUOUS
 10
25.090343
 20
-71.291265
 11
25.090343
 21
-79.624597
  0
LINE
  8
別途部材
  6
CONTINUOUS
 10
22.090343
 20
-71.291265
 11
22.090343
 21
-79.624597
  0
LINE
  8
別途部材
  6
CONTINUOUS
 10
21.090343
 20
-71.291265
 11
21.090343
 21
-79.624597
  0
LINE
  8
別途部材
  6
CONTINUOUS
 10
19.090343
 20
-70.291265
 11
19.090343
 21
-79.624597
  0
LINE
  8
別途部材
  6
CONTINUOUS
 10
16.090343
 20
-70.291265
 11
16.090343
 21
-79.624597
  0
LINE
  8
別途部材
  6
CONTINUOUS
 10
17.090343
 20
-71.291265
 11
17.090343
 21
-79.624597
  0
LINE
  8
別途部材
  6
CONTINUOUS
 10
15.090343
 20
-70.291265
 11
15.090343
 21
-79.624597
  0
LINE
  8
別途部材
  6
CONTINUOUS
 10
14.090343
 20
-71.291265
 11
14.090343
 21
-79.624597
  0
LINE
  8
別途部材
  6
CONTINUOUS
 10
13.090343
 20
-71.291265
 11
13.090343
 21
-79.624597
  0
LINE
  8
別途部材
  6
CONTINUOUS
 10
12.090343
 20
-70.291265
 11
12.090343
 21
-79.624597
  0
LINE
  8
別途部材
  6
CONTINUOUS
 10
10.090343
 20
-71.291265
 11
10.090343
 21
-79.624597
  0
LINE
  8
別途部材
  6
CONTINUOUS
 10
11.090343
 20
-70.291265
 11
11.090343
 21
-79.624597
  0
LINE
  8
別途部材
  6
CONTINUOUS
 10
8.090343
 20
-70.291265
 11
8.090343
 21
-79.624597
  0
LINE
  8
別途部材
  6
CONTINUOUS
 10
9.090343
 20
-71.291265
 11
9.090343
 21
-79.624597
  0
LINE
  8
別途部材
  6
CONTINUOUS
 10
5.090343
 20
-71.291265
 11
5.090343
 21
-79.624597
  0
LINE
  8
別途部材
  6
CONTINUOUS
 10
4.090343
 20
-70.291265
 11
4.090343
 21
-79.624597
  0
LINE
  8
別途部材
  6
CONTINUOUS
 10
3.090343
 20
-70.291265
 11
3.090343
 21
-79.624597
  0
LINE
  8
別途部材
  6
CONTINUOUS
 10
6.090343
 20
-71.291265
 11
6.090343
 21
-79.624597
  0
LINE
  8
別途部材
  6
CONTINUOUS
 10
7.090343
 20
-70.291265
 11
7.090343
 21
-79.624597
  0
LINE
  8
別途部材
  6
CONTINUOUS
 10
-0.909657
 20
-70.291265
 11
-0.909657
 21
-79.624597
  0
LINE
  8
別途部材
  6
CONTINUOUS
 10
1.090343
 20
-71.291265
 11
1.090343
 21
-79.624597
  0
LINE
  8
別途部材
  6
CONTINUOUS
 10
2.090343
 20
-71.291265
 11
2.090343
 21
-79.624597
  0
LINE
  8
別途部材
  6
CONTINUOUS
 10
0.090343
 20
-70.291265
 11
0.090343
 21
-79.624597
  0
LINE
  8
別途部材
  6
CONTINUOUS
 10
-1.909657
 20
-71.291265
 11
-1.909657
 21
-79.624597
  0
LINE
  8
別途部材
  6
CONTINUOUS
 10
-3.909657
 20
-70.291265
 11
-3.909657
 21
-79.624597
  0
LINE
  8
別途部材
  6
CONTINUOUS
 10
-4.909657
 20
-70.291265
 11
-4.909657
 21
-79.624597
  0
LINE
  8
別途部材
  6
CONTINUOUS
 10
-6.909657
 20
-71.291265
 11
-6.909657
 21
-79.624597
  0
LINE
  8
別途部材
  6
CONTINUOUS
 10
-5.909657
 20
-71.291265
 11
-5.909657
 21
-79.624597
  0
LINE
  8
別途部材
  6
CONTINUOUS
 10
-2.909657
 20
-71.291265
 11
-2.909657
 21
-79.624597
  0
LINE
  8
別途部材
  6
CONTINUOUS
 10
-7.909657
 20
-70.291265
 11
-7.909657
 21
-79.624597
  0
LINE
  8
別途部材
  6
CONTINUOUS
 10
-9.909657
 20
-71.291265
 11
-9.909657
 21
-79.624597
  0
LINE
  8
別途部材
  6
CONTINUOUS
 10
-8.909657
 20
-70.291265
 11
-8.909657
 21
-79.624597
  0
LINE
  8
別途部材
  6
CONTINUOUS
 10
-10.909657
 20
-71.291265
 11
-10.909657
 21
-79.624597
  0
LINE
  8
別途部材
  6
CONTINUOUS
 10
-11.909657
 20
-70.291265
 11
-11.909657
 21
-79.624597
  0
LINE
  8
別途部材
  6
CONTINUOUS
 10
-13.909657
 20
-71.291265
 11
-13.909657
 21
-79.624597
  0
LINE
  8
別途部材
  6
CONTINUOUS
 10
-12.909657
 20
-70.291265
 11
-12.909657
 21
-79.624597
  0
LINE
  8
別途部材
  6
CONTINUOUS
 10
-14.909657
 20
-71.291265
 11
-14.909657
 21
-79.624597
  0
LINE
  8
別途部材
  6
CONTINUOUS
 10
-15.909657
 20
-70.291265
 11
-15.909657
 21
-79.624597
  0
LINE
  8
別途部材
  6
CONTINUOUS
 10
-17.909657
 20
-71.291265
 11
-17.909657
 21
-79.624597
  0
LINE
  8
別途部材
  6
CONTINUOUS
 10
-16.909657
 20
-70.291265
 11
-16.909657
 21
-79.624597
  0
LINE
  8
別途部材
  6
CONTINUOUS
 10
-18.909657
 20
-71.291265
 11
-18.909657
 21
-79.624597
  0
LINE
  8
別途部材
  6
CONTINUOUS
 10
-19.909657
 20
-70.291265
 11
-19.909657
 21
-79.624597
  0
ARC
  8
別途部材
  6
CONTINUOUS
 10
56.257009
 20
-88.957936
 40
17.666667
 50
31.890796
 51
87.296368
  0
ENDBLK
  0
BLOCK
  2
*DIM_0015
 70
    65
 10
0.0
 20
0.0
  0
LINE
  8
寸法
  6
BYBLOCK
 62
     0
 10
145.328765
 20
-87.823622
 11
155.941423
 21
-87.823622
  0
LINE
  8
寸法
  6
BYBLOCK
 62
     0
 10
145.328765
 20
-58.49029
 11
155.941423
 21
-58.49029
  0
LINE
  8
寸法
  6
BYBLOCK
 62
     0
 10
155.941423
 20
-87.823622
 11
155.941423
 21
-58.49029
  0
POINT
  8
寸法
 62
     0
 10
155.941423
 20
-87.823622
  0
POINT
  8
寸法
 62
     0
 10
155.941423
 20
-58.49029
  0
TEXT
  7
TextStyle03
  8
寸法
  6
CONTINUOUS
 62
     0
 10
155.55
 20
-75.6125
  1
880
 40
3.0
 50
90.0
 72
     5
 11
155.55
 21
-70.7375
  0
ENDBLK
  0
BLOCK
  2
*DIM_0016
 70
    65
 10
0.0
 20
0.0
  0
LINE
  8
寸法
  6
BYBLOCK
 62
     0
 10
-115.076325
 20
38.399048
 11
-128.369163
 21
38.399048
  0
LINE
  8
寸法
  6
BYBLOCK
 62
     0
 10
-115.076325
 20
18.399048
 11
-128.369163
 21
18.399048
  0
LINE
  8
寸法
  6
BYBLOCK
 62
     0
 10
-128.369163
 20
38.399048
 11
-128.369163
 21
18.399048
  0
POINT
  8
寸法
 62
     0
 10
-128.369163
 20
38.399048
  0
POINT
  8
寸法
 62
     0
 10
-128.369163
 20
18.399048
  0
TEXT
  7
TextStyle03
  8
寸法
  6
CONTINUOUS
 62
     0
 10
-128.775
 20
25.9625
  1
600
 40
3.0
 50
90.0
 72
     5
 11
-128.775
 21
30.8375
  0
ENDBLK
  0
BLOCK
  2
*DIM_0017
 70
    65
 10
0.0
 20
0.0
  0
LINE
  8
寸法
  6
BYBLOCK
 62
     0
 10
-100.40966
 20
46.399048
 11
-100.40966
 21
75.50712
  0
LINE
  8
寸法
  6
BYBLOCK
 62
     0
 10
-73.742993
 20
46.399048
 11
-73.742993
 21
75.50712
  0
LINE
  8
寸法
  6
BYBLOCK
 62
     0
 10
-100.40966
 20
75.50712
 11
-73.742993
 21
75.50712
  0
POINT
  8
寸法
 62
     0
 10
-100.40966
 20
75.50712
  0
POINT
  8
寸法
 62
     0
 10
-73.742993
 20
75.50712
  0
TEXT
  7
TextStyle03
  8
寸法
  6
CONTINUOUS
 62
     0
 10
-89.5375
 20
75.875
  1
800
 40
3.0
 72
     5
 11
-84.6625
 21
75.875
  0
ENDBLK
  0
BLOCK
  2
*DIM_0018
 70
    65
 10
0.0
 20
0.0
  0
LINE
  8
寸法
  6
BYBLOCK
 62
     0
 10
-47.076328
 20
46.399048
 11
-47.076328
 21
75.50712
  0
LINE
  8
寸法
  6
BYBLOCK
 62
     0
 10
-73.742993
 20
75.50712
 11
-47.076328
 21
75.50712
  0
POINT
  8
寸法
 62
     0
 10
-47.076328
 20
75.50712
  0
TEXT
  7
TextStyle03
  8
寸法
  6
CONTINUOUS
 62
     0
 10
-62.8625
 20
75.875
  1
800
 40
3.0
 72
     5
 11
-57.9875
 21
75.875
  0
ENDBLK
  0
BLOCK
  2
*DIM_0019
 70
    65
 10
0.0
 20
0.0
  0
LINE
  8
寸法
  6
BYBLOCK
 62
     0
 10
-20.40966
 20
46.399048
 11
-20.40966
 21
75.50712
  0
LINE
  8
寸法
  6
BYBLOCK
 62
     0
 10
-47.076328
 20
75.50712
 11
-20.40966
 21
75.50712
  0
POINT
  8
寸法
 62
     0
 10
-20.40966
 20
75.50712
  0
TEXT
  7
TextStyle03
  8
寸法
  6
CONTINUOUS
 62
     0
 10
-36.1875
 20
75.875
  1
800
 40
3.0
 72
     5
 11
-31.3125
 21
75.875
  0
ENDBLK
  0
BLOCK
  2
*DIM_0020
 70
    65
 10
0.0
 20
0.0
  0
LINE
  8
寸法
  6
BYBLOCK
 62
     0
 10
6.257007
 20
46.399048
 11
6.257007
 21
75.50712
  0
LINE
  8
寸法
  6
BYBLOCK
 62
     0
 10
-20.40966
 20
75.50712
 11
6.257007
 21
75.50712
  0
POINT
  8
寸法
 62
     0
 10
6.257007
 20
75.50712
  0
TEXT
  7
TextStyle03
  8
寸法
  6
CONTINUOUS
 62
     0
 10
-9.5375
 20
75.875
  1
800
 40
3.0
 72
     5
 11
-4.6625
 21
75.875
  0
ENDBLK
  0
BLOCK
  2
*DIM_0021
 70
    65
 10
0.0
 20
0.0
  0
LINE
  8
寸法
  6
BYBLOCK
 62
     0
 10
32.923673
 20
46.399048
 11
32.923673
 21
75.50712
  0
LINE
  8
寸法
  6
BYBLOCK
 62
     0
 10
6.257007
 20
75.50712
 11
32.923673
 21
75.50712
  0
POINT
  8
寸法
 62
     0
 10
32.923673
 20
75.50712
  0
TEXT
  7
TextStyle03
  8
寸法
  6
CONTINUOUS
 62
     0
 10
17.1375
 20
75.875
  1
800
 40
3.0
 72
     5
 11
22.0125
 21
75.875
  0
ENDBLK
  0
BLOCK
  2
*DIM_0022
 70
    65
 10
0.0
 20
0.0
  0
LINE
  8
寸法
  6
BYBLOCK
 62
     0
 10
59.59034
 20
46.399048
 11
59.59034
 21
75.50712
  0
LINE
  8
寸法
  6
BYBLOCK
 62
     0
 10
32.923673
 20
75.50712
 11
59.59034
 21
75.50712
  0
POINT
  8
寸法
 62
     0
 10
59.59034
 20
75.50712
  0
TEXT
  7
TextStyle03
  8
寸法
  6
CONTINUOUS
 62
     0
 10
43.8125
 20
75.875
  1
800
 40
3.0
 72
     5
 11
48.6875
 21
75.875
  0
ENDBLK
  0
BLOCK
  2
*DIM_0023
 70
    65
 10
0.0
 20
0.0
  0
LINE
  8
寸法
  6
CONTINUOUS
 10
107.208765
 20
-55.986402
 11
107.208765
 21
-45.791758
  0
LINE
  8
寸法
  6
CONTINUOUS
 10
142.862097
 20
-55.986402
 11
142.862097
 21
-45.791758
  0
LINE
  8
寸法
  6
CONTINUOUS
 10
107.208765
 20
-45.791758
 11
142.862097
 21
-45.791758
  0
POINT
  8
寸法
 10
107.208765
 20
-45.791758
  0
POINT
  8
寸法
 10
142.862097
 20
-45.791758
  0
TEXT
  7
TextStyle03
  8
寸法
  6
CONTINUOUS
 10
120.05625
 20
-45.425
  1
1069.6
 40
3.0
 72
     5
 11
129.99375
 21
-45.425
  0
ENDBLK
  0
BLOCK
  2
*GRP_0024
 70
    65
 10
0.0
 20
0.0
  0
LINE
  8
ボルト／ビス
  6
CONTINUOUS
 10
-112.742995
 20
-79.624597
 11
-112.742995
 21
-79.15793
  0
LINE
  8
ボルト／ビス
  6
CONTINUOUS
 10
-113.10966
 20
-79.624597
 11
-113.10966
 21
-79.55793
  0
LINE
  8
ボルト／ビス
  6
CONTINUOUS
 10
-113.10966
 20
-79.55793
 11
-112.376328
 21
-79.55793
  0
LINE
  8
ボルト／ビス
  6
CONTINUOUS
 10
-112.376328
 20
-79.55793
 11
-112.376328
 21
-79.624597
  0
LINE
  8
ボルト／ビス
  6
CONTINUOUS
 10
-113.10966
 20
-79.624597
 11
-112.376328
 21
-79.624597
  0
LINE
  8
ボルト／ビス
  6
CONTINUOUS
 10
-113.042995
 20
-79.524597
 11
-113.042995
 21
-79.55793
  0
LINE
  8
ボルト／ビス
  6
CONTINUOUS
 10
-113.042995
 20
-79.524597
 11
-112.442995
 21
-79.524597
  0
LINE
  8
ボルト／ビス
  6
CONTINUOUS
 10
-112.442995
 20
-79.524597
 11
-112.442995
 21
-79.55793
  0
LINE
  8
ボルト／ビス
  6
CONTINUOUS
 62
    64
 10
-112.90337
 20
-79.324597
 11
-112.935445
 21
-79.336272
  0
ARC
  8
ボルト／ビス
  6
CONTINUOUS
 62
    64
 10
-112.887331
 20
-79.429575
 40
0.104978
 50
62.721967
 51
90.0
  0
ARC
  8
ボルト／ビス
  6
CONTINUOUS
 62
    64
 10
-112.742993
 20
-79.726999
 40
0.402402
 50
76.165002
 51
103.834985
  0
LINE
  8
ボルト／ビス
  6
CONTINUOUS
 62
    64
 10
-112.58262
 20
-79.324597
 11
-112.550545
 21
-79.336272
  0
ARC
  8
ボルト／ビス
  6
CONTINUOUS
 62
    64
 10
-112.598656
 20
-79.429575
 40
0.104978
 50
90.0
 51
117.278033
  0
LINE
  8
ボルト／ビス
  6
CONTINUOUS
 62
    64
 10
-112.90337
 20
-79.324597
 11
-112.58262
 21
-79.324597
  0
LINE
  8
ボルト／ビス
  6
CONTINUOUS
 62
    64
 10
-112.550545
 20
-79.336272
 11
-112.550545
 21
-79.45793
  0
LINE
  8
ボルト／ビス
  6
CONTINUOUS
 62
    64
 10
-112.64677
 20
-79.336272
 11
-112.64677
 21
-79.45793
  0
LINE
  8
ボルト／ビス
  6
CONTINUOUS
 62
    64
 10
-112.935445
 20
-79.336272
 11
-112.935445
 21
-79.45793
  0
LINE
  8
ボルト／ビス
  6
CONTINUOUS
 62
    64
 10
-112.83922
 20
-79.336272
 11
-112.83922
 21
-79.45793
  0
LINE
  8
ボルト／ビス
  6
CONTINUOUS
 10
-112.935445
 20
-79.45793
 11
-112.550545
 21
-79.45793
  0
LINE
  8
ボルト／ビス
  6
CONTINUOUS
 10
-112.942995
 20
-79.45793
 11
-112.942995
 21
-79.524597
  0
LINE
  8
ボルト／ビス
  6
CONTINUOUS
 10
-112.942995
 20
-79.45793
 11
-112.542995
 21
-79.45793
  0
LINE
  8
ボルト／ビス
  6
CONTINUOUS
 10
-112.542995
 20
-79.45793
 11
-112.542995
 21
-79.524597
  0
ENDBLK
  0
BLOCK
  2
*GRP_0025
 70
    65
 10
0.0
 20
0.0
  0
LINE
  8
ボルト／ビス
  6
CONTINUOUS
 10
71.923675
 20
-79.624597
 11
71.923675
 21
-79.15793
  0
LINE
  8
ボルト／ビス
  6
CONTINUOUS
 10
71.55701
 20
-79.624597
 11
71.55701
 21
-79.55793
  0
LINE
  8
ボルト／ビス
  6
CONTINUOUS
 10
71.55701
 20
-79.55793
 11
72.290343
 21
-79.55793
  0
LINE
  8
ボルト／ビス
  6
CONTINUOUS
 10
72.290343
 20
-79.55793
 11
72.290343
 21
-79.624597
  0
LINE
  8
ボルト／ビス
  6
CONTINUOUS
 10
71.55701
 20
-79.624597
 11
72.290343
 21
-79.624597
  0
LINE
  8
ボルト／ビス
  6
CONTINUOUS
 10
71.623675
 20
-79.524597
 11
71.623675
 21
-79.55793
  0
LINE
  8
ボルト／ビス
  6
CONTINUOUS
 10
71.623675
 20
-79.524597
 11
72.223675
 21
-79.524597
  0
LINE
  8
ボルト／ビス
  6
CONTINUOUS
 10
72.223675
 20
-79.524597
 11
72.223675
 21
-79.55793
  0
LINE
  8
ボルト／ビス
  6
CONTINUOUS
 62
    64
 10
71.7633
 20
-79.324597
 11
71.731225
 21
-79.336272
  0
ARC
  8
ボルト／ビス
  6
CONTINUOUS
 62
    64
 10
71.779339
 20
-79.429575
 40
0.104978
 50
62.721967
 51
90.0
  0
ARC
  8
ボルト／ビス
  6
CONTINUOUS
 62
    64
 10
71.923677
 20
-79.726999
 40
0.402402
 50
76.165002
 51
103.834985
  0
LINE
  8
ボルト／ビス
  6
CONTINUOUS
 62
    64
 10
72.08405
 20
-79.324597
 11
72.116125
 21
-79.336272
  0
ARC
  8
ボルト／ビス
  6
CONTINUOUS
 62
    64
 10
72.068014
 20
-79.429575
 40
0.104978
 50
90.0
 51
117.278033
  0
LINE
  8
ボルト／ビス
  6
CONTINUOUS
 62
    64
 10
71.7633
 20
-79.324597
 11
72.08405
 21
-79.324597
  0
LINE
  8
ボルト／ビス
  6
CONTINUOUS
 62
    64
 10
72.116125
 20
-79.336272
 11
72.116125
 21
-79.45793
  0
LINE
  8
ボルト／ビス
  6
CONTINUOUS
 62
    64
 10
72.0199
 20
-79.336272
 11
72.0199
 21
-79.45793
  0
LINE
  8
ボルト／ビス
  6
CONTINUOUS
 62
    64
 10
71.731225
 20
-79.336272
 11
71.731225
 21
-79.45793
  0
LINE
  8
ボルト／ビス
  6
CONTINUOUS
 62
    64
 10
71.82745
 20
-79.336272
 11
71.82745
 21
-79.45793
  0
LINE
  8
ボルト／ビス
  6
CONTINUOUS
 10
71.731225
 20
-79.45793
 11
72.116125
 21
-79.45793
  0
LINE
  8
ボルト／ビス
  6
CONTINUOUS
 10
71.723675
 20
-79.45793
 11
71.723675
 21
-79.524597
  0
LINE
  8
ボルト／ビス
  6
CONTINUOUS
 10
71.723675
 20
-79.45793
 11
72.123675
 21
-79.45793
  0
LINE
  8
ボルト／ビス
  6
CONTINUOUS
 10
72.123675
 20
-79.45793
 11
72.123675
 21
-79.524597
  0
ENDBLK
  0
BLOCK
  2
*GRP_0026
 70
    65
 10
0.0
 20
0.0
  0
LINE
  8
ボルト／ビス
  6
CONTINUOUS
 10
160.790272
 20
12.73238
 11
160.323605
 21
12.73238
  0
LINE
  8
ボルト／ビス
  6
CONTINUOUS
 10
160.790272
 20
12.365715
 11
160.723605
 21
12.365715
  0
LINE
  8
ボルト／ビス
  6
CONTINUOUS
 10
160.723605
 20
12.365715
 11
160.723605
 21
13.099048
  0
LINE
  8
ボルト／ビス
  6
CONTINUOUS
 10
160.723605
 20
13.099048
 11
160.790272
 21
13.099048
  0
LINE
  8
ボルト／ビス
  6
CONTINUOUS
 10
160.790272
 20
12.365715
 11
160.790272
 21
13.099048
  0
LINE
  8
ボルト／ビス
  6
CONTINUOUS
 10
160.690272
 20
12.43238
 11
160.723605
 21
12.43238
  0
LINE
  8
ボルト／ビス
  6
CONTINUOUS
 10
160.690272
 20
12.43238
 11
160.690272
 21
13.03238
  0
LINE
  8
ボルト／ビス
  6
CONTINUOUS
 10
160.690272
 20
13.03238
 11
160.723605
 21
13.03238
  0
LINE
  8
ボルト／ビス
  6
CONTINUOUS
 62
    64
 10
160.490273
 20
12.572005
 11
160.501947
 21
12.53993
  0
ARC
  8
ボルト／ビス
  6
CONTINUOUS
 62
    64
 10
160.595248
 20
12.588043
 40
0.104978
 50
152.721967
 51
180.0
  0
ARC
  8
ボルト／ビス
  6
CONTINUOUS
 62
    64
 10
160.892672
 20
12.732381
 40
0.402402
 50
166.165002
 51
193.834985
  0
LINE
  8
ボルト／ビス
  6
CONTINUOUS
 62
    64
 10
160.490273
 20
12.892755
 11
160.501947
 21
12.92483
  0
ARC
  8
ボルト／ビス
  6
CONTINUOUS
 62
    64
 10
160.595248
 20
12.876718
 40
0.104978
 50
180.0
 51
207.278033
  0
LINE
  8
ボルト／ビス
  6
CONTINUOUS
 62
    64
 10
160.490273
 20
12.572005
 11
160.490273
 21
12.892755
  0
LINE
  8
ボルト／ビス
  6
CONTINUOUS
 62
    64
 10
160.501947
 20
12.92483
 11
160.623605
 21
12.92483
  0
LINE
  8
ボルト／ビス
  6
CONTINUOUS
 62
    64
 10
160.501947
 20
12.828605
 11
160.623605
 21
12.828605
  0
LINE
  8
ボルト／ビス
  6
CONTINUOUS
 62
    64
 10
160.501947
 20
12.53993
 11
160.623605
 21
12.53993
  0
LINE
  8
ボルト／ビス
  6
CONTINUOUS
 62
    64
 10
160.501947
 20
12.636155
 11
160.623605
 21
12.636155
  0
LINE
  8
ボルト／ビス
  6
CONTINUOUS
 10
160.623605
 20
12.53993
 11
160.623605
 21
12.92483
  0
LINE
  8
ボルト／ビス
  6
CONTINUOUS
 10
160.623605
 20
12.53238
 11
160.690272
 21
12.53238
  0
LINE
  8
ボルト／ビス
  6
CONTINUOUS
 10
160.623605
 20
12.53238
 11
160.623605
 21
12.93238
  0
LINE
  8
ボルト／ビス
  6
CONTINUOUS
 10
160.623605
 20
12.93238
 11
160.690272
 21
12.93238
  0
ENDBLK
  0
BLOCK
  2
*GRP_0027
 70
    65
 10
0.0
 20
0.0
  0
LINE
  8
ボルト／ビス
  6
CONTINUOUS
 10
160.790272
 20
44.065715
 11
160.323605
 21
44.065715
  0
LINE
  8
ボルト／ビス
  6
CONTINUOUS
 10
160.790272
 20
43.69905
 11
160.723605
 21
43.69905
  0
LINE
  8
ボルト／ビス
  6
CONTINUOUS
 10
160.723605
 20
43.69905
 11
160.723605
 21
44.432382
  0
LINE
  8
ボルト／ビス
  6
CONTINUOUS
 10
160.723605
 20
44.432382
 11
160.790272
 21
44.432382
  0
LINE
  8
ボルト／ビス
  6
CONTINUOUS
 10
160.790272
 20
43.69905
 11
160.790272
 21
44.432382
  0
LINE
  8
ボルト／ビス
  6
CONTINUOUS
 10
160.690272
 20
43.765715
 11
160.723605
 21
43.765715
  0
LINE
  8
ボルト／ビス
  6
CONTINUOUS
 10
160.690272
 20
43.765715
 11
160.690272
 21
44.365715
  0
LINE
  8
ボルト／ビス
  6
CONTINUOUS
 10
160.690272
 20
44.365715
 11
160.723605
 21
44.365715
  0
LINE
  8
ボルト／ビス
  6
CONTINUOUS
 62
    64
 10
160.490273
 20
43.90534
 11
160.501947
 21
43.873265
  0
ARC
  8
ボルト／ビス
  6
CONTINUOUS
 62
    64
 10
160.595248
 20
43.921378
 40
0.104978
 50
152.721967
 51
180.0
  0
ARC
  8
ボルト／ビス
  6
CONTINUOUS
 62
    64
 10
160.892672
 20
44.065716
 40
0.402402
 50
166.165002
 51
193.834985
  0
LINE
  8
ボルト／ビス
  6
CONTINUOUS
 62
    64
 10
160.490273
 20
44.22609
 11
160.501947
 21
44.258165
  0
ARC
  8
ボルト／ビス
  6
CONTINUOUS
 62
    64
 10
160.595248
 20
44.210053
 40
0.104978
 50
180.0
 51
207.278033
  0
LINE
  8
ボルト／ビス
  6
CONTINUOUS
 62
    64
 10
160.490273
 20
43.90534
 11
160.490273
 21
44.22609
  0
LINE
  8
ボルト／ビス
  6
CONTINUOUS
 62
    64
 10
160.501947
 20
44.258165
 11
160.623605
 21
44.258165
  0
LINE
  8
ボルト／ビス
  6
CONTINUOUS
 62
    64
 10
160.501947
 20
44.16194
 11
160.623605
 21
44.16194
  0
LINE
  8
ボルト／ビス
  6
CONTINUOUS
 62
    64
 10
160.501947
 20
43.873265
 11
160.623605
 21
43.873265
  0
LINE
  8
ボルト／ビス
  6
CONTINUOUS
 62
    64
 10
160.501947
 20
43.96949
 11
160.623605
 21
43.96949
  0
LINE
  8
ボルト／ビス
  6
CONTINUOUS
 10
160.623605
 20
43.873265
 11
160.623605
 21
44.258165
  0
LINE
  8
ボルト／ビス
  6
CONTINUOUS
 10
160.623605
 20
43.865715
 11
160.690272
 21
43.865715
  0
LINE
  8
ボルト／ビス
  6
CONTINUOUS
 10
160.623605
 20
43.865715
 11
160.623605
 21
44.265715
  0
LINE
  8
ボルト／ビス
  6
CONTINUOUS
 10
160.623605
 20
44.265715
 11
160.690272
 21
44.265715
  0
ENDBLK
  0
ENDSEC
  0
SECTION
  2
ENTITIES
  0
POLYLINE
  8
通り芯
  6
CONTINUOUS
 66
     1
 70
     1
  0
VERTEX
  8
通り芯
 10
-210.0
 20
-148.5
  0
VERTEX
  8
通り芯
 10
210.0
 20
-148.5
  0
VERTEX
  8
通り芯
 10
210.0
 20
148.5
  0
VERTEX
  8
通り芯
 10
-210.0
 20
148.5
  0
SEQEND
  0
INSERT
  2
*GRP_0001
  8
型材断面
  6
CONTINUOUS
 10
0.0
 20
0.0
  0
LINE
  8
型材断面
  6
DASHDOT
 10
71.257007
 20
-87.251428
 11
71.257007
 21
43.399048
  0
LINE
  8
型材断面
  6
DASHDOT
 10
-20.40966
 20
-87.251428
 11
-20.40966
 21
43.399048
  0
LINE
  8
型材断面
  6
DASHDOT
 10
-112.076325
 20
-87.251428
 11
-112.076325
 21
43.399048
  0
LINE
  8
型材断面
  6
DASHDOT
 10
168.93377
 20
43.399048
 11
-112.076325
 21
43.399048
  0
LINE
  8
型材断面
  6
DASHDOT
 10
168.93377
 20
28.399048
 11
-112.076325
 21
28.399048
  0
LINE
  8
型材断面
  6
DASHDOT
 10
168.93377
 20
13.399048
 11
-112.076325
 21
13.399048
  0
LINE
  8
型材断面
  6
CONTINUOUS
 10
-95.409657
 20
46.029177
 11
-96.905288
 21
48.619685
  0
LINE
  8
型材断面
  6
CONTINUOUS
 10
-95.409657
 20
46.029177
 11
-93.914027
 21
48.619685
  0
LINE
  8
型材断面
  6
CONTINUOUS
 10
-93.914027
 20
48.619685
 11
-96.905288
 21
48.619685
  0
LINE
  8
型材断面
  6
CONTINUOUS
 10
-152.928532
 20
87.906395
 11
-154.424162
 21
85.315887
  0
LINE
  8
型材断面
  6
CONTINUOUS
 10
-152.928532
 20
87.906395
 11
-151.432903
 21
85.315887
  0
LINE
  8
型材断面
  6
CONTINUOUS
 10
-151.432903
 20
85.315887
 11
-154.424162
 21
85.315887
  0
LINE
  8
型材断面
  6
CONTINUOUS
 10
-158.95112
 20
84.377292
 11
-112.709343
 21
84.377292
  0
LINE
  8
型材断面
  6
CONTINUOUS
 10
-114.706455
 20
28.399048
 11
-117.296962
 21
29.894678
  0
LINE
  8
型材断面
  6
CONTINUOUS
 10
-114.706455
 20
28.399048
 11
-117.296962
 21
26.903418
  0
LINE
  8
型材断面
  6
CONTINUOUS
 10
-117.296962
 20
26.903418
 11
-117.296962
 21
29.894678
  0
LINE
  8
型材断面
  6
CONTINUOUS
 10
-95.409657
 20
10.768917
 11
-96.905288
 21
8.17841
  0
LINE
  8
型材断面
  6
CONTINUOUS
 10
-95.409657
 20
10.768917
 11
-93.914027
 21
8.17841
  0
LINE
  8
型材断面
  6
CONTINUOUS
 10
-93.914027
 20
8.17841
 11
-96.905288
 21
8.17841
  0
LINE
  8
型材断面
  6
CONTINUOUS
 10
54.590337
 20
46.029177
 11
56.085967
 21
48.619685
  0
LINE
  8
型材断面
  6
CONTINUOUS
 10
54.590337
 20
46.029177
 11
53.094708
 21
48.619685
  0
LINE
  8
型材断面
  6
CONTINUOUS
 10
53.094708
 20
48.619685
 11
56.085967
 21
48.619685
  0
LINE
  8
型材断面
  6
CONTINUOUS
 10
73.887135
 20
28.399048
 11
76.477643
 21
29.894678
  0
LINE
  8
型材断面
  6
CONTINUOUS
 10
73.887135
 20
28.399048
 11
76.477643
 21
26.903418
  0
LINE
  8
型材断面
  6
CONTINUOUS
 10
76.477643
 20
26.903418
 11
76.477643
 21
29.894678
  0
LINE
  8
型材断面
  6
CONTINUOUS
 10
54.590337
 20
10.768917
 11
56.085967
 21
8.17841
  0
LINE
  8
型材断面
  6
CONTINUOUS
 10
54.590337
 20
10.768917
 11
53.094708
 21
8.17841
  0
LINE
  8
型材断面
  6
CONTINUOUS
 10
53.094708
 20
8.17841
 11
56.085967
 21
8.17841
  0
LINE
  8
型材断面
  6
CONTINUOUS
 10
-20.40966
 20
46.029175
 11
-21.90529
 21
48.619683
  0
LINE
  8
型材断面
  6
CONTINUOUS
 10
-20.40966
 20
46.029175
 11
-18.91403
 21
48.619683
  0
LINE
  8
型材断面
  6
CONTINUOUS
 10
-18.91403
 20
48.619683
 11
-21.90529
 21
48.619683
  0
LINE
  8
型材断面
  6
CONTINUOUS
 10
-20.40966
 20
10.768915
 11
-21.90529
 21
8.178407
  0
LINE
  8
型材断面
  6
CONTINUOUS
 10
-20.40966
 20
10.768915
 11
-18.91403
 21
8.178407
  0
LINE
  8
型材断面
  6
CONTINUOUS
 10
-18.91403
 20
8.178407
 11
-21.90529
 21
8.178407
  0
LINE
  8
型材断面
  6
CONTINUOUS
 10
-158.95112
 20
78.629088
 11
-112.709343
 21
78.629088
  0
LINE
  8
型材断面
  6
CONTINUOUS
 10
163.323558
 20
11.242235
 11
162.873558
 21
11.242235
  0
LINE
  8
型材断面
  6
CONTINUOUS
 62
    47
 10
162.873558
 20
10.792235
 11
162.373558
 21
10.792235
  0
LINE
  8
型材断面
  6
CONTINUOUS
 62
    47
 10
162.373558
 20
10.792235
 11
161.790272
 21
12.666692
  0
LINE
  8
型材断面
  6
CONTINUOUS
 10
162.373558
 20
10.792235
 11
162.373558
 21
28.399048
  0
LINE
  8
型材断面
  6
CONTINUOUS
 10
163.323558
 20
11.242235
 11
163.323558
 21
28.399048
  0
LINE
  8
型材断面
  6
CONTINUOUS
 10
163.323558
 20
45.55586
 11
162.873558
 21
45.55586
  0
LINE
  8
型材断面
  6
CONTINUOUS
 62
    47
 10
162.873558
 20
46.00586
 11
162.373558
 21
46.00586
  0
LINE
  8
型材断面
  6
CONTINUOUS
 62
    47
 10
162.373558
 20
46.00586
 11
161.790272
 21
44.131402
  0
LINE
  8
型材断面
  6
CONTINUOUS
 10
162.373558
 20
46.00586
 11
162.373558
 21
28.399048
  0
LINE
  8
型材断面
  6
CONTINUOUS
 10
163.323558
 20
45.55586
 11
163.323558
 21
28.399048
  0
LINE
  8
型材断面
  6
CONTINUOUS
 10
73.323675
 20
11.33238
 11
73.86382
 21
10.792235
  0
LINE
  8
型材断面
  6
CONTINUOUS
 10
73.86382
 20
10.792235
 11
73.86382
 21
28.399048
  0
LINE
  8
型材断面
  6
CONTINUOUS
 10
73.41382
 20
-82.157882
 11
73.41382
 21
-81.707882
  0
LINE
  8
型材断面
  6
CONTINUOUS
 62
    47
 10
73.86382
 20
-81.707882
 11
73.86382
 21
-81.207882
  0
LINE
  8
型材断面
  6
CONTINUOUS
 62
    47
 10
73.86382
 20
-81.207882
 11
71.989363
 21
-80.624597
  0
LINE
  8
型材断面
  6
CONTINUOUS
 10
73.86382
 20
-81.207882
 11
-20.40966
 21
-81.207882
  0
LINE
  8
型材断面
  6
CONTINUOUS
 10
73.41382
 20
-82.157882
 11
-20.40966
 21
-82.157882
  0
LINE
  8
型材断面
  6
CONTINUOUS
 10
-114.23314
 20
-82.157882
 11
-114.23314
 21
-81.707882
  0
LINE
  8
型材断面
  6
CONTINUOUS
 62
    47
 10
-114.68314
 20
-81.707882
 11
-114.68314
 21
-81.207882
  0
LINE
  8
型材断面
  6
CONTINUOUS
 62
    47
 10
-114.68314
 20
-81.207882
 11
-112.808683
 21
-80.624597
  0
LINE
  8
型材断面
  6
CONTINUOUS
 10
-114.68314
 20
-81.207882
 11
-20.40966
 21
-81.207882
  0
LINE
  8
型材断面
  6
CONTINUOUS
 10
-114.23314
 20
-82.157882
 11
-20.40966
 21
-82.157882
  0
LINE
  8
型材断面
  6
CONTINUOUS
 10
73.86382
 20
10.792235
 11
-20.40966
 21
10.792262
  0
LINE
  8
型材断面
  6
CONTINUOUS
 10
73.323675
 20
45.465715
 11
73.86382
 21
46.00586
  0
LINE
  8
型材断面
  6
CONTINUOUS
 10
73.86382
 20
46.00586
 11
73.86382
 21
28.399048
  0
LINE
  8
型材断面
  6
CONTINUOUS
 10
73.86382
 20
46.00586
 11
-20.40966
 21
46.005832
  0
LINE
  8
型材断面
  6
CONTINUOUS
 10
-114.142995
 20
45.465715
 11
-114.68314
 21
46.00586
  0
LINE
  8
型材断面
  6
CONTINUOUS
 10
-114.68314
 20
46.00586
 11
-114.68314
 21
28.399048
  0
LINE
  8
型材断面
  6
CONTINUOUS
 10
-114.68314
 20
46.00586
 11
-20.40966
 21
46.005832
  0
LINE
  8
型材断面
  6
CONTINUOUS
 10
-114.142995
 20
11.33238
 11
-114.68314
 21
10.792235
  0
LINE
  8
型材断面
  6
CONTINUOUS
 10
-114.68314
 20
10.792235
 11
-114.68314
 21
28.399048
  0
LINE
  8
型材断面
  6
CONTINUOUS
 10
-114.68314
 20
10.792235
 11
-20.40966
 21
10.792262
  0
LINE
  8
型材断面
  6
DOT
 10
-74.28966
 20
13.399048
 11
-74.28966
 21
43.399048
  0
LINE
  8
型材断面
  6
DOT
 10
-76.78966
 20
13.399048
 11
-76.78966
 21
43.399048
  0
LINE
  8
型材断面
  6
DASHDOT
 10
-75.53966
 20
13.399048
 11
-75.53966
 21
43.399048
  0
LINE
  8
型材断面
  6
DASHDOT
 10
-38.786325
 20
13.399048
 11
-38.786325
 21
43.399048
  0
LINE
  8
型材断面
  6
DOT
 10
-37.536325
 20
13.399048
 11
-37.536325
 21
43.399048
  0
LINE
  8
型材断面
  6
DOT
 10
-40.036325
 20
13.399048
 11
-40.036325
 21
43.399048
  0
LINE
  8
型材断面
  6
DOT
 10
33.47034
 20
13.399048
 11
33.47034
 21
43.399048
  0
LINE
  8
型材断面
  6
DOT
 10
35.97034
 20
13.399048
 11
35.97034
 21
43.399048
  0
LINE
  8
型材断面
  6
DASHDOT
 10
34.72034
 20
13.399048
 11
34.72034
 21
43.399048
  0
LINE
  8
型材断面
  6
DASHDOT
 10
-2.032995
 20
13.399048
 11
-2.032995
 21
43.399048
  0
LINE
  8
型材断面
  6
DOT
 10
-3.282995
 20
13.399048
 11
-3.282995
 21
43.399048
  0
LINE
  8
型材断面
  6
DOT
 10
-0.782995
 20
13.399048
 11
-0.782995
 21
43.399048
  0
LINE
  8
ガラス
  6
CONTINUOUS
 10
107.208765
 20
-87.823622
 11
107.208765
 21
-58.49029
  0
LINE
  8
ガラス
  6
CONTINUOUS
 10
142.862097
 20
-87.823622
 11
142.862097
 21
-58.49029
  0
LINE
  8
ガラス
  6
CONTINUOUS
 10
107.208765
 20
-58.49029
 11
142.862097
 21
-58.49029
  0
LINE
  8
ガラス
  6
CONTINUOUS
 10
107.208765
 20
-87.823622
 11
142.862097
 21
-87.823622
  0
TEXT
  7
TextStyle03
  8
文字
  6
CONTINUOUS
 10
-150.125
 20
85.525
  1
は排水穴位置を示す
 40
3.0
 72
     5
 11
-120.125
 21
85.525
  0
TEXT
  7
TextStyle03
  8
文字
  6
CONTINUOUS
 10
124.05
 20
-81.275
  1
網入り6.8t
 40
3.0
 72
     5
 11
140.7375
 21
-81.275
  0
TEXT
  7
TextStyle03
  8
文字
  6
CONTINUOUS
 10
130.725
 20
-85.95
  1
×５枚
 40
3.0
 72
     5
 11
140.475
 21
-85.95
  0
TEXT
  7
TextStyle03
  8
文字
  6
CONTINUOUS
 10
-133.1
 20
6.875
  1
アンカーピッチ
 40
3.0
 50
90.0
 72
     5
 11
-133.1
 21
30.125
  0
TEXT
  7
TextStyle03
  8
文字
  6
CONTINUOUS
 10
-98.025
 20
79.8
  1
アンカーピッチ
 40
3.0
 72
     5
 11
-74.775
 21
79.8
  0
TEXT
  7
TextStyle03
  8
文字
  6
CONTINUOUS
 10
-153.85
 20
79.55
  1
アンカー数量　１８ヶ所
 40
3.0
 72
     5
 11
-117.1
 21
79.55
  0
TEXT
  7
TextStyle03
  8
文字
  6
CONTINUOUS
 10
78.1
 20
125.25
  1
シリーズ：ＳＴＤＫＬ
 40
5.0
 72
     5
 11
133.725
 21
125.25
  0
TEXT
  7
TextStyle03
  8
文字
  6
CONTINUOUS
 10
78.1
 20
119.625
  1
　　　　　（固定）900×5500タイプ
 40
5.0
 72
     5
 11
170.2875
 21
119.625
  0
TEXT
  7
TextStyle03
  8
文字
  6
CONTINUOUS
 10
78.1
 20
114.0
  1
図面名　：外観姿図
 40
5.0
 72
     5
 11
128.1
 21
114.0
  0
TEXT
  7
TextStyle03
  8
文字
  6
CONTINUOUS
 10
78.1
 20
108.375
  1
　　　　　　
 40
5.0
 72
     5
 11
111.225
 21
108.375
  0
TEXT
  7
TextStyle03
  8
文字
  6
CONTINUOUS
 10
78.05
 20
104.8
  1
ＮＳコード：ＮＳＫＳＬ
 40
5.0
 72
     5
 11
139.3
 21
104.8
  0
INSERT
  2
*DIM_0002
  8
寸法
  6
CONTINUOUS
 10
0.0
 20
0.0
  0
INSERT
  2
*DIM_0003
  8
寸法
  6
CONTINUOUS
 10
0.0
 20
0.0
  0
INSERT
  2
*DIM_0004
  8
寸法
  6
CONTINUOUS
 10
0.0
 20
0.0
  0
INSERT
  2
*DIM_0005
  8
寸法
  6
CONTINUOUS
 10
0.0
 20
0.0
  0
INSERT
  2
*DIM_0006
  8
寸法
  6
CONTINUOUS
 10
0.0
 20
0.0
  0
INSERT
  2
*DIM_0007
  8
寸法
  6
CONTINUOUS
 10
0.0
 20
0.0
  0
INSERT
  2
*DIM_0008
  8
寸法
  6
CONTINUOUS
 10
0.0
 20
0.0
  0
INSERT
  2
*DIM_0009
  8
寸法
  6
CONTINUOUS
 10
0.0
 20
0.0
  0
INSERT
  2
*DIM_0010
  8
寸法
  6
CONTINUOUS
 10
0.0
 20
0.0
  0
INSERT
  2
*DIM_0011
  8
寸法
  6
CONTINUOUS
 10
0.0
 20
0.0
  0
INSERT
  2
*DIM_0012
  8
寸法
  6
CONTINUOUS
 10
0.0
 20
0.0
  0
INSERT
  2
*DIM_0013
  8
寸法
  6
CONTINUOUS
 10
0.0
 20
0.0
  0
INSERT
  2
*DIM_0015
  8
寸法
  6
CONTINUOUS
 10
0.0
 20
0.0
  0
INSERT
  2
*DIM_0016
  8
寸法
  6
CONTINUOUS
 10
0.0
 20
0.0
  0
INSERT
  2
*DIM_0017
  8
寸法
  6
CONTINUOUS
 10
0.0
 20
0.0
  0
INSERT
  2
*DIM_0018
  8
寸法
  6
CONTINUOUS
 10
0.0
 20
0.0
  0
INSERT
  2
*DIM_0019
  8
寸法
  6
CONTINUOUS
 10
0.0
 20
0.0
  0
INSERT
  2
*DIM_0020
  8
寸法
  6
CONTINUOUS
 10
0.0
 20
0.0
  0
INSERT
  2
*DIM_0021
  8
寸法
  6
CONTINUOUS
 10
0.0
 20
0.0
  0
INSERT
  2
*DIM_0022
  8
寸法
  6
CONTINUOUS
 10
0.0
 20
0.0
  0
INSERT
  2
*DIM_0023
  8
寸法
  6
CONTINUOUS
 10
0.0
 20
0.0
  0
LINE
  8
別途部材
  6
CONTINUOUS
 10
73.323675
 20
11.33238
 11
72.923675
 21
11.73238
  0
LINE
  8
別途部材
  6
CONTINUOUS
 10
71.257007
 20
13.399048
 11
63.197753
 21
21.458305
  0
LINE
  8
別途部材
  6
CONTINUOUS
 10
72.923675
 20
11.73238
 11
72.923675
 21
28.399048
  0
LINE
  8
別途部材
  6
CONTINUOUS
 10
73.323675
 20
11.33238
 11
73.323675
 21
28.399048
  0
LINE
  8
別途部材
  6
CONTINUOUS
 10
73.323675
 20
45.465715
 11
72.923675
 21
45.065715
  0
LINE
  8
別途部材
  6
CONTINUOUS
 10
71.257007
 20
43.399048
 11
63.197753
 21
35.33979
  0
LINE
  8
別途部材
  6
CONTINUOUS
 10
72.923675
 20
45.065715
 11
72.923675
 21
28.399048
  0
LINE
  8
別途部材
  6
CONTINUOUS
 10
73.323675
 20
45.465715
 11
73.323675
 21
28.399048
  0
LINE
  8
別途部材
  6
CONTINUOUS
 10
72.923675
 20
45.065715
 11
-20.40966
 21
45.065715
  0
LINE
  8
別途部材
  6
CONTINUOUS
 10
73.323675
 20
45.465715
 11
-20.40966
 21
45.465715
  0
LINE
  8
別途部材
  6
CONTINUOUS
 10
72.923675
 20
11.73238
 11
-20.40966
 21
11.73238
  0
LINE
  8
別途部材
  6
CONTINUOUS
 10
73.323675
 20
11.33238
 11
-20.40966
 21
11.33238
  0
LINE
  8
別途部材
  6
CONTINUOUS
 10
-114.142995
 20
11.33238
 11
-113.742995
 21
11.73238
  0
LINE
  8
別途部材
  6
CONTINUOUS
 10
-112.076328
 20
13.399048
 11
-104.017073
 21
21.458305
  0
LINE
  8
別途部材
  6
CONTINUOUS
 10
-113.742995
 20
11.73238
 11
-113.742995
 21
28.399048
  0
LINE
  8
別途部材
  6
CONTINUOUS
 10
-114.142995
 20
11.33238
 11
-114.142995
 21
28.399048
  0
LINE
  8
別途部材
  6
CONTINUOUS
 10
-114.142995
 20
45.465715
 11
-113.742995
 21
45.065715
  0
LINE
  8
別途部材
  6
CONTINUOUS
 10
-112.076328
 20
43.399048
 11
-104.017073
 21
35.33979
  0
LINE
  8
別途部材
  6
CONTINUOUS
 10
-113.742995
 20
45.065715
 11
-113.742995
 21
28.399048
  0
LINE
  8
別途部材
  6
CONTINUOUS
 10
-114.142995
 20
45.465715
 11
-114.142995
 21
28.399048
  0
LINE
  8
別途部材
  6
CONTINUOUS
 10
-113.742995
 20
45.065715
 11
-20.40966
 21
45.065715
  0
LINE
  8
別途部材
  6
CONTINUOUS
 10
-114.142995
 20
45.465715
 11
-20.40966
 21
45.465715
  0
LINE
  8
別途部材
  6
CONTINUOUS
 10
-113.742995
 20
11.73238
 11
-20.40966
 21
11.73238
  0
LINE
  8
別途部材
  6
CONTINUOUS
 10
-114.142995
 20
11.33238
 11
-20.40966
 21
11.33238
  0
LINE
  8
別途部材
  6
CONTINUOUS
 62
    96
 10
160.790272
 20
11.73238
 11
161.790272
 21
11.33238
  0
LINE
  8
別途部材
  6
CONTINUOUS
 62
    96
 10
160.790272
 20
11.73238
 11
160.790272
 21
28.399048
  0
LINE
  8
別途部材
  6
CONTINUOUS
 10
161.790272
 20
11.33238
 11
161.790272
 21
28.399048
  0
LINE
  8
別途部材
  6
CONTINUOUS
 62
    96
 10
160.790272
 20
45.065715
 11
161.790272
 21
45.465715
  0
LINE
  8
別途部材
  6
CONTINUOUS
 62
    96
 10
160.790272
 20
45.065715
 11
160.790272
 21
28.399048
  0
LINE
  8
別途部材
  6
CONTINUOUS
 10
161.790272
 20
45.465715
 11
161.790272
 21
28.399048
  0
ARC
  8
別途部材
  6
CONTINUOUS
 10
170.123605
 20
28.399048
 40
17.666667
 50
121.890796
 51
238.109204
  0
INSERT
  2
*GRP_0014
  8
別途部材
  6
CONTINUOUS
 10
0.0
 20
0.0
  0
INSERT
  2
*GRP_0024
  8
別途部材
  6
DOT
 10
0.0
 20
0.0
  0
INSERT
  2
*GRP_0025
  8
別途部材
  6
DOT
 10
0.0
 20
0.0
  0
INSERT
  2
*GRP_0026
  8
別途部材
  6
DOT
 10
0.0
 20
0.0
  0
INSERT
  2
*GRP_0027
  8
別途部材
  6
DOT
 10
0.0
 20
0.0
  0
LINE
  8
St
  6
CONTINUOUS
 62
    47
 10
162.873558
 20
10.792235
 11
162.873558
 21
28.399048
  0
LINE
  8
St
  6
CONTINUOUS
 62
    47
 10
162.873558
 20
46.00586
 11
162.873558
 21
28.399048
  0
LINE
  8
St
  6
CONTINUOUS
 62
    47
 10
73.86382
 20
-81.707882
 11
-20.40966
 21
-81.707882
  0
LINE
  8
St
  6
CONTINUOUS
 62
    47
 10
-114.68314
 20
-81.707882
 11
-20.40966
 21
-81.707882
  0
ENDSEC
  0
EOF
