  0
SECTION
  2
HEADER
  9
$EXTMIN
 10
-210.0
 20
-148.5
  9
$EXTMAX
 10
210.0
 20
148.5
  9
$PDMODE
 70
    32
  9
$PDSIZE
 40
1.5
  9
$LTSCALE
 40
10.0
  0
ENDSEC
  0
SECTION
  2
TABLES
  0
TABLE
  2
LTYPE
 70
    15
  0
LTYPE
  2
CONTINUOUS
 70
    64
  3
実線
 72
    65
 73
     0
 40
0.0
  0
LTYPE
  2
DASHED
 70
    64
  3
破線A
 72
    65
 73
     2
 40
0.6
 49
0.4
 49
-0.2
  0
LTYPE
  2
DASHEDX2
 70
    64
  3
破線B
 72
    65
 73
     2
 40
1.3
 49
0.9
 49
-0.4
  0
LTYPE
  2
DASHDOT
 70
    64
  3
１点鎖線A
 72
    65
 73
     4
 40
0.5375
 49
0.375
 49
-0.05
 49
0.0625
 49
-0.05
  0
LTYPE
  2
DASHDOTX2
 70
    64
  3
１点鎖線B
 72
    65
 73
     4
 40
1.075
 49
0.75
 49
-0.1
 49
0.125
 49
-0.1
  0
LTYPE
  2
DIVIDE2
 70
    64
  3
２点鎖線A
 72
    65
 73
     6
 40
0.5125
 49
0.3
 49
-0.0375
 49
0.05
 49
-0.0375
 49
0.05
 49
-0.0375
  0
LTYPE
  2
DIVIDE
 70
    64
  3
２点鎖線B
 72
    65
 73
     6
 40
1.05
 49
0.55
 49
-0.1
 49
0.1
 49
-0.1
 49
0.1
 49
-0.1
  0
LTYPE
  2
DOT
 70
    64
  3
点線A
 72
    65
 73
     2
 40
0.1125
 49
0.0625
 49
-0.05
  0
LTYPE
  2
DOTX2
 70
    64
  3
点線B
 72
    65
 73
     2
 40
0.275
 49
0.15
 49
-0.125
  0
LTYPE
  2
CONTINUOUS
 70
    64
  3
実線
 72
    65
 73
     0
 40
0.0
  0
LTYPE
  2
CONTINUOUS
 70
    64
  3
実線
 72
    65
 73
     0
 40
0.0
  0
LTYPE
  2
CONTINUOUS
 70
    64
  3
実線
 72
    65
 73
     0
 40
0.0
  0
LTYPE
  2
CONTINUOUS
 70
    64
  3
実線
 72
    65
 73
     0
 40
0.0
  0
LTYPE
  2
CONTINUOUS
 70
    64
  3
実線
 72
    65
 73
     0
 40
0.0
  0
LTYPE
  2
CONTINUOUS
 70
    64
  3
実線
 72
    65
 73
     0
 40
0.0
  0
ENDTAB
  0
TABLE
  2
LAYER
 70
    34
  0
LAYER
  2
通り芯
 70
     0
 62
    15
  6
CONTINUOUS
  0
LAYER
  2
補助線
 70
     0
 62
    16
  6
DOT
  0
LAYER
  2
躯体
 70
     0
 62
    31
  6
CONTINUOUS
  0
LAYER
  2
型材
 70
     0
 62
    32
  6
CONTINUOUS
  0
LAYER
  2
型材断面
 70
     0
 62
    47
  6
CONTINUOUS
  0
LAYER
  2
ガラス
 70
     0
 62
    48
  6
CONTINUOUS
  0
LAYER
  2
ゴム等
 70
     0
 62
    63
  6
CONTINUOUS
  0
LAYER
  2
ボルト／ビス
 70
     0
 62
    64
  6
CONTINUOUS
  0
LAYER
  2
文字
 70
     0
 62
    79
  6
CONTINUOUS
  0
LAYER
  2
寸法
 70
     0
 62
    80
  6
CONTINUOUS
  0
LAYER
  2
ﾊｯﾁﾝｸﾞ
 70
     0
 62
    95
  6
CONTINUOUS
  0
LAYER
  2
別途部材
 70
     0
 62
    96
  6
CONTINUOUS
  0
LAYER
  2
曲げ物
 70
     0
 62
   111
  6
CONTINUOUS
  0
LAYER
  2
鉄骨等
 70
     0
 62
   112
  6
CONTINUOUS
  0
LAYER
  2
St
 70
     0
 62
   127
  6
CONTINUOUS
  0
LAYER
  2
その他部品等
 70
     0
 62
   128
  6
CONTINUOUS
  0
LAYER
  2
ｶﾞｽｹｯﾄ
 70
     0
 62
   143
  6
CONTINUOUS
  0
LAYER
  2
ｽｹｯﾁ
 70
     0
 62
    14
  6
CONTINUOUS
  0
LAYER
  2
0
 70
     0
 62
    17
  6
CONTINUOUS
  0
LAYER
  2
1
 70
     0
 62
    30
  6
CONTINUOUS
  0
LAYER
  2
4
 70
     0
 62
    33
  6
CONTINUOUS
  0
LAYER
  2
ﾚｲﾔ3
 70
     0
 62
    46
  6
CONTINUOUS
  0
LAYER
  2
外形線
 70
     0
 62
    49
  6
CONTINUOUS
  0
LAYER
  2
部品
 70
     0
 62
    14
  6
CONTINUOUS
  0
LAYER
  2
サッシ芯
 70
     0
 62
    17
  6
DASHDOTX2
  0
LAYER
  2
寸法線
 70
     0
 62
    62
  6
CONTINUOUS
  0
LAYER
  2
姿図外形線
 70
     0
 62
    65
  6
CONTINUOUS
  0
LAYER
  2
姿補助線
 70
     0
 62
    30
  6
CONTINUOUS
  0
LAYER
  2
透視線
 70
     0
 62
    78
  6
DOT
  0
LAYER
  2
用紙
 70
     0
 62
    81
  6
CONTINUOUS
  0
LAYER
  2
実線図枠
 70
     0
 62
    94
  6
CONTINUOUS
  0
LAYER
  2
補助図枠
 70
     0
 62
    97
  6
CONTINUOUS
  0
LAYER
  2
建具記号
 70
     0
 62
   110
  6
CONTINUOUS
  0
LAYER
  2
補助文字
 70
     0
 62
   113
  6
CONTINUOUS
  0
ENDTAB
  0
TABLE
  2
STYLE
 70
    10
  0
STYLE
  2
STANDARD
 70
     0
 40
1.0
 41
1.0
 42
1.0
 50
0.0
 71
     0
  3
TXT
  4
BIGFONT
  0
STYLE
  2
TATE
 70
     4
 40
1.0
 41
1.0
 42
1.0
 50
0.0
 71
     0
  3
TXT
  4
BIGFONT
  0
STYLE
  2
TextStyle03
 70
     0
 40
1.0
 41
1.0
 42
1.0
 50
0.0
 71
     0
  3
MONOTXT
  4
BIGFONT
  0
STYLE
  2
TextStyle04
 70
     0
 40
1.0
 41
1.0
 42
1.0
 50
0.0
 71
     0
  3
MONOTXT
  4
BIGFONT
  0
STYLE
  2
TextStyle05
 70
     0
 40
1.0
 41
1.0
 42
1.0
 50
0.0
 71
     0
  3
MONOTXT
  4
BIGFONT
  0
STYLE
  2
TextStyle06
 70
     0
 40
1.0
 41
1.0
 42
1.0
 50
0.0
 71
     0
  3
MONOTXT
  4
BIGFONT
  0
STYLE
  2
TextStyle07
 70
     0
 40
1.0
 41
1.0
 42
1.0
 50
0.0
 71
     0
  3
MONOTXT
  4
BIGFONT
  0
STYLE
  2
TextStyle08
 70
     0
 40
1.0
 41
1.0
 42
1.0
 50
0.0
 71
     0
  3
MONOTXT
  4
BIGFONT
  0
STYLE
  2
TextStyle09
 70
     0
 40
1.0
 41
1.0
 42
1.0
 50
0.0
 71
     0
  3
MONOTXT
  4
BIGFONT
  0
STYLE
  2
TextStyle10
 70
     0
 40
1.0
 41
1.0
 42
1.0
 50
0.0
 71
     0
  3
MONOTXT
  4
BIGFONT
  0
ENDTAB
  0
ENDSEC
  0
SECTION
  2
BLOCKS
  0
BLOCK
  2
*GRP_0001
 70
    65
 10
0.0
 20
0.0
  0
LINE
  8
型材断面
  6
CONTINUOUS
 10
195.0
 20
133.5
 11
195.0
 21
-133.5
  0
LINE
  8
型材断面
  6
CONTINUOUS
 10
195.0
 20
-133.5
 11
-185.0
 21
-133.5
  0
LINE
  8
型材断面
  6
CONTINUOUS
 10
-185.0
 20
-133.5
 11
-185.0
 21
133.5
  0
LINE
  8
型材断面
  6
CONTINUOUS
 10
195.0
 20
133.5
 11
-185.0
 21
133.5
  0
LINE
  8
型材断面
  6
CONTINUOUS
 10
145.0
 20
-133.5
 11
145.0
 21
-118.5
  0
LINE
  8
型材断面
  6
CONTINUOUS
 10
195.0
 20
-118.5
 11
145.0
 21
-118.5
  0
ENDBLK
  0
BLOCK
  2
*DIM_0002
 70
    65
 10
0.0
 20
0.0
  0
LINE
  8
寸法
  6
BYBLOCK
 62
     0
 10
-86.988958
 20
-44.096763
 11
-86.988958
 21
-36.435443
  0
LINE
  8
寸法
  6
BYBLOCK
 62
     0
 10
-78.48896
 20
-44.096763
 11
-78.48896
 21
-36.435443
  0
LINE
  8
寸法
  6
BYBLOCK
 62
     0
 10
-86.988958
 20
-36.435443
 11
-78.48896
 21
-36.435443
  0
POINT
  8
寸法
 62
     0
 10
-86.988958
 20
-36.435443
  0
POINT
  8
寸法
 62
     0
 10
-78.48896
 20
-36.435443
  0
TEXT
  7
TextStyle03
  8
寸法
  6
CONTINUOUS
 62
     0
 10
-85.1875
 20
-36.075
  1
170
 40
3.0
 72
     5
 11
-80.3125
 21
-36.075
  0
ENDBLK
  0
BLOCK
  2
*DIM_0003
 70
    65
 10
0.0
 20
0.0
  0
LINE
  8
寸法
  6
BYBLOCK
 62
     0
 10
-71.997825
 20
-40.846763
 11
-71.387875
 21
-40.846763
  0
LINE
  8
寸法
  6
BYBLOCK
 62
     0
 10
-77.48896
 20
-45.096763
 11
-71.387875
 21
-45.096763
  0
LINE
  8
寸法
  6
BYBLOCK
 62
     0
 10
-71.387875
 20
-40.846763
 11
-71.387875
 21
-45.096763
  0
POINT
  8
寸法
 62
     0
 10
-71.387875
 20
-40.846763
  0
POINT
  8
寸法
 62
     0
 10
-71.387875
 20
-45.096763
  0
TEXT
  7
TextStyle03
  8
寸法
  6
CONTINUOUS
 62
     0
 10
-71.75
 20
-44.56875
  1
85
 40
3.0
 50
90.0
 72
     5
 11
-71.75
 21
-41.38125
  0
ENDBLK
  0
BLOCK
  2
*DIM_0004
 70
    65
 10
0.0
 20
0.0
  0
LINE
  8
寸法
  6
BYBLOCK
 62
     0
 10
-81.73896
 20
-40.846763
 11
-21.0681
 21
-40.846763
  0
LINE
  8
寸法
  6
BYBLOCK
 62
     0
 10
-21.0681
 20
-85.227728
 11
-21.0681
 21
-40.846763
  0
POINT
  8
寸法
 62
     0
 10
-21.0681
 20
-85.227728
  0
POINT
  8
寸法
 62
     0
 10
-21.0681
 20
-40.846763
  0
TEXT
  7
TextStyle03
  8
寸法
  6
CONTINUOUS
 62
     0
 10
-21.45
 20
-67.175
  1
887.6
 40
3.0
 50
90.0
 72
     5
 11
-21.45
 21
-58.925
  0
ENDBLK
  0
BLOCK
  2
*DIM_0005
 70
    65
 10
0.0
 20
0.0
  0
LINE
  8
寸法
  6
BYBLOCK
 62
     0
 10
-122.73896
 20
-29.00814
 11
-122.73896
 21
-28.581628
  0
LINE
  8
寸法
  6
BYBLOCK
 62
     0
 10
-42.73896
 20
-29.00814
 11
-42.73896
 21
-28.581628
  0
LINE
  8
寸法
  6
BYBLOCK
 62
     0
 10
-122.73896
 20
-28.581628
 11
-42.73896
 21
-28.581628
  0
POINT
  8
寸法
 62
     0
 10
-122.73896
 20
-28.581628
  0
POINT
  8
寸法
 62
     0
 10
-42.73896
 20
-28.581628
  0
TEXT
  7
TextStyle03
  8
寸法
  6
CONTINUOUS
 62
     0
 10
-94.46875
 20
-28.225
  1
呼称寸法　1600
 40
3.0
 72
     5
 11
-71.03125
 21
-28.225
  0
ENDBLK
  0
BLOCK
  2
*DIM_0006
 70
    65
 10
0.0
 20
0.0
  0
LINE
  8
寸法
  6
BYBLOCK
 62
     0
 10
-38.46396
 20
-84.227728
 11
-38.46396
 21
-28.581628
  0
LINE
  8
寸法
  6
BYBLOCK
 62
     0
 10
-42.73896
 20
-28.581628
 11
-38.46396
 21
-28.581628
  0
POINT
  8
寸法
 62
     0
 10
-38.46396
 20
-28.581628
  0
TEXT
  7
TextStyle03
  8
寸法
  6
CONTINUOUS
 62
     0
 10
-37.13125
 20
-28.225
  1
85.5
 40
3.0
 72
     5
 11
-30.56875
 21
-28.225
  0
ENDBLK
  0
BLOCK
  2
*DIM_0007
 70
    65
 10
0.0
 20
0.0
  0
LINE
  8
寸法
  6
BYBLOCK
 62
     0
 10
-127.01396
 20
-84.227728
 11
-127.01396
 21
-28.581628
  0
LINE
  8
寸法
  6
BYBLOCK
 62
     0
 10
-122.73896
 20
-28.581628
 11
-127.01396
 21
-28.581628
  0
POINT
  8
寸法
 62
     0
 10
-122.73896
 20
-28.581628
  0
POINT
  8
寸法
 62
     0
 10
-127.01396
 20
-28.581628
  0
TEXT
  7
TextStyle03
  8
寸法
  6
CONTINUOUS
 62
     0
 10
-134.90625
 20
-28.225
  1
85.5
 40
3.0
 72
     5
 11
-128.34375
 21
-28.225
  0
ENDBLK
  0
BLOCK
  2
*DIM_0008
 70
    65
 10
0.0
 20
0.0
  0
LINE
  8
寸法
  6
BYBLOCK
 62
     0
 10
-37.46396
 20
-85.227728
 11
-21.0681
 21
-85.227728
  0
LINE
  8
寸法
  6
BYBLOCK
 62
     0
 10
-37.46396
 20
-87.273923
 11
-21.0681
 21
-87.273923
  0
LINE
  8
寸法
  6
BYBLOCK
 62
     0
 10
-21.0681
 20
-85.227728
 11
-21.0681
 21
-87.273923
  0
POINT
  8
寸法
 62
     0
 10
-21.0681
 20
-85.227728
  0
POINT
  8
寸法
 62
     0
 10
-21.0681
 20
-87.273923
  0
TEXT
  7
TextStyle03
  8
寸法
  6
CONTINUOUS
 62
     0
 10
-18.075
 20
-89.55625
  1
40.9
 40
3.0
 50
90.0
 72
     5
 11
-18.075
 21
-82.99375
  0
ENDBLK
  0
BLOCK
  2
*DIM_0009
 70
    65
 10
0.0
 20
0.0
  0
LINE
  8
寸法
  6
BYBLOCK
 62
     0
 10
-147.33396
 20
55.275753
 11
-158.15726
 21
55.275753
  0
LINE
  8
寸法
  6
BYBLOCK
 62
     0
 10
-147.33396
 20
20.275753
 11
-158.15726
 21
20.275753
  0
LINE
  8
寸法
  6
BYBLOCK
 62
     0
 10
-158.15726
 20
55.275753
 11
-158.15726
 21
20.275753
  0
POINT
  8
寸法
 62
     0
 10
-158.15726
 20
55.275753
  0
POINT
  8
寸法
 62
     0
 10
-158.15726
 20
20.275753
  0
TEXT
  7
TextStyle03
  8
寸法
  6
CONTINUOUS
 62
     0
 10
-158.475
 20
35.3125
  1
700
 40
3.0
 50
90.0
 72
     5
 11
-158.475
 21
40.1875
  0
ENDBLK
  0
BLOCK
  2
*DIM_0010
 70
    65
 10
0.0
 20
0.0
  0
LINE
  8
寸法
  6
BYBLOCK
 62
     0
 10
-112.73896
 20
106.877578
 11
-112.73896
 21
114.653088
  0
LINE
  8
寸法
  6
BYBLOCK
 62
     0
 10
-82.73896
 20
106.877578
 11
-82.73896
 21
114.653088
  0
LINE
  8
寸法
  6
BYBLOCK
 62
     0
 10
-112.73896
 20
114.653088
 11
-82.73896
 21
114.653088
  0
POINT
  8
寸法
 62
     0
 10
-112.73896
 20
114.653088
  0
POINT
  8
寸法
 62
     0
 10
-82.73896
 20
114.653088
  0
TEXT
  7
TextStyle03
  8
寸法
  6
CONTINUOUS
 62
     0
 10
-100.1875
 20
115.0
  1
600
 40
3.0
 72
     5
 11
-95.3125
 21
115.0
  0
ENDBLK
  0
BLOCK
  2
*DIM_0011
 70
    65
 10
0.0
 20
0.0
  0
LINE
  8
寸法
  6
BYBLOCK
 62
     0
 10
-52.73896
 20
106.877578
 11
-52.73896
 21
114.653088
  0
LINE
  8
寸法
  6
BYBLOCK
 62
     0
 10
-82.73896
 20
114.653088
 11
-52.73896
 21
114.653088
  0
POINT
  8
寸法
 62
     0
 10
-52.73896
 20
114.653088
  0
TEXT
  7
TextStyle03
  8
寸法
  6
CONTINUOUS
 62
     0
 10
-70.1875
 20
115.0
  1
600
 40
3.0
 72
     5
 11
-65.3125
 21
115.0
  0
ENDBLK
  0
BLOCK
  2
*DIM_0012
 70
    65
 10
0.0
 20
0.0
  0
LINE
  8
寸法
  6
BYBLOCK
 62
     0
 10
67.758163
 20
-80.399633
 11
67.758163
 21
-94.66567
  0
LINE
  8
寸法
  6
BYBLOCK
 62
     0
 10
149.378162
 20
-80.399633
 11
149.378162
 21
-94.66567
  0
LINE
  8
寸法
  6
BYBLOCK
 62
     0
 10
67.758163
 20
-94.66567
 11
149.378162
 21
-94.66567
  0
POINT
  8
寸法
 62
     0
 10
67.758163
 20
-94.66567
  0
POINT
  8
寸法
 62
     0
 10
149.378162
 20
-94.66567
  0
TEXT
  7
TextStyle03
  8
寸法
  6
CONTINUOUS
 62
     0
 10
103.58125
 20
-94.3
  1
1632.4
 40
3.0
 72
     5
 11
113.51875
 21
-94.3
  0
ENDBLK
  0
BLOCK
  2
*DIM_0013
 70
    65
 10
0.0
 20
0.0
  0
LINE
  8
寸法
  6
BYBLOCK
 62
     0
 10
152.378162
 20
-77.399633
 11
164.34879
 21
-77.399633
  0
LINE
  8
寸法
  6
BYBLOCK
 62
     0
 10
111.568162
 20
-19.68582
 11
164.34879
 21
-19.68582
  0
LINE
  8
寸法
  6
BYBLOCK
 62
     0
 10
164.34879
 20
-77.399633
 11
164.34879
 21
-19.68582
  0
POINT
  8
寸法
 62
     0
 10
164.34879
 20
-77.399633
  0
POINT
  8
寸法
 62
     0
 10
164.34879
 20
-19.68582
  0
TEXT
  7
TextStyle03
  8
寸法
  6
CONTINUOUS
 62
     0
 10
163.95
 20
-53.51875
  1
1154.3
 40
3.0
 50
90.0
 72
     5
 11
163.95
 21
-43.58125
  0
ENDBLK
  0
ENDSEC
  0
SECTION
  2
ENTITIES
  0
POLYLINE
  8
通り芯
  6
CONTINUOUS
 66
     1
 70
     1
  0
VERTEX
  8
通り芯
 10
-210.0
 20
-148.5
  0
VERTEX
  8
通り芯
 10
210.0
 20
-148.5
  0
VERTEX
  8
通り芯
 10
210.0
 20
148.5
  0
VERTEX
  8
通り芯
 10
-210.0
 20
148.5
  0
SEQEND
  0
INSERT
  2
*GRP_0001
  8
型材断面
  6
CONTINUOUS
 10
0.0
 20
0.0
  0
LINE
  8
型材断面
  6
CONTINUOUS
 10
-38.76473
 20
-84.926955
 11
-38.46396
 21
-85.227728
  0
LINE
  8
型材断面
  6
CONTINUOUS
 10
-38.46396
 20
-86.573923
 11
-38.46396
 21
-85.227728
  0
LINE
  8
型材断面
  6
CONTINUOUS
 62
    47
 10
-38.46396
 20
-87.273923
 11
-38.46396
 21
-86.573923
  0
LINE
  8
型材断面
  6
CONTINUOUS
 62
    47
 10
-39.13896
 20
-87.273923
 11
-39.13896
 21
-87.773923
  0
LINE
  8
型材断面
  6
CONTINUOUS
 62
    47
 10
-40.108235
 20
-83.583453
 11
-38.76473
 21
-84.926955
  0
LINE
  8
型材断面
  6
CONTINUOUS
 10
-40.461787
 20
-83.2299
 11
-44.011693
 21
-83.2299
  0
LINE
  8
型材断面
  6
CONTINUOUS
 10
-43.728848
 20
-4.501422
 11
-40.461787
 21
-4.501422
  0
LINE
  8
型材断面
  6
CONTINUOUS
 10
-40.461787
 20
-4.501422
 11
-40.461787
 21
-1.234363
  0
LINE
  8
型材断面
  6
CONTINUOUS
 10
-40.108235
 20
-83.583453
 11
-82.73896
 21
-40.952728
  0
LINE
  8
型材断面
  6
CONTINUOUS
 10
-78.48896
 20
-45.096763
 11
-82.73896
 21
-45.096763
  0
LINE
  8
型材断面
  6
CONTINUOUS
 10
-86.988958
 20
-45.096763
 11
-82.73896
 21
-45.096763
  0
LINE
  8
型材断面
  6
CONTINUOUS
 10
-86.935975
 20
-45.149745
 11
-82.73896
 21
-45.149745
  0
LINE
  8
型材断面
  6
CONTINUOUS
 10
-82.73896
 20
-40.846763
 11
-78.48896
 21
-45.096763
  0
LINE
  8
型材断面
  6
CONTINUOUS
 10
-82.73896
 20
-40.846763
 11
-86.988958
 21
-45.096763
  0
LINE
  8
型材断面
  6
CONTINUOUS
 10
-78.541945
 20
-45.149745
 11
-82.73896
 21
-45.149745
  0
LINE
  8
型材断面
  6
CONTINUOUS
 10
-86.988958
 20
-45.096763
 11
-86.935975
 21
-45.149745
  0
LINE
  8
型材断面
  6
CONTINUOUS
 10
-78.541945
 20
-45.149745
 11
-78.48896
 21
-45.096763
  0
LINE
  8
型材断面
  6
CONTINUOUS
 10
-43.72885
 20
-83.2299
 11
-81.808995
 21
-45.149745
  0
LINE
  8
型材断面
  6
CONTINUOUS
 10
-44.011693
 20
-83.2299
 11
-82.091838
 21
-45.149745
  0
LINE
  8
型材断面
  6
CONTINUOUS
 10
-40.815343
 20
-83.2299
 11
-78.895497
 21
-45.149745
  0
LINE
  8
型材断面
  6
CONTINUOUS
 10
-38.46396
 20
-87.273923
 11
-82.73896
 21
-87.273923
  0
LINE
  8
型材断面
  6
CONTINUOUS
 10
-38.46396
 20
-86.573923
 11
-82.73896
 21
-86.573923
  0
LINE
  8
型材断面
  6
CONTINUOUS
 10
-39.13896
 20
-87.773923
 11
-82.73896
 21
-87.773923
  0
LINE
  8
型材断面
  6
CONTINUOUS
 10
-38.46396
 20
-85.227728
 11
-82.73896
 21
-85.227728
  0
LINE
  8
型材断面
  6
CONTINUOUS
 10
-38.76473
 20
-84.926955
 11
-82.73896
 21
-84.926955
  0
LINE
  8
型材断面
  6
CONTINUOUS
 10
-39.118285
 20
-84.573402
 11
-82.73896
 21
-84.573402
  0
LINE
  8
型材断面
  6
CONTINUOUS
 10
-40.108235
 20
-83.583453
 11
-82.73896
 21
-83.583453
  0
LINE
  8
型材断面
  6
CONTINUOUS
 10
-126.71319
 20
-84.926955
 11
-127.01396
 21
-85.227728
  0
LINE
  8
型材断面
  6
CONTINUOUS
 10
-127.01396
 20
-86.573923
 11
-127.01396
 21
-85.227728
  0
LINE
  8
型材断面
  6
CONTINUOUS
 62
    47
 10
-127.01396
 20
-87.273923
 11
-127.01396
 21
-86.573923
  0
LINE
  8
型材断面
  6
CONTINUOUS
 62
    47
 10
-126.33896
 20
-87.273923
 11
-126.33896
 21
-87.773923
  0
LINE
  8
型材断面
  6
CONTINUOUS
 62
    47
 10
-125.369685
 20
-83.583453
 11
-126.71319
 21
-84.926955
  0
LINE
  8
型材断面
  6
CONTINUOUS
 10
-125.016133
 20
-83.2299
 11
-121.466227
 21
-83.2299
  0
LINE
  8
型材断面
  6
CONTINUOUS
 10
-125.369685
 20
-83.583453
 11
-82.73896
 21
-40.952728
  0
LINE
  8
型材断面
  6
CONTINUOUS
 10
-121.74907
 20
-83.2299
 11
-83.668925
 21
-45.149745
  0
LINE
  8
型材断面
  6
CONTINUOUS
 10
-121.466227
 20
-83.2299
 11
-83.386082
 21
-45.149745
  0
LINE
  8
型材断面
  6
CONTINUOUS
 10
-124.662578
 20
-83.2299
 11
-86.582423
 21
-45.149745
  0
LINE
  8
型材断面
  6
CONTINUOUS
 10
-127.01396
 20
-87.273923
 11
-82.73896
 21
-87.273923
  0
LINE
  8
型材断面
  6
CONTINUOUS
 10
-127.01396
 20
-86.573923
 11
-82.73896
 21
-86.573923
  0
LINE
  8
型材断面
  6
CONTINUOUS
 10
-126.33896
 20
-87.773923
 11
-82.73896
 21
-87.773923
  0
LINE
  8
型材断面
  6
CONTINUOUS
 10
-127.01396
 20
-85.227728
 11
-82.73896
 21
-85.227728
  0
LINE
  8
型材断面
  6
CONTINUOUS
 10
-126.71319
 20
-84.926955
 11
-82.73896
 21
-84.926955
  0
LINE
  8
型材断面
  6
CONTINUOUS
 10
-126.359635
 20
-84.573402
 11
-82.73896
 21
-84.573402
  0
LINE
  8
型材断面
  6
CONTINUOUS
 10
-125.369685
 20
-83.583453
 11
-82.73896
 21
-83.583453
  0
LINE
  8
型材断面
  6
DASHDOT
 10
-42.73896
 20
-2.224248
 11
-122.73896
 21
-2.224248
  0
LINE
  8
型材断面
  6
DASHDOT
 10
-122.73896
 20
-94.748923
 11
-122.73896
 21
77.775753
  0
LINE
  8
型材断面
  6
DASHDOT
 10
-82.73896
 20
-94.748923
 11
-82.73896
 21
77.775753
  0
LINE
  8
型材断面
  6
DASHDOT
 10
-42.73896
 20
-94.748923
 11
-42.73896
 21
77.775753
  0
LINE
  8
型材断面
  6
DASHDOT
 10
-42.73896
 20
37.775753
 11
-122.73896
 21
37.775753
  0
LINE
  8
型材断面
  6
DASHDOT
 10
-42.73896
 20
77.775753
 11
-122.73896
 21
77.775753
  0
LINE
  8
型材断面
  6
CONTINUOUS
 10
-40.108235
 20
-4.854975
 11
-40.108235
 21
37.775753
  0
LINE
  8
型材断面
  6
CONTINUOUS
 10
-40.391078
 20
-4.572133
 11
-40.391078
 21
37.775753
  0
LINE
  8
型材断面
  6
CONTINUOUS
 10
-38.46396
 20
-6.499248
 11
-38.46396
 21
37.775753
  0
LINE
  8
型材断面
  6
CONTINUOUS
 10
-38.76473
 20
-6.198477
 11
-38.76473
 21
37.775753
  0
LINE
  8
型材断面
  6
CONTINUOUS
 10
-39.118285
 20
-5.844925
 11
-39.118285
 21
37.775753
  0
LINE
  8
型材断面
  6
CONTINUOUS
 10
-39.118285
 20
-5.844925
 11
-82.73896
 21
-5.844925
  0
LINE
  8
型材断面
  6
CONTINUOUS
 10
-40.391078
 20
-4.572133
 11
-82.73896
 21
-4.572133
  0
LINE
  8
型材断面
  6
CONTINUOUS
 10
-40.108235
 20
-4.854975
 11
-82.73896
 21
-4.854975
  0
LINE
  8
型材断面
  6
CONTINUOUS
 10
-38.76473
 20
-6.198477
 11
-82.73896
 21
-6.198477
  0
LINE
  8
型材断面
  6
CONTINUOUS
 10
-38.46396
 20
-6.499248
 11
-82.73896
 21
-6.499248
  0
LINE
  8
型材断面
  6
CONTINUOUS
 10
-82.73896
 20
33.525753
 11
-78.48896
 21
33.525753
  0
LINE
  8
型材断面
  6
CONTINUOUS
 10
-78.48896
 20
37.775753
 11
-78.48896
 21
33.525753
  0
LINE
  8
型材断面
  6
CONTINUOUS
 10
-78.48896
 20
33.525753
 11
-82.73896
 21
37.775753
  0
LINE
  8
型材断面
  6
CONTINUOUS
 10
-43.728848
 20
-4.501422
 11
-81.756012
 21
33.525753
  0
LINE
  8
型材断面
  6
CONTINUOUS
 10
-40.81534
 20
-4.501422
 11
-78.842505
 21
33.525753
  0
LINE
  8
型材断面
  6
DASHDOT
 10
-38.46396
 20
-6.499248
 11
-78.48896
 21
33.525753
  0
LINE
  8
型材断面
  6
CONTINUOUS
 10
-40.461787
 20
-4.147868
 11
-78.48896
 21
33.879315
  0
LINE
  8
型材断面
  6
CONTINUOUS
 10
-40.461787
 20
-1.234363
 11
-78.48896
 21
36.792817
  0
LINE
  8
型材断面
  6
CONTINUOUS
 10
-43.728848
 20
80.052928
 11
-40.461787
 21
80.052928
  0
LINE
  8
型材断面
  6
CONTINUOUS
 10
-40.461787
 20
80.052928
 11
-40.461787
 21
76.785867
  0
LINE
  8
型材断面
  6
CONTINUOUS
 10
-40.108235
 20
80.40648
 11
-40.108235
 21
37.775753
  0
LINE
  8
型材断面
  6
CONTINUOUS
 10
-40.391078
 20
80.123638
 11
-40.391078
 21
37.775753
  0
LINE
  8
型材断面
  6
CONTINUOUS
 10
-38.46396
 20
82.050753
 11
-38.46396
 21
37.775753
  0
LINE
  8
型材断面
  6
CONTINUOUS
 10
-38.76473
 20
81.749983
 11
-38.76473
 21
37.775753
  0
LINE
  8
型材断面
  6
CONTINUOUS
 10
-39.118285
 20
81.39643
 11
-39.118285
 21
37.775753
  0
LINE
  8
型材断面
  6
CONTINUOUS
 10
-39.118285
 20
81.39643
 11
-82.73896
 21
81.39643
  0
LINE
  8
型材断面
  6
CONTINUOUS
 10
-40.391078
 20
80.123638
 11
-82.73896
 21
80.123638
  0
LINE
  8
型材断面
  6
CONTINUOUS
 10
-40.108235
 20
80.40648
 11
-82.73896
 21
80.40648
  0
LINE
  8
型材断面
  6
CONTINUOUS
 10
-38.76473
 20
81.749983
 11
-82.73896
 21
81.749983
  0
LINE
  8
型材断面
  6
CONTINUOUS
 10
-38.46396
 20
82.050753
 11
-82.73896
 21
82.050753
  0
LINE
  8
型材断面
  6
CONTINUOUS
 10
-82.73896
 20
42.025753
 11
-78.48896
 21
42.025753
  0
LINE
  8
型材断面
  6
CONTINUOUS
 10
-78.48896
 20
37.775753
 11
-78.48896
 21
42.025753
  0
LINE
  8
型材断面
  6
CONTINUOUS
 10
-78.48896
 20
42.025753
 11
-82.73896
 21
37.775753
  0
LINE
  8
型材断面
  6
CONTINUOUS
 10
-43.728848
 20
80.052928
 11
-81.756012
 21
42.025753
  0
LINE
  8
型材断面
  6
CONTINUOUS
 10
-40.81534
 20
80.052928
 11
-78.842505
 21
42.025753
  0
LINE
  8
型材断面
  6
DASHDOT
 10
-38.46396
 20
82.050753
 11
-78.48896
 21
42.025753
  0
LINE
  8
型材断面
  6
CONTINUOUS
 10
-40.461787
 20
79.699373
 11
-78.48896
 21
41.67219
  0
LINE
  8
型材断面
  6
CONTINUOUS
 10
-40.461787
 20
76.785867
 11
-78.48896
 21
38.758688
  0
LINE
  8
型材断面
  6
CONTINUOUS
 10
-121.749072
 20
80.052928
 11
-125.016133
 21
80.052928
  0
LINE
  8
型材断面
  6
CONTINUOUS
 10
-125.016133
 20
80.052928
 11
-125.016133
 21
76.785867
  0
LINE
  8
型材断面
  6
CONTINUOUS
 10
-125.369685
 20
80.40648
 11
-125.369685
 21
37.775753
  0
LINE
  8
型材断面
  6
CONTINUOUS
 10
-125.086842
 20
80.123638
 11
-125.086842
 21
37.775753
  0
LINE
  8
型材断面
  6
CONTINUOUS
 10
-127.01396
 20
82.050753
 11
-127.01396
 21
37.775753
  0
LINE
  8
型材断面
  6
CONTINUOUS
 10
-126.71319
 20
81.749983
 11
-126.71319
 21
37.775753
  0
LINE
  8
型材断面
  6
CONTINUOUS
 10
-126.359635
 20
81.39643
 11
-126.359635
 21
37.775753
  0
LINE
  8
型材断面
  6
CONTINUOUS
 10
-126.359635
 20
81.39643
 11
-82.73896
 21
81.39643
  0
LINE
  8
型材断面
  6
CONTINUOUS
 10
-125.086842
 20
80.123638
 11
-82.73896
 21
80.123638
  0
LINE
  8
型材断面
  6
CONTINUOUS
 10
-125.369685
 20
80.40648
 11
-82.73896
 21
80.40648
  0
LINE
  8
型材断面
  6
CONTINUOUS
 10
-126.71319
 20
81.749983
 11
-82.73896
 21
81.749983
  0
LINE
  8
型材断面
  6
CONTINUOUS
 10
-127.01396
 20
82.050753
 11
-82.73896
 21
82.050753
  0
LINE
  8
型材断面
  6
CONTINUOUS
 10
-82.73896
 20
42.025753
 11
-86.98896
 21
42.025753
  0
LINE
  8
型材断面
  6
CONTINUOUS
 10
-86.98896
 20
37.775753
 11
-86.98896
 21
42.025753
  0
LINE
  8
型材断面
  6
CONTINUOUS
 10
-86.98896
 20
42.025753
 11
-82.73896
 21
37.775753
  0
LINE
  8
型材断面
  6
CONTINUOUS
 10
-121.749072
 20
80.052928
 11
-83.721908
 21
42.025753
  0
LINE
  8
型材断面
  6
CONTINUOUS
 10
-124.66258
 20
80.052928
 11
-86.635415
 21
42.025753
  0
LINE
  8
型材断面
  6
DASHDOT
 10
-127.01396
 20
82.050753
 11
-86.98896
 21
42.025753
  0
LINE
  8
型材断面
  6
CONTINUOUS
 10
-125.016133
 20
79.699373
 11
-86.98896
 21
41.67219
  0
LINE
  8
型材断面
  6
CONTINUOUS
 10
-125.016133
 20
76.785867
 11
-86.98896
 21
38.758688
  0
LINE
  8
型材断面
  6
CONTINUOUS
 10
-121.749072
 20
-4.501422
 11
-125.016133
 21
-4.501422
  0
LINE
  8
型材断面
  6
CONTINUOUS
 10
-125.016133
 20
-4.501422
 11
-125.016133
 21
-1.234363
  0
LINE
  8
型材断面
  6
CONTINUOUS
 10
-125.369685
 20
-4.854975
 11
-125.369685
 21
37.775753
  0
LINE
  8
型材断面
  6
CONTINUOUS
 10
-125.086842
 20
-4.572133
 11
-125.086842
 21
37.775753
  0
LINE
  8
型材断面
  6
CONTINUOUS
 10
-127.01396
 20
-6.499248
 11
-127.01396
 21
37.775753
  0
LINE
  8
型材断面
  6
CONTINUOUS
 10
-126.71319
 20
-6.198477
 11
-126.71319
 21
37.775753
  0
LINE
  8
型材断面
  6
CONTINUOUS
 10
-126.359635
 20
-5.844925
 11
-126.359635
 21
37.775753
  0
LINE
  8
型材断面
  6
CONTINUOUS
 10
-126.359635
 20
-5.844925
 11
-82.73896
 21
-5.844925
  0
LINE
  8
型材断面
  6
CONTINUOUS
 10
-125.086842
 20
-4.572133
 11
-82.73896
 21
-4.572133
  0
LINE
  8
型材断面
  6
CONTINUOUS
 10
-125.369685
 20
-4.854975
 11
-82.73896
 21
-4.854975
  0
LINE
  8
型材断面
  6
CONTINUOUS
 10
-126.71319
 20
-6.198477
 11
-82.73896
 21
-6.198477
  0
LINE
  8
型材断面
  6
CONTINUOUS
 10
-127.01396
 20
-6.499248
 11
-82.73896
 21
-6.499248
  0
LINE
  8
型材断面
  6
CONTINUOUS
 10
-82.73896
 20
33.525753
 11
-86.98896
 21
33.525753
  0
LINE
  8
型材断面
  6
CONTINUOUS
 10
-86.98896
 20
37.775753
 11
-86.98896
 21
33.525753
  0
LINE
  8
型材断面
  6
CONTINUOUS
 10
-86.98896
 20
33.525753
 11
-82.73896
 21
37.775753
  0
LINE
  8
型材断面
  6
CONTINUOUS
 10
-121.749072
 20
-4.501422
 11
-83.721908
 21
33.525753
  0
LINE
  8
型材断面
  6
CONTINUOUS
 10
-124.66258
 20
-4.501422
 11
-86.635415
 21
33.525753
  0
LINE
  8
型材断面
  6
DASHDOT
 10
-127.01396
 20
-6.499248
 11
-86.98896
 21
33.525753
  0
LINE
  8
型材断面
  6
CONTINUOUS
 10
-125.016133
 20
-4.147868
 11
-86.98896
 21
33.879315
  0
LINE
  8
型材断面
  6
CONTINUOUS
 10
-125.016133
 20
-1.234363
 11
-86.98896
 21
36.792817
  0
LINE
  8
型材断面
  6
CONTINUOUS
 10
-82.73896
 20
-10.248125
 11
-84.982405
 21
-14.133885
  0
LINE
  8
型材断面
  6
CONTINUOUS
 10
-82.73896
 20
-10.248125
 11
-80.495515
 21
-14.133885
  0
LINE
  8
型材断面
  6
CONTINUOUS
 10
-80.495515
 20
-14.133885
 11
-84.982405
 21
-14.133885
  0
LINE
  8
型材断面
  6
CONTINUOUS
 10
-82.73896
 20
85.79963
 11
-84.982405
 21
89.68539
  0
LINE
  8
型材断面
  6
CONTINUOUS
 10
-82.73896
 20
85.79963
 11
-80.495515
 21
89.68539
  0
LINE
  8
型材断面
  6
CONTINUOUS
 10
-80.495515
 20
89.68539
 11
-84.982405
 21
89.68539
  0
LINE
  8
型材断面
  6
CONTINUOUS
 10
-34.715082
 20
37.775755
 11
-30.829323
 21
35.53231
  0
LINE
  8
型材断面
  6
CONTINUOUS
 10
-34.715082
 20
37.775755
 11
-30.829323
 21
40.0192
  0
LINE
  8
型材断面
  6
CONTINUOUS
 10
-30.829323
 20
40.0192
 11
-30.829323
 21
35.53231
  0
LINE
  8
型材断面
  6
CONTINUOUS
 10
-130.762838
 20
37.775755
 11
-134.648597
 21
35.53231
  0
LINE
  8
型材断面
  6
CONTINUOUS
 10
-130.762838
 20
37.775755
 11
-134.648597
 21
40.0192
  0
LINE
  8
型材断面
  6
CONTINUOUS
 10
-134.648597
 20
40.0192
 11
-134.648597
 21
35.53231
  0
LINE
  8
型材断面
  6
CONTINUOUS
 10
-4.54619
 20
-2.8961
 11
-6.789635
 21
-6.78186
  0
LINE
  8
型材断面
  6
CONTINUOUS
 10
-4.54619
 20
-2.8961
 11
-2.302745
 21
-6.78186
  0
LINE
  8
型材断面
  6
CONTINUOUS
 10
-2.302745
 20
-6.78186
 11
-6.789635
 21
-6.78186
  0
LINE
  8
型材断面
  6
CONTINUOUS
 10
-13.58007
 20
-8.189753
 11
39.07661
 21
-8.189753
  0
LINE
  8
型材断面
  6
CONTINUOUS
 10
-13.58007
 20
-15.865517
 11
39.07661
 21
-15.865517
  0
LINE
  8
型材断面
  6
CONTINUOUS
 10
83.483072
 20
-14.24328
 11
107.414695
 21
-14.24328
  0
LINE
  8
ガラス
  6
CONTINUOUS
 10
-80.885225
 20
-70.472257
 11
-84.75786
 21
-74.344892
  0
LINE
  8
ガラス
  6
CONTINUOUS
 10
-81.765547
 20
-72.070615
 11
-83.159502
 21
-73.46457
  0
LINE
  8
ガラス
  6
CONTINUOUS
 10
-82.483583
 20
-71.35258
 11
-83.877538
 21
-72.746535
  0
LINE
  8
ガラス
  6
CONTINUOUS
 10
-80.40186
 20
11.488198
 11
-84.274495
 21
7.615562
  0
LINE
  8
ガラス
  6
CONTINUOUS
 10
-82.000217
 20
10.607875
 11
-83.394172
 21
9.21392
  0
LINE
  8
ガラス
  6
CONTINUOUS
 10
-80.40186
 20
64.58522
 11
-84.274495
 21
60.712585
  0
LINE
  8
ガラス
  6
CONTINUOUS
 10
-82.000217
 20
63.704897
 11
-83.394172
 21
62.310943
  0
LINE
  8
ガラス
  6
CONTINUOUS
 10
-104.821817
 20
39.844938
 11
-108.694452
 21
35.972302
  0
LINE
  8
ガラス
  6
CONTINUOUS
 10
-106.420175
 20
38.964615
 11
-107.81413
 21
37.57066
  0
LINE
  8
ガラス
  6
CONTINUOUS
 10
-54.672598
 20
39.844938
 11
-58.545233
 21
35.972302
  0
LINE
  8
ガラス
  6
CONTINUOUS
 10
-56.270955
 20
38.964615
 11
-57.66491
 21
37.57066
  0
LINE
  8
ガラス
  6
CONTINUOUS
 10
-81.282183
 20
9.88984
 11
-82.676138
 21
8.495885
  0
LINE
  8
ガラス
  6
CONTINUOUS
 10
-55.55292
 20
38.24658
 11
-56.946875
 21
36.852625
  0
LINE
  8
ガラス
  6
CONTINUOUS
 10
-105.70214
 20
38.24658
 11
-107.096095
 21
36.852625
  0
LINE
  8
ガラス
  6
CONTINUOUS
 10
-81.282183
 20
62.986862
 11
-82.676138
 21
61.592908
  0
TEXT
  7
TextStyle03
  8
文字
  6
CONTINUOUS
 10
-0.275
 20
-6.475
  1
は排水穴位置を示す
 40
3.0
 72
     5
 11
29.725
 21
-6.475
  0
TEXT
  7
TextStyle03
  8
文字
  6
CONTINUOUS
 10
75.875
 20
93.325
  1
ＮＳコード：ＮＳ４ＣＫＳ
 40
5.0
 72
     5
 11
142.75
 21
93.325
  0
TEXT
  7
TextStyle03
  8
文字
  6
CONTINUOUS
 10
-5.875
 20
-14.5
  1
アンカー数量　１０ヶ所
 40
3.0
 72
     5
 11
30.875
 21
-14.5
  0
TEXT
  7
TextStyle03
  8
文字
  6
CONTINUOUS
 10
-142.975
 20
110.7
  1
アンカーピッチ
 40
3.0
 72
     5
 11
-119.725
 21
110.7
  0
TEXT
  7
TextStyle03
  8
文字
  6
CONTINUOUS
 10
-154.975
 20
-5.325
  1
アンカーピッチ
 40
3.0
 50
90.0
 72
     5
 11
-154.975
 21
17.925
  0
TEXT
  7
TextStyle03
  8
文字
  6
CONTINUOUS
 10
127.35
 20
-74.325
  1
×４枚
 40
3.0
 72
     5
 11
137.1
 21
-74.325
  0
TEXT
  7
TextStyle03
  8
文字
  6
CONTINUOUS
 10
87.075
 20
-13.05
  1
ガラス寸法
 40
3.0
 72
     5
 11
103.575
 21
-13.05
  0
TEXT
  7
TextStyle03
  8
文字
  6
CONTINUOUS
 10
75.25
 20
120.625
  1
シリーズ：ＳＴＦ４Ｋ
 40
5.0
 72
     5
 11
130.875
 21
120.625
  0
TEXT
  7
TextStyle03
  8
文字
  6
CONTINUOUS
 10
75.25
 20
115.0
  1
　　　　　四角錘（固定）1600×1600タイプ
 40
5.0
 72
     5
 11
187.125
 21
115.0
  0
TEXT
  7
TextStyle03
  8
文字
  6
CONTINUOUS
 10
75.25
 20
109.375
  1
　　　　　ペアガラス仕様
 40
5.0
 72
     5
 11
142.125
 21
109.375
  0
TEXT
  7
TextStyle03
  8
文字
  6
CONTINUOUS
 10
75.25
 20
103.75
  1
図面名　：外観姿図
 40
5.0
 72
     5
 11
125.25
 21
103.75
  0
TEXT
  7
TextStyle03
  8
文字
  6
CONTINUOUS
 10
75.25
 20
98.125
  1
　　　　　　
 40
5.0
 72
     5
 11
108.375
 21
98.125
  0
INSERT
  2
*DIM_0002
  8
寸法
  6
CONTINUOUS
 10
0.0
 20
0.0
  0
INSERT
  2
*DIM_0003
  8
寸法
  6
CONTINUOUS
 10
0.0
 20
0.0
  0
INSERT
  2
*DIM_0004
  8
寸法
  6
CONTINUOUS
 10
0.0
 20
0.0
  0
INSERT
  2
*DIM_0005
  8
寸法
  6
CONTINUOUS
 10
0.0
 20
0.0
  0
INSERT
  2
*DIM_0006
  8
寸法
  6
CONTINUOUS
 10
0.0
 20
0.0
  0
INSERT
  2
*DIM_0007
  8
寸法
  6
CONTINUOUS
 10
0.0
 20
0.0
  0
INSERT
  2
*DIM_0008
  8
寸法
  6
CONTINUOUS
 10
0.0
 20
0.0
  0
INSERT
  2
*DIM_0009
  8
寸法
  6
CONTINUOUS
 10
0.0
 20
0.0
  0
INSERT
  2
*DIM_0010
  8
寸法
  6
CONTINUOUS
 10
0.0
 20
0.0
  0
INSERT
  2
*DIM_0011
  8
寸法
  6
CONTINUOUS
 10
0.0
 20
0.0
  0
INSERT
  2
*DIM_0012
  8
寸法
  6
CONTINUOUS
 10
0.0
 20
0.0
  0
INSERT
  2
*DIM_0013
  8
寸法
  6
CONTINUOUS
 10
0.0
 20
0.0
  0
LINE
  8
曲げ物
  6
CONTINUOUS
 10
149.378162
 20
-77.399633
 11
67.758163
 21
-77.399633
  0
LINE
  8
曲げ物
  6
CONTINUOUS
 10
67.758163
 20
-77.399633
 11
108.568162
 21
-19.68582
  0
LINE
  8
曲げ物
  6
CONTINUOUS
 10
149.378162
 20
-77.399633
 11
108.568162
 21
-19.68582
  0
ENDSEC
  0
EOF
