  0
SECTION
  2
HEADER
  9
$EXTMIN
 10
-210.0
 20
-148.5
  9
$EXTMAX
 10
210.0
 20
148.5
  9
$PDMODE
 70
    32
  9
$PDSIZE
 40
1.5
  9
$LTSCALE
 40
10.0
  0
ENDSEC
  0
SECTION
  2
TABLES
  0
TABLE
  2
LTYPE
 70
    15
  0
LTYPE
  2
CONTINUOUS
 70
    64
  3
実線
 72
    65
 73
     0
 40
0.0
  0
LTYPE
  2
DASHED
 70
    64
  3
破線A
 72
    65
 73
     2
 40
0.6
 49
0.4
 49
-0.2
  0
LTYPE
  2
DASHEDX2
 70
    64
  3
破線B
 72
    65
 73
     2
 40
1.3
 49
0.9
 49
-0.4
  0
LTYPE
  2
DASHDOT
 70
    64
  3
１点鎖線A
 72
    65
 73
     4
 40
0.5375
 49
0.375
 49
-0.05
 49
0.0625
 49
-0.05
  0
LTYPE
  2
DASHDOTX2
 70
    64
  3
１点鎖線B
 72
    65
 73
     4
 40
1.075
 49
0.75
 49
-0.1
 49
0.125
 49
-0.1
  0
LTYPE
  2
DIVIDE2
 70
    64
  3
２点鎖線A
 72
    65
 73
     6
 40
0.5125
 49
0.3
 49
-0.0375
 49
0.05
 49
-0.0375
 49
0.05
 49
-0.0375
  0
LTYPE
  2
DIVIDE
 70
    64
  3
２点鎖線B
 72
    65
 73
     6
 40
1.05
 49
0.55
 49
-0.1
 49
0.1
 49
-0.1
 49
0.1
 49
-0.1
  0
LTYPE
  2
DOT
 70
    64
  3
点線A
 72
    65
 73
     2
 40
0.1125
 49
0.0625
 49
-0.05
  0
LTYPE
  2
DOTX2
 70
    64
  3
点線B
 72
    65
 73
     2
 40
0.275
 49
0.15
 49
-0.125
  0
LTYPE
  2
CONTINUOUS
 70
    64
  3
実線
 72
    65
 73
     0
 40
0.0
  0
LTYPE
  2
CONTINUOUS
 70
    64
  3
実線
 72
    65
 73
     0
 40
0.0
  0
LTYPE
  2
CONTINUOUS
 70
    64
  3
実線
 72
    65
 73
     0
 40
0.0
  0
LTYPE
  2
CONTINUOUS
 70
    64
  3
実線
 72
    65
 73
     0
 40
0.0
  0
LTYPE
  2
CONTINUOUS
 70
    64
  3
実線
 72
    65
 73
     0
 40
0.0
  0
LTYPE
  2
CONTINUOUS
 70
    64
  3
実線
 72
    65
 73
     0
 40
0.0
  0
ENDTAB
  0
TABLE
  2
LAYER
 70
    34
  0
LAYER
  2
通り芯
 70
     0
 62
    15
  6
CONTINUOUS
  0
LAYER
  2
補助線
 70
     0
 62
    16
  6
DOT
  0
LAYER
  2
躯体
 70
     0
 62
    31
  6
CONTINUOUS
  0
LAYER
  2
型材
 70
     0
 62
    32
  6
CONTINUOUS
  0
LAYER
  2
型材断面
 70
     0
 62
    47
  6
CONTINUOUS
  0
LAYER
  2
ガラス
 70
     0
 62
    48
  6
CONTINUOUS
  0
LAYER
  2
ゴム等
 70
     0
 62
    63
  6
CONTINUOUS
  0
LAYER
  2
ボルト／ビス
 70
     0
 62
    64
  6
CONTINUOUS
  0
LAYER
  2
文字
 70
     0
 62
    79
  6
CONTINUOUS
  0
LAYER
  2
寸法
 70
     0
 62
    80
  6
CONTINUOUS
  0
LAYER
  2
ﾊｯﾁﾝｸﾞ
 70
     0
 62
    95
  6
CONTINUOUS
  0
LAYER
  2
別途部材
 70
     0
 62
    96
  6
CONTINUOUS
  0
LAYER
  2
曲げ物
 70
     0
 62
   111
  6
CONTINUOUS
  0
LAYER
  2
鉄骨等
 70
     0
 62
   112
  6
CONTINUOUS
  0
LAYER
  2
St
 70
     0
 62
   127
  6
CONTINUOUS
  0
LAYER
  2
その他部品等
 70
     0
 62
   128
  6
CONTINUOUS
  0
LAYER
  2
ｶﾞｽｹｯﾄ
 70
     0
 62
   143
  6
CONTINUOUS
  0
LAYER
  2
ｽｹｯﾁ
 70
     0
 62
    14
  6
CONTINUOUS
  0
LAYER
  2
0
 70
     0
 62
    17
  6
CONTINUOUS
  0
LAYER
  2
1
 70
     0
 62
    30
  6
CONTINUOUS
  0
LAYER
  2
4
 70
     0
 62
    33
  6
CONTINUOUS
  0
LAYER
  2
ﾚｲﾔ3
 70
     0
 62
    46
  6
CONTINUOUS
  0
LAYER
  2
外形線
 70
     0
 62
    49
  6
CONTINUOUS
  0
LAYER
  2
部品
 70
     0
 62
    14
  6
CONTINUOUS
  0
LAYER
  2
サッシ芯
 70
     0
 62
    17
  6
DASHDOTX2
  0
LAYER
  2
寸法線
 70
     0
 62
    62
  6
CONTINUOUS
  0
LAYER
  2
姿図外形線
 70
     0
 62
    65
  6
CONTINUOUS
  0
LAYER
  2
姿補助線
 70
     0
 62
    30
  6
CONTINUOUS
  0
LAYER
  2
透視線
 70
     0
 62
    78
  6
DOT
  0
LAYER
  2
用紙
 70
     0
 62
    81
  6
CONTINUOUS
  0
LAYER
  2
実線図枠
 70
     0
 62
    94
  6
CONTINUOUS
  0
LAYER
  2
補助図枠
 70
     0
 62
    97
  6
CONTINUOUS
  0
LAYER
  2
建具記号
 70
     0
 62
   110
  6
CONTINUOUS
  0
LAYER
  2
補助文字
 70
     0
 62
   113
  6
CONTINUOUS
  0
ENDTAB
  0
TABLE
  2
STYLE
 70
    10
  0
STYLE
  2
STANDARD
 70
     0
 40
1.0
 41
1.0
 42
1.0
 50
0.0
 71
     0
  3
TXT
  4
BIGFONT
  0
STYLE
  2
TATE
 70
     4
 40
1.0
 41
1.0
 42
1.0
 50
0.0
 71
     0
  3
TXT
  4
BIGFONT
  0
STYLE
  2
TextStyle03
 70
     0
 40
1.0
 41
1.0
 42
1.0
 50
0.0
 71
     0
  3
MONOTXT
  4
BIGFONT
  0
STYLE
  2
TextStyle04
 70
     0
 40
1.0
 41
1.0
 42
1.0
 50
0.0
 71
     0
  3
MONOTXT
  4
BIGFONT
  0
STYLE
  2
TextStyle05
 70
     0
 40
1.0
 41
1.0
 42
1.0
 50
0.0
 71
     0
  3
MONOTXT
  4
BIGFONT
  0
STYLE
  2
TextStyle06
 70
     0
 40
1.0
 41
1.0
 42
1.0
 50
0.0
 71
     0
  3
MONOTXT
  4
BIGFONT
  0
STYLE
  2
TextStyle07
 70
     0
 40
1.0
 41
1.0
 42
1.0
 50
0.0
 71
     0
  3
MONOTXT
  4
BIGFONT
  0
STYLE
  2
TextStyle08
 70
     0
 40
1.0
 41
1.0
 42
1.0
 50
0.0
 71
     0
  3
MONOTXT
  4
BIGFONT
  0
STYLE
  2
TextStyle09
 70
     0
 40
1.0
 41
1.0
 42
1.0
 50
0.0
 71
     0
  3
MONOTXT
  4
BIGFONT
  0
STYLE
  2
TextStyle10
 70
     0
 40
1.0
 41
1.0
 42
1.0
 50
0.0
 71
     0
  3
MONOTXT
  4
BIGFONT
  0
ENDTAB
  0
ENDSEC
  0
SECTION
  2
BLOCKS
  0
BLOCK
  2
*GRP_0001
 70
    65
 10
0.0
 20
0.0
  0
LINE
  8
型材断面
  6
CONTINUOUS
 10
195.0
 20
133.5
 11
195.0
 21
-133.5
  0
LINE
  8
型材断面
  6
CONTINUOUS
 10
195.0
 20
-133.5
 11
-185.0
 21
-133.5
  0
LINE
  8
型材断面
  6
CONTINUOUS
 10
-185.0
 20
-133.5
 11
-185.0
 21
133.5
  0
LINE
  8
型材断面
  6
CONTINUOUS
 10
195.0
 20
133.5
 11
-185.0
 21
133.5
  0
LINE
  8
型材断面
  6
CONTINUOUS
 10
145.0
 20
-133.5
 11
145.0
 21
-118.5
  0
LINE
  8
型材断面
  6
CONTINUOUS
 10
195.0
 20
-118.5
 11
145.0
 21
-118.5
  0
ENDBLK
  0
BLOCK
  2
*DIM_0002
 70
    65
 10
0.0
 20
0.0
  0
LINE
  8
寸法
  6
BYBLOCK
 62
     0
 10
-90.138972
 20
-38.717217
 11
-90.138972
 21
-28.86804
  0
LINE
  8
寸法
  6
BYBLOCK
 62
     0
 10
-81.638975
 20
-38.717217
 11
-81.638975
 21
-28.86804
  0
LINE
  8
寸法
  6
BYBLOCK
 62
     0
 10
-90.138972
 20
-28.86804
 11
-81.638975
 21
-28.86804
  0
POINT
  8
寸法
 62
     0
 10
-90.138972
 20
-28.86804
  0
POINT
  8
寸法
 62
     0
 10
-81.638975
 20
-28.86804
  0
TEXT
  7
TextStyle03
  8
寸法
  6
CONTINUOUS
 62
     0
 10
-88.3125
 20
-28.525
  1
170
 40
3.0
 72
     5
 11
-83.4375
 21
-28.525
  0
ENDBLK
  0
BLOCK
  2
*DIM_0003
 70
    65
 10
0.0
 20
0.0
  0
LINE
  8
寸法
  6
BYBLOCK
 62
     0
 10
-74.850505
 20
-35.467217
 11
-75.794783
 21
-35.467217
  0
LINE
  8
寸法
  6
BYBLOCK
 62
     0
 10
-80.638975
 20
-39.717217
 11
-75.794783
 21
-39.717217
  0
LINE
  8
寸法
  6
BYBLOCK
 62
     0
 10
-75.794783
 20
-35.467217
 11
-75.794783
 21
-39.717217
  0
POINT
  8
寸法
 62
     0
 10
-75.794783
 20
-35.467217
  0
POINT
  8
寸法
 62
     0
 10
-75.794783
 20
-39.717217
  0
TEXT
  7
TextStyle03
  8
寸法
  6
CONTINUOUS
 62
     0
 10
-76.15
 20
-39.21875
  1
85
 40
3.0
 50
90.0
 72
     5
 11
-76.15
 21
-36.03125
  0
ENDBLK
  0
BLOCK
  2
*DIM_0004
 70
    65
 10
0.0
 20
0.0
  0
LINE
  8
寸法
  6
BYBLOCK
 62
     0
 10
-84.888975
 20
-35.467217
 11
-23.760088
 21
-35.467217
  0
LINE
  8
寸法
  6
BYBLOCK
 62
     0
 10
-23.760088
 20
-79.848182
 11
-23.760088
 21
-35.467217
  0
POINT
  8
寸法
 62
     0
 10
-23.760088
 20
-79.848182
  0
POINT
  8
寸法
 62
     0
 10
-23.760088
 20
-35.467217
  0
TEXT
  7
TextStyle03
  8
寸法
  6
CONTINUOUS
 62
     0
 10
-24.15
 20
-61.775
  1
887.6
 40
3.0
 50
90.0
 72
     5
 11
-24.15
 21
-53.525
  0
ENDBLK
  0
BLOCK
  2
*DIM_0005
 70
    65
 10
0.0
 20
0.0
  0
LINE
  8
寸法
  6
BYBLOCK
 62
     0
 10
-125.888975
 20
-21.906335
 11
-45.888975
 21
-21.906335
  0
POINT
  8
寸法
 62
     0
 10
-125.888975
 20
-21.906335
  0
POINT
  8
寸法
 62
     0
 10
-45.888975
 20
-21.906335
  0
TEXT
  7
TextStyle03
  8
寸法
  6
CONTINUOUS
 62
     0
 10
-97.61875
 20
-21.525
  1
呼称寸法　1600
 40
3.0
 72
     5
 11
-74.18125
 21
-21.525
  0
ENDBLK
  0
BLOCK
  2
*DIM_0006
 70
    65
 10
0.0
 20
0.0
  0
LINE
  8
寸法
  6
BYBLOCK
 62
     0
 10
-41.613975
 20
-78.848182
 11
-41.613975
 21
-21.906335
  0
LINE
  8
寸法
  6
BYBLOCK
 62
     0
 10
-45.888975
 20
-21.906335
 11
-41.613975
 21
-21.906335
  0
POINT
  8
寸法
 62
     0
 10
-41.613975
 20
-21.906335
  0
TEXT
  7
TextStyle03
  8
寸法
  6
CONTINUOUS
 62
     0
 10
-40.30625
 20
-21.525
  1
85.5
 40
3.0
 72
     5
 11
-33.74375
 21
-21.525
  0
ENDBLK
  0
BLOCK
  2
*DIM_0007
 70
    65
 10
0.0
 20
0.0
  0
LINE
  8
寸法
  6
BYBLOCK
 62
     0
 10
-130.163975
 20
-78.848182
 11
-130.163975
 21
-21.906335
  0
LINE
  8
寸法
  6
BYBLOCK
 62
     0
 10
-125.888975
 20
-21.906335
 11
-130.163975
 21
-21.906335
  0
POINT
  8
寸法
 62
     0
 10
-125.888975
 20
-21.906335
  0
POINT
  8
寸法
 62
     0
 10
-130.163975
 20
-21.906335
  0
TEXT
  7
TextStyle03
  8
寸法
  6
CONTINUOUS
 62
     0
 10
-138.08125
 20
-21.525
  1
85.5
 40
3.0
 72
     5
 11
-131.51875
 21
-21.525
  0
ENDBLK
  0
BLOCK
  2
*DIM_0008
 70
    65
 10
0.0
 20
0.0
  0
LINE
  8
寸法
  6
BYBLOCK
 62
     0
 10
-40.613975
 20
-79.848182
 11
-23.760088
 21
-79.848182
  0
LINE
  8
寸法
  6
BYBLOCK
 62
     0
 10
-40.613975
 20
-81.11656
 11
-23.760088
 21
-81.11656
  0
LINE
  8
寸法
  6
BYBLOCK
 62
     0
 10
-23.760088
 20
-79.848182
 11
-23.760088
 21
-81.11656
  0
POINT
  8
寸法
 62
     0
 10
-23.760088
 20
-79.848182
  0
POINT
  8
寸法
 62
     0
 10
-23.760088
 20
-81.11656
  0
TEXT
  7
TextStyle03
  8
寸法
  6
CONTINUOUS
 62
     0
 10
-20.775
 20
-83.78125
  1
25.5
 40
3.0
 50
90.0
 72
     5
 11
-20.775
 21
-77.21875
  0
ENDBLK
  0
BLOCK
  2
*DIM_0009
 70
    65
 10
0.0
 20
0.0
  0
LINE
  8
寸法
  6
BYBLOCK
 62
     0
 10
-150.483975
 20
68.805075
 11
-161.307275
 21
68.805075
  0
LINE
  8
寸法
  6
BYBLOCK
 62
     0
 10
-150.483975
 20
33.805075
 11
-161.307275
 21
33.805075
  0
LINE
  8
寸法
  6
BYBLOCK
 62
     0
 10
-161.307275
 20
68.805075
 11
-161.307275
 21
33.805075
  0
POINT
  8
寸法
 62
     0
 10
-161.307275
 20
68.805075
  0
POINT
  8
寸法
 62
     0
 10
-161.307275
 20
33.805075
  0
TEXT
  7
TextStyle03
  8
寸法
  6
CONTINUOUS
 62
     0
 10
-161.625
 20
48.8375
  1
700
 40
3.0
 50
90.0
 72
     5
 11
-161.625
 21
53.7125
  0
ENDBLK
  0
BLOCK
  2
*DIM_0010
 70
    65
 10
0.0
 20
0.0
  0
LINE
  8
寸法
  6
BYBLOCK
 62
     0
 10
-115.888975
 20
120.4069
 11
-115.888975
 21
128.18241
  0
LINE
  8
寸法
  6
BYBLOCK
 62
     0
 10
-85.888975
 20
120.4069
 11
-85.888975
 21
128.18241
  0
LINE
  8
寸法
  6
BYBLOCK
 62
     0
 10
-115.888975
 20
128.18241
 11
-85.888975
 21
128.18241
  0
POINT
  8
寸法
 62
     0
 10
-115.888975
 20
128.18241
  0
POINT
  8
寸法
 62
     0
 10
-85.888975
 20
128.18241
  0
TEXT
  7
TextStyle03
  8
寸法
  6
CONTINUOUS
 62
     0
 10
-103.3375
 20
128.525
  1
600
 40
3.0
 72
     5
 11
-98.4625
 21
128.525
  0
ENDBLK
  0
BLOCK
  2
*DIM_0011
 70
    65
 10
0.0
 20
0.0
  0
LINE
  8
寸法
  6
BYBLOCK
 62
     0
 10
-55.888975
 20
120.4069
 11
-55.888975
 21
128.18241
  0
LINE
  8
寸法
  6
BYBLOCK
 62
     0
 10
-85.888975
 20
128.18241
 11
-55.888975
 21
128.18241
  0
POINT
  8
寸法
 62
     0
 10
-55.888975
 20
128.18241
  0
TEXT
  7
TextStyle03
  8
寸法
  6
CONTINUOUS
 62
     0
 10
-73.3375
 20
128.525
  1
600
 40
3.0
 72
     5
 11
-68.4625
 21
128.525
  0
ENDBLK
  0
BLOCK
  2
*DIM_0012
 70
    65
 10
0.0
 20
0.0
  0
LINE
  8
寸法
  6
BYBLOCK
 62
     0
 10
68.243162
 20
-80.399633
 11
68.243162
 21
-94.565883
  0
LINE
  8
寸法
  6
BYBLOCK
 62
     0
 10
149.378162
 20
-80.399633
 11
149.378162
 21
-94.565883
  0
LINE
  8
寸法
  6
BYBLOCK
 62
     0
 10
68.243162
 20
-94.565883
 11
149.378162
 21
-94.565883
  0
POINT
  8
寸法
 62
     0
 10
68.243162
 20
-94.565883
  0
POINT
  8
寸法
 62
     0
 10
149.378162
 20
-94.565883
  0
TEXT
  7
TextStyle03
  8
寸法
  6
CONTINUOUS
 62
     0
 10
103.83125
 20
-94.2
  1
1622.7
 40
3.0
 72
     5
 11
113.76875
 21
-94.2
  0
ENDBLK
  0
BLOCK
  2
*DIM_0013
 70
    65
 10
0.0
 20
0.0
  0
LINE
  8
寸法
  6
BYBLOCK
 62
     0
 10
152.378162
 20
-77.399633
 11
162.485115
 21
-77.399633
  0
LINE
  8
寸法
  6
BYBLOCK
 62
     0
 10
111.810663
 20
-20.028765
 11
162.485115
 21
-20.028765
  0
LINE
  8
寸法
  6
BYBLOCK
 62
     0
 10
162.485115
 20
-77.399633
 11
162.485115
 21
-20.028765
  0
POINT
  8
寸法
 62
     0
 10
162.485115
 20
-77.399633
  0
POINT
  8
寸法
 62
     0
 10
162.485115
 20
-20.028765
  0
TEXT
  7
TextStyle03
  8
寸法
  6
CONTINUOUS
 62
     0
 10
162.1
 20
-53.69375
  1
1147.4
 40
3.0
 50
90.0
 72
     5
 11
162.1
 21
-43.75625
  0
ENDBLK
  0
ENDSEC
  0
SECTION
  2
ENTITIES
  0
POLYLINE
  8
通り芯
  6
CONTINUOUS
 66
     1
 70
     1
  0
VERTEX
  8
通り芯
 10
-210.0
 20
-148.5
  0
VERTEX
  8
通り芯
 10
210.0
 20
-148.5
  0
VERTEX
  8
通り芯
 10
210.0
 20
148.5
  0
VERTEX
  8
通り芯
 10
-210.0
 20
148.5
  0
SEQEND
  0
INSERT
  2
*GRP_0001
  8
型材断面
  6
CONTINUOUS
 10
0.0
 20
0.0
  0
LINE
  8
型材断面
  6
CONTINUOUS
 10
-41.613975
 20
7.030075
 11
-48.763975
 21
14.180075
  0
LINE
  8
型材断面
  6
CONTINUOUS
 10
-46.507042
 20
9.487522
 11
-44.071422
 21
9.487522
  0
LINE
  8
型材断面
  6
CONTINUOUS
 10
-44.071422
 20
11.923142
 11
-44.071422
 21
9.487522
  0
LINE
  8
型材断面
  6
DASHDOT
 10
-45.888975
 20
11.305075
 11
-45.888975
 21
26.305075
  0
LINE
  8
型材断面
  6
DASHDOT
 10
-45.888975
 20
11.305075
 11
-125.888975
 21
11.305075
  0
LINE
  8
型材断面
  6
DASHDOT
 10
-45.888975
 20
51.305075
 11
-125.888975
 21
51.305075
  0
LINE
  8
型材断面
  6
DASHDOT
 10
-45.888975
 20
91.305075
 11
-125.888975
 21
91.305075
  0
LINE
  8
型材断面
  6
CONTINUOUS
 10
-85.888975
 20
47.055075
 11
-81.638975
 21
47.055075
  0
LINE
  8
型材断面
  6
CONTINUOUS
 10
-81.638975
 20
51.305075
 11
-81.638975
 21
47.055075
  0
LINE
  8
型材断面
  6
CONTINUOUS
 10
-85.888975
 20
51.305075
 11
-81.638975
 21
47.055075
  0
LINE
  8
型材断面
  6
CONTINUOUS
 10
-46.507042
 20
9.487522
 11
-84.074595
 21
47.055075
  0
LINE
  8
型材断面
  6
CONTINUOUS
 10
-44.424975
 20
9.487522
 11
-81.992537
 21
47.055075
  0
LINE
  8
型材断面
  6
DASHDOT
 10
-45.888975
 20
11.305075
 11
-81.638975
 21
47.055075
  0
LINE
  8
型材断面
  6
CONTINUOUS
 10
-44.071422
 20
9.841075
 11
-81.638975
 21
47.408627
  0
LINE
  8
型材断面
  6
CONTINUOUS
 10
-44.071422
 20
11.923142
 11
-81.638975
 21
49.490695
  0
LINE
  8
型材断面
  6
CONTINUOUS
 10
-44.000713
 20
9.416813
 11
-44.000713
 21
51.305075
  0
LINE
  8
型材断面
  6
CONTINUOUS
 10
-43.010762
 20
8.426863
 11
-43.010762
 21
51.305075
  0
LINE
  8
型材断面
  6
CONTINUOUS
 10
-43.71787
 20
9.13397
 11
-43.71787
 21
51.305075
  0
LINE
  8
型材断面
  6
CONTINUOUS
 10
-42.657208
 20
8.073308
 11
-42.657208
 21
51.305075
  0
LINE
  8
型材断面
  6
CONTINUOUS
 10
-41.613975
 20
7.030075
 11
-41.613975
 21
51.305075
  0
LINE
  8
型材断面
  6
CONTINUOUS
 10
-43.71787
 20
9.13397
 11
-85.888975
 21
9.13397
  0
LINE
  8
型材断面
  6
CONTINUOUS
 10
-44.000713
 20
9.416813
 11
-85.888975
 21
9.416813
  0
LINE
  8
型材断面
  6
CONTINUOUS
 10
-42.657208
 20
8.073308
 11
-85.888975
 21
8.073308
  0
LINE
  8
型材断面
  6
CONTINUOUS
 10
-41.613975
 20
7.030075
 11
-85.888975
 21
7.030075
  0
LINE
  8
型材断面
  6
CONTINUOUS
 10
-43.010762
 20
8.426863
 11
-85.888975
 21
8.426863
  0
LINE
  8
型材断面
  6
CONTINUOUS
 10
-41.613975
 20
95.580075
 11
-48.763975
 21
88.430075
  0
LINE
  8
型材断面
  6
CONTINUOUS
 10
-46.507042
 20
93.122628
 11
-44.071422
 21
93.122628
  0
LINE
  8
型材断面
  6
CONTINUOUS
 10
-44.071422
 20
90.687008
 11
-44.071422
 21
93.122628
  0
LINE
  8
型材断面
  6
DASHDOT
 10
-45.888975
 20
91.305075
 11
-45.888975
 21
76.305075
  0
LINE
  8
型材断面
  6
CONTINUOUS
 10
-85.888975
 20
55.555075
 11
-81.638975
 21
55.555075
  0
LINE
  8
型材断面
  6
CONTINUOUS
 10
-81.638975
 20
51.305075
 11
-81.638975
 21
55.555075
  0
LINE
  8
型材断面
  6
CONTINUOUS
 10
-85.888975
 20
51.305075
 11
-81.638975
 21
55.555075
  0
LINE
  8
型材断面
  6
CONTINUOUS
 10
-46.507042
 20
93.122628
 11
-84.074595
 21
55.555075
  0
LINE
  8
型材断面
  6
CONTINUOUS
 10
-44.424975
 20
93.122628
 11
-81.992537
 21
55.555075
  0
LINE
  8
型材断面
  6
DASHDOT
 10
-45.888975
 20
91.305075
 11
-81.638975
 21
55.555075
  0
LINE
  8
型材断面
  6
CONTINUOUS
 10
-44.071422
 20
92.769075
 11
-81.638975
 21
55.201522
  0
LINE
  8
型材断面
  6
CONTINUOUS
 10
-44.071422
 20
90.687008
 11
-81.638975
 21
53.119455
  0
LINE
  8
型材断面
  6
CONTINUOUS
 10
-44.000713
 20
93.193338
 11
-44.000713
 21
51.305075
  0
LINE
  8
型材断面
  6
CONTINUOUS
 10
-43.010762
 20
94.183288
 11
-43.010762
 21
51.305075
  0
LINE
  8
型材断面
  6
CONTINUOUS
 10
-43.71787
 20
93.47618
 11
-43.71787
 21
51.305075
  0
LINE
  8
型材断面
  6
CONTINUOUS
 10
-42.657208
 20
94.536843
 11
-42.657208
 21
51.305075
  0
LINE
  8
型材断面
  6
CONTINUOUS
 10
-41.613975
 20
95.580075
 11
-41.613975
 21
51.305075
  0
LINE
  8
型材断面
  6
CONTINUOUS
 10
-43.71787
 20
93.47618
 11
-85.888975
 21
93.47618
  0
LINE
  8
型材断面
  6
CONTINUOUS
 10
-44.000713
 20
93.193338
 11
-85.888975
 21
93.193338
  0
LINE
  8
型材断面
  6
CONTINUOUS
 10
-42.657208
 20
94.536843
 11
-85.888975
 21
94.536843
  0
LINE
  8
型材断面
  6
CONTINUOUS
 10
-41.613975
 20
95.580075
 11
-85.888975
 21
95.580075
  0
LINE
  8
型材断面
  6
CONTINUOUS
 10
-43.010762
 20
94.183288
 11
-85.888975
 21
94.183288
  0
LINE
  8
型材断面
  6
CONTINUOUS
 10
-130.163975
 20
95.580075
 11
-123.013975
 21
88.430075
  0
LINE
  8
型材断面
  6
CONTINUOUS
 10
-125.270907
 20
93.122628
 11
-127.706527
 21
93.122628
  0
LINE
  8
型材断面
  6
CONTINUOUS
 10
-127.706527
 20
90.687008
 11
-127.706527
 21
93.122628
  0
LINE
  8
型材断面
  6
DASHDOT
 10
-125.888975
 20
91.305075
 11
-125.888975
 21
76.305075
  0
LINE
  8
型材断面
  6
CONTINUOUS
 10
-85.888975
 20
55.555075
 11
-90.138975
 21
55.555075
  0
LINE
  8
型材断面
  6
CONTINUOUS
 10
-90.138975
 20
51.305075
 11
-90.138975
 21
55.555075
  0
LINE
  8
型材断面
  6
CONTINUOUS
 10
-85.888975
 20
51.305075
 11
-90.138975
 21
55.555075
  0
LINE
  8
型材断面
  6
CONTINUOUS
 10
-125.270907
 20
93.122628
 11
-87.703355
 21
55.555075
  0
LINE
  8
型材断面
  6
CONTINUOUS
 10
-127.352975
 20
93.122628
 11
-89.785412
 21
55.555075
  0
LINE
  8
型材断面
  6
DASHDOT
 10
-125.888975
 20
91.305075
 11
-90.138975
 21
55.555075
  0
LINE
  8
型材断面
  6
CONTINUOUS
 10
-127.706527
 20
92.769075
 11
-90.138975
 21
55.201522
  0
LINE
  8
型材断面
  6
CONTINUOUS
 10
-127.706527
 20
90.687008
 11
-90.138975
 21
53.119455
  0
LINE
  8
型材断面
  6
CONTINUOUS
 10
-127.777237
 20
93.193338
 11
-127.777237
 21
51.305075
  0
LINE
  8
型材断面
  6
CONTINUOUS
 10
-128.767188
 20
94.183288
 11
-128.767188
 21
51.305075
  0
LINE
  8
型材断面
  6
CONTINUOUS
 10
-128.06008
 20
93.47618
 11
-128.06008
 21
51.305075
  0
LINE
  8
型材断面
  6
CONTINUOUS
 10
-129.120742
 20
94.536843
 11
-129.120742
 21
51.305075
  0
LINE
  8
型材断面
  6
CONTINUOUS
 10
-130.163975
 20
95.580075
 11
-130.163975
 21
51.305075
  0
LINE
  8
型材断面
  6
CONTINUOUS
 10
-128.06008
 20
93.47618
 11
-85.888975
 21
93.47618
  0
LINE
  8
型材断面
  6
CONTINUOUS
 10
-127.777237
 20
93.193338
 11
-85.888975
 21
93.193338
  0
LINE
  8
型材断面
  6
CONTINUOUS
 10
-129.120742
 20
94.536843
 11
-85.888975
 21
94.536843
  0
LINE
  8
型材断面
  6
CONTINUOUS
 10
-130.163975
 20
95.580075
 11
-85.888975
 21
95.580075
  0
LINE
  8
型材断面
  6
CONTINUOUS
 10
-128.767188
 20
94.183288
 11
-85.888975
 21
94.183288
  0
LINE
  8
型材断面
  6
CONTINUOUS
 10
-130.163975
 20
7.030075
 11
-123.013975
 21
14.180075
  0
LINE
  8
型材断面
  6
CONTINUOUS
 10
-125.270907
 20
9.487522
 11
-127.706527
 21
9.487522
  0
LINE
  8
型材断面
  6
CONTINUOUS
 10
-127.706527
 20
11.923142
 11
-127.706527
 21
9.487522
  0
LINE
  8
型材断面
  6
DASHDOT
 10
-125.888975
 20
11.305075
 11
-125.888975
 21
26.305075
  0
LINE
  8
型材断面
  6
CONTINUOUS
 10
-85.888975
 20
47.055075
 11
-90.138975
 21
47.055075
  0
LINE
  8
型材断面
  6
CONTINUOUS
 10
-90.138975
 20
51.305075
 11
-90.138975
 21
47.055075
  0
LINE
  8
型材断面
  6
CONTINUOUS
 10
-85.888975
 20
51.305075
 11
-90.138975
 21
47.055075
  0
LINE
  8
型材断面
  6
CONTINUOUS
 10
-125.270907
 20
9.487522
 11
-87.703355
 21
47.055075
  0
LINE
  8
型材断面
  6
CONTINUOUS
 10
-127.352975
 20
9.487522
 11
-89.785412
 21
47.055075
  0
LINE
  8
型材断面
  6
DASHDOT
 10
-125.888975
 20
11.305075
 11
-90.138975
 21
47.055075
  0
LINE
  8
型材断面
  6
CONTINUOUS
 10
-127.706527
 20
9.841075
 11
-90.138975
 21
47.408627
  0
LINE
  8
型材断面
  6
CONTINUOUS
 10
-127.706527
 20
11.923142
 11
-90.138975
 21
49.490695
  0
LINE
  8
型材断面
  6
CONTINUOUS
 10
-127.777237
 20
9.416813
 11
-127.777237
 21
51.305075
  0
LINE
  8
型材断面
  6
CONTINUOUS
 10
-128.767188
 20
8.426863
 11
-128.767188
 21
51.305075
  0
LINE
  8
型材断面
  6
CONTINUOUS
 10
-128.06008
 20
9.13397
 11
-128.06008
 21
51.305075
  0
LINE
  8
型材断面
  6
CONTINUOUS
 10
-129.120742
 20
8.073308
 11
-129.120742
 21
51.305075
  0
LINE
  8
型材断面
  6
CONTINUOUS
 10
-130.163975
 20
7.030075
 11
-130.163975
 21
51.305075
  0
LINE
  8
型材断面
  6
CONTINUOUS
 10
-128.06008
 20
9.13397
 11
-85.888975
 21
9.13397
  0
LINE
  8
型材断面
  6
CONTINUOUS
 10
-127.777237
 20
9.416813
 11
-85.888975
 21
9.416813
  0
LINE
  8
型材断面
  6
CONTINUOUS
 10
-129.120742
 20
8.073308
 11
-85.888975
 21
8.073308
  0
LINE
  8
型材断面
  6
CONTINUOUS
 10
-130.163975
 20
7.030075
 11
-85.888975
 21
7.030075
  0
LINE
  8
型材断面
  6
CONTINUOUS
 10
-128.767188
 20
8.426863
 11
-85.888975
 21
8.426863
  0
LINE
  8
型材断面
  6
CONTINUOUS
 10
-85.888975
 20
3.281198
 11
-88.13242
 21
-0.604562
  0
LINE
  8
型材断面
  6
CONTINUOUS
 10
-85.888975
 20
3.281198
 11
-83.64553
 21
-0.604562
  0
LINE
  8
型材断面
  6
CONTINUOUS
 10
-83.64553
 20
-0.604562
 11
-88.13242
 21
-0.604562
  0
LINE
  8
型材断面
  6
CONTINUOUS
 10
-85.888975
 20
99.328953
 11
-88.13242
 21
103.214712
  0
LINE
  8
型材断面
  6
CONTINUOUS
 10
-85.888975
 20
99.328953
 11
-83.64553
 21
103.214712
  0
LINE
  8
型材断面
  6
CONTINUOUS
 10
-83.64553
 20
103.214712
 11
-88.13242
 21
103.214712
  0
LINE
  8
型材断面
  6
CONTINUOUS
 10
-37.865097
 20
51.305077
 11
-33.979338
 21
49.061633
  0
LINE
  8
型材断面
  6
CONTINUOUS
 10
-37.865097
 20
51.305077
 11
-33.979338
 21
53.548523
  0
LINE
  8
型材断面
  6
CONTINUOUS
 10
-33.979338
 20
53.548523
 11
-33.979338
 21
49.061633
  0
LINE
  8
型材断面
  6
CONTINUOUS
 10
-133.912853
 20
51.305077
 11
-137.798613
 21
49.061633
  0
LINE
  8
型材断面
  6
CONTINUOUS
 10
-133.912853
 20
51.305077
 11
-137.798613
 21
53.548523
  0
LINE
  8
型材断面
  6
CONTINUOUS
 10
-137.798613
 20
53.548523
 11
-137.798613
 21
49.061633
  0
LINE
  8
型材断面
  6
CONTINUOUS
 10
-11.954897
 20
12.162685
 11
-14.198343
 21
8.276925
  0
LINE
  8
型材断面
  6
CONTINUOUS
 10
-11.954897
 20
12.162685
 11
-9.711452
 21
8.276925
  0
LINE
  8
型材断面
  6
CONTINUOUS
 10
-9.711452
 20
8.276925
 11
-14.198343
 21
8.276925
  0
LINE
  8
型材断面
  6
CONTINUOUS
 10
-20.988778
 20
6.869032
 11
31.667902
 21
6.869032
  0
LINE
  8
型材断面
  6
CONTINUOUS
 62
    47
 10
-41.613975
 20
-79.848182
 11
-41.613975
 21
-80.41656
  0
LINE
  8
型材断面
  6
CONTINUOUS
 62
    47
 10
-42.288975
 20
-81.11656
 11
-41.613975
 21
-81.11656
  0
LINE
  8
型材断面
  6
CONTINUOUS
 62
    47
 10
-41.613975
 20
-81.11656
 11
-41.613975
 21
-80.41656
  0
LINE
  8
型材断面
  6
CONTINUOUS
 62
    47
 10
-42.938977
 20
-80.41656
 11
-41.613975
 21
-80.41656
  0
LINE
  8
型材断面
  6
CONTINUOUS
 62
    47
 10
-42.288975
 20
-81.11656
 11
-42.288975
 21
-81.61656
  0
LINE
  8
型材断面
  6
CONTINUOUS
 10
-42.363975
 20
-81.61656
 11
-42.288975
 21
-81.61656
  0
LINE
  8
型材断面
  6
CONTINUOUS
 62
    47
 10
-43.71787
 20
-77.744287
 11
-42.657208
 21
-78.80495
  0
LINE
  8
型材断面
  6
CONTINUOUS
 10
-44.2482
 20
-77.213958
 11
-46.966643
 21
-77.213958
  0
LINE
  8
型材断面
  6
CONTINUOUS
 62
    47
 10
-41.613975
 20
-79.848182
 11
-85.888975
 21
-35.573182
  0
LINE
  8
型材断面
  6
CONTINUOUS
 10
-81.638975
 20
-39.717217
 11
-85.888975
 21
-39.717217
  0
LINE
  8
型材断面
  6
CONTINUOUS
 10
-90.138972
 20
-39.717217
 11
-85.888975
 21
-39.717217
  0
LINE
  8
型材断面
  6
CONTINUOUS
 10
-90.08599
 20
-39.7702
 11
-85.888975
 21
-39.7702
  0
LINE
  8
型材断面
  6
CONTINUOUS
 10
-85.888975
 20
-35.467217
 11
-81.638975
 21
-39.717217
  0
LINE
  8
型材断面
  6
CONTINUOUS
 10
-85.888975
 20
-35.467217
 11
-90.138972
 21
-39.717217
  0
LINE
  8
型材断面
  6
CONTINUOUS
 10
-81.69196
 20
-39.7702
 11
-85.888975
 21
-39.7702
  0
LINE
  8
型材断面
  6
CONTINUOUS
 10
-90.138972
 20
-39.717217
 11
-90.08599
 21
-39.7702
  0
LINE
  8
型材断面
  6
CONTINUOUS
 10
-81.69196
 20
-39.7702
 11
-81.638975
 21
-39.717217
  0
LINE
  8
型材断面
  6
CONTINUOUS
 10
-90.138975
 20
-39.717217
 11
-85.888975
 21
-39.717217
  0
LINE
  8
型材断面
  6
CONTINUOUS
 10
-90.08599
 20
-39.7702
 11
-85.888975
 21
-39.7702
  0
LINE
  8
型材断面
  6
CONTINUOUS
 10
-90.08599
 20
-39.7702
 11
-90.138975
 21
-39.717217
  0
LINE
  8
型材断面
  6
CONTINUOUS
 10
-46.6838
 20
-77.213958
 11
-84.127557
 21
-39.7702
  0
LINE
  8
型材断面
  6
CONTINUOUS
 10
-46.966643
 20
-77.213958
 11
-84.41041
 21
-39.7702
  0
LINE
  8
型材断面
  6
CONTINUOUS
 10
-42.288975
 20
-81.61656
 11
-85.888975
 21
-81.61656
  0
LINE
  8
型材断面
  6
CONTINUOUS
 10
-41.613975
 20
-80.41656
 11
-85.888975
 21
-80.41656
  0
LINE
  8
型材断面
  6
CONTINUOUS
 10
-41.613975
 20
-79.848182
 11
-85.888975
 21
-79.848182
  0
LINE
  8
型材断面
  6
CONTINUOUS
 10
-42.657208
 20
-78.80495
 11
-85.888975
 21
-78.80495
  0
LINE
  8
型材断面
  6
CONTINUOUS
 10
-43.71787
 20
-77.744287
 11
-85.888975
 21
-77.744287
  0
LINE
  8
型材断面
  6
CONTINUOUS
 10
-43.010762
 20
-78.451395
 11
-85.888975
 21
-78.451395
  0
LINE
  8
型材断面
  6
CONTINUOUS
 10
-42.288975
 20
-81.11656
 11
-85.888975
 21
-81.11656
  0
LINE
  8
型材断面
  6
CONTINUOUS
 62
    47
 10
-130.163975
 20
-79.848182
 11
-130.163975
 21
-80.41656
  0
LINE
  8
型材断面
  6
CONTINUOUS
 62
    47
 10
-129.488975
 20
-81.11656
 11
-130.163975
 21
-81.11656
  0
LINE
  8
型材断面
  6
CONTINUOUS
 62
    47
 10
-130.163975
 20
-81.11656
 11
-130.163975
 21
-80.41656
  0
LINE
  8
型材断面
  6
CONTINUOUS
 62
    47
 10
-128.838973
 20
-80.41656
 11
-130.163975
 21
-80.41656
  0
LINE
  8
型材断面
  6
CONTINUOUS
 62
    47
 10
-129.488975
 20
-81.11656
 11
-129.488975
 21
-81.61656
  0
LINE
  8
型材断面
  6
CONTINUOUS
 10
-129.413975
 20
-81.61656
 11
-129.488975
 21
-81.61656
  0
LINE
  8
型材断面
  6
CONTINUOUS
 62
    47
 10
-128.06008
 20
-77.744287
 11
-129.120742
 21
-78.80495
  0
LINE
  8
型材断面
  6
CONTINUOUS
 10
-127.52975
 20
-77.213958
 11
-124.811308
 21
-77.213958
  0
LINE
  8
型材断面
  6
CONTINUOUS
 62
    47
 10
-130.163975
 20
-79.848182
 11
-85.888975
 21
-35.573182
  0
LINE
  8
型材断面
  6
CONTINUOUS
 10
-125.09415
 20
-77.213958
 11
-87.650392
 21
-39.7702
  0
LINE
  8
型材断面
  6
CONTINUOUS
 10
-124.811308
 20
-77.213958
 11
-87.36754
 21
-39.7702
  0
LINE
  8
型材断面
  6
CONTINUOUS
 10
-129.488975
 20
-81.61656
 11
-85.888975
 21
-81.61656
  0
LINE
  8
型材断面
  6
CONTINUOUS
 10
-130.163975
 20
-80.41656
 11
-85.888975
 21
-80.41656
  0
LINE
  8
型材断面
  6
CONTINUOUS
 10
-130.163975
 20
-79.848182
 11
-85.888975
 21
-79.848182
  0
LINE
  8
型材断面
  6
CONTINUOUS
 10
-129.120742
 20
-78.80495
 11
-85.888975
 21
-78.80495
  0
LINE
  8
型材断面
  6
CONTINUOUS
 10
-128.06008
 20
-77.744287
 11
-85.888975
 21
-77.744287
  0
LINE
  8
型材断面
  6
CONTINUOUS
 10
-128.767188
 20
-78.451395
 11
-85.888975
 21
-78.451395
  0
LINE
  8
型材断面
  6
CONTINUOUS
 10
-129.488975
 20
-81.11656
 11
-85.888975
 21
-81.11656
  0
LINE
  8
型材断面
  6
DASHDOT
 10
-125.888975
 20
91.305075
 11
-125.888975
 21
-87.84156
  0
LINE
  8
型材断面
  6
DASHDOT
 10
-85.888975
 20
91.305075
 11
-85.888975
 21
-87.84156
  0
LINE
  8
型材断面
  6
DASHDOT
 10
-45.888975
 20
91.305075
 11
-45.888975
 21
-87.84156
  0
LINE
  8
型材断面
  6
CONTINUOUS
 10
-20.988778
 20
0.196253
 11
31.667902
 21
0.196253
  0
LINE
  8
型材断面
  6
CONTINUOUS
 10
83.483072
 20
-14.24328
 11
107.414695
 21
-14.24328
  0
LINE
  8
ガラス
  6
CONTINUOUS
 10
-83.551875
 20
25.01752
 11
-87.42451
 21
21.144885
  0
LINE
  8
ガラス
  6
CONTINUOUS
 10
-85.150233
 20
24.137198
 11
-86.544188
 21
22.743243
  0
LINE
  8
ガラス
  6
CONTINUOUS
 10
-83.551875
 20
78.114543
 11
-87.42451
 21
74.241907
  0
LINE
  8
ガラス
  6
CONTINUOUS
 10
-85.150233
 20
77.23422
 11
-86.544188
 21
75.840265
  0
LINE
  8
ガラス
  6
CONTINUOUS
 10
-107.971832
 20
53.37426
 11
-111.844467
 21
49.501625
  0
LINE
  8
ガラス
  6
CONTINUOUS
 10
-109.57019
 20
52.493937
 11
-110.964145
 21
51.099983
  0
LINE
  8
ガラス
  6
CONTINUOUS
 10
-57.822613
 20
53.37426
 11
-61.695248
 21
49.501625
  0
LINE
  8
ガラス
  6
CONTINUOUS
 10
-59.42097
 20
52.493937
 11
-60.814925
 21
51.099983
  0
LINE
  8
ガラス
  6
CONTINUOUS
 10
-84.432197
 20
23.419162
 11
-85.826152
 21
22.025208
  0
LINE
  8
ガラス
  6
CONTINUOUS
 10
-58.702935
 20
51.775902
 11
-60.09689
 21
50.381948
  0
LINE
  8
ガラス
  6
CONTINUOUS
 10
-108.852155
 20
51.775902
 11
-110.24611
 21
50.381948
  0
LINE
  8
ガラス
  6
CONTINUOUS
 10
-84.432197
 20
76.516185
 11
-85.826152
 21
75.12223
  0
LINE
  8
ガラス
  6
CONTINUOUS
 10
-83.577728
 20
-62.739672
 11
-87.450363
 21
-66.612308
  0
LINE
  8
ガラス
  6
CONTINUOUS
 10
-84.45805
 20
-64.33803
 11
-85.852005
 21
-65.731985
  0
LINE
  8
ガラス
  6
CONTINUOUS
 10
-85.176085
 20
-63.619995
 11
-86.57004
 21
-65.01395
  0
TEXT
  7
TextStyle03
  8
文字
  6
CONTINUOUS
 10
-7.675
 20
8.6
  1
は排水穴位置を示す
 40
3.0
 72
     5
 11
22.325
 21
8.6
  0
TEXT
  7
TextStyle03
  8
文字
  6
CONTINUOUS
 10
75.475
 20
93.325
  1
ＮＳコード：ＮＳ４ＣＫＳ
 40
5.0
 72
     5
 11
142.35
 21
93.325
  0
TEXT
  7
TextStyle03
  8
文字
  6
CONTINUOUS
 10
-13.275
 20
1.575
  1
アンカー数量　１０ヶ所
 40
3.0
 72
     5
 11
23.475
 21
1.575
  0
TEXT
  7
TextStyle03
  8
文字
  6
CONTINUOUS
 10
-158.125
 20
8.2
  1
アンカーピッチ
 40
3.0
 50
90.0
 72
     5
 11
-158.125
 21
31.45
  0
TEXT
  7
TextStyle03
  8
文字
  6
CONTINUOUS
 10
-146.125
 20
124.225
  1
アンカーピッチ
 40
3.0
 72
     5
 11
-122.875
 21
124.225
  0
TEXT
  7
TextStyle03
  8
文字
  6
CONTINUOUS
 10
127.35
 20
-74.325
  1
×４枚
 40
3.0
 72
     5
 11
137.1
 21
-74.325
  0
TEXT
  7
TextStyle03
  8
文字
  6
CONTINUOUS
 10
87.075
 20
-13.05
  1
ガラス寸法
 40
3.0
 72
     5
 11
103.575
 21
-13.05
  0
TEXT
  7
TextStyle03
  8
文字
  6
CONTINUOUS
 10
75.025
 20
119.35
  1
シリーズ：ＳＴＦ４Ｋ
 40
5.0
 72
     5
 11
130.65
 21
119.35
  0
TEXT
  7
TextStyle03
  8
文字
  6
CONTINUOUS
 10
75.025
 20
113.725
  1
　　　　　四角錘（固定）1600×1600タイプ
 40
5.0
 72
     5
 11
186.9
 21
113.725
  0
TEXT
  7
TextStyle03
  8
文字
  6
CONTINUOUS
 10
75.025
 20
108.1
  1
　　　　　シングルガラス仕様
 40
5.0
 72
     5
 11
153.15
 21
108.1
  0
TEXT
  7
TextStyle03
  8
文字
  6
CONTINUOUS
 10
75.025
 20
102.475
  1
図面名　：外観姿図
 40
5.0
 72
     5
 11
125.025
 21
102.475
  0
TEXT
  7
TextStyle03
  8
文字
  6
CONTINUOUS
 10
75.025
 20
96.85
  1
　　　　　　
 40
5.0
 72
     5
 11
108.15
 21
96.85
  0
INSERT
  2
*DIM_0002
  8
寸法
  6
CONTINUOUS
 10
0.0
 20
0.0
  0
INSERT
  2
*DIM_0003
  8
寸法
  6
CONTINUOUS
 10
0.0
 20
0.0
  0
INSERT
  2
*DIM_0004
  8
寸法
  6
CONTINUOUS
 10
0.0
 20
0.0
  0
INSERT
  2
*DIM_0005
  8
寸法
  6
CONTINUOUS
 10
0.0
 20
0.0
  0
INSERT
  2
*DIM_0006
  8
寸法
  6
CONTINUOUS
 10
0.0
 20
0.0
  0
INSERT
  2
*DIM_0007
  8
寸法
  6
CONTINUOUS
 10
0.0
 20
0.0
  0
INSERT
  2
*DIM_0008
  8
寸法
  6
CONTINUOUS
 10
0.0
 20
0.0
  0
INSERT
  2
*DIM_0009
  8
寸法
  6
CONTINUOUS
 10
0.0
 20
0.0
  0
INSERT
  2
*DIM_0010
  8
寸法
  6
CONTINUOUS
 10
0.0
 20
0.0
  0
INSERT
  2
*DIM_0011
  8
寸法
  6
CONTINUOUS
 10
0.0
 20
0.0
  0
INSERT
  2
*DIM_0012
  8
寸法
  6
CONTINUOUS
 10
0.0
 20
0.0
  0
INSERT
  2
*DIM_0013
  8
寸法
  6
CONTINUOUS
 10
0.0
 20
0.0
  0
LINE
  8
曲げ物
  6
CONTINUOUS
 10
149.378162
 20
-77.399633
 11
68.243162
 21
-77.399633
  0
LINE
  8
曲げ物
  6
CONTINUOUS
 10
68.243162
 20
-77.399633
 11
108.810663
 21
-20.028765
  0
LINE
  8
曲げ物
  6
CONTINUOUS
 10
149.378162
 20
-77.399633
 11
108.810663
 21
-20.028765
  0
ENDSEC
  0
EOF
