  0
SECTION
  2
HEADER
  9
$EXTMIN
 10
-210.0
 20
-148.5
  9
$EXTMAX
 10
210.0
 20
148.5
  9
$PDMODE
 70
    32
  9
$PDSIZE
 40
1.5
  9
$LTSCALE
 40
10.0
  0
ENDSEC
  0
SECTION
  2
TABLES
  0
TABLE
  2
LTYPE
 70
    15
  0
LTYPE
  2
CONTINUOUS
 70
    64
  3
実線
 72
    65
 73
     0
 40
0.0
  0
LTYPE
  2
DASHED
 70
    64
  3
破線A
 72
    65
 73
     2
 40
0.6
 49
0.4
 49
-0.2
  0
LTYPE
  2
DASHEDX2
 70
    64
  3
破線B
 72
    65
 73
     2
 40
1.3
 49
0.9
 49
-0.4
  0
LTYPE
  2
DASHDOT
 70
    64
  3
１点鎖線A
 72
    65
 73
     4
 40
0.5375
 49
0.375
 49
-0.05
 49
0.0625
 49
-0.05
  0
LTYPE
  2
DASHDOTX2
 70
    64
  3
１点鎖線B
 72
    65
 73
     4
 40
1.075
 49
0.75
 49
-0.1
 49
0.125
 49
-0.1
  0
LTYPE
  2
DIVIDE2
 70
    64
  3
２点鎖線A
 72
    65
 73
     6
 40
0.5125
 49
0.3
 49
-0.0375
 49
0.05
 49
-0.0375
 49
0.05
 49
-0.0375
  0
LTYPE
  2
DIVIDE
 70
    64
  3
２点鎖線B
 72
    65
 73
     6
 40
1.05
 49
0.55
 49
-0.1
 49
0.1
 49
-0.1
 49
0.1
 49
-0.1
  0
LTYPE
  2
DOT
 70
    64
  3
点線A
 72
    65
 73
     2
 40
0.1125
 49
0.0625
 49
-0.05
  0
LTYPE
  2
DOTX2
 70
    64
  3
点線B
 72
    65
 73
     2
 40
0.275
 49
0.15
 49
-0.125
  0
LTYPE
  2
CONTINUOUS
 70
    64
  3
実線
 72
    65
 73
     0
 40
0.0
  0
LTYPE
  2
CONTINUOUS
 70
    64
  3
実線
 72
    65
 73
     0
 40
0.0
  0
LTYPE
  2
CONTINUOUS
 70
    64
  3
実線
 72
    65
 73
     0
 40
0.0
  0
LTYPE
  2
CONTINUOUS
 70
    64
  3
実線
 72
    65
 73
     0
 40
0.0
  0
LTYPE
  2
CONTINUOUS
 70
    64
  3
実線
 72
    65
 73
     0
 40
0.0
  0
LTYPE
  2
CONTINUOUS
 70
    64
  3
実線
 72
    65
 73
     0
 40
0.0
  0
ENDTAB
  0
TABLE
  2
LAYER
 70
    34
  0
LAYER
  2
通り芯
 70
     0
 62
    15
  6
CONTINUOUS
  0
LAYER
  2
補助線
 70
     0
 62
    16
  6
DOT
  0
LAYER
  2
躯体
 70
     0
 62
    31
  6
CONTINUOUS
  0
LAYER
  2
型材
 70
     0
 62
    32
  6
CONTINUOUS
  0
LAYER
  2
型材断面
 70
     0
 62
    47
  6
CONTINUOUS
  0
LAYER
  2
ガラス
 70
     0
 62
    48
  6
CONTINUOUS
  0
LAYER
  2
ゴム等
 70
     0
 62
    63
  6
CONTINUOUS
  0
LAYER
  2
ボルト／ビス
 70
     0
 62
    64
  6
CONTINUOUS
  0
LAYER
  2
文字
 70
     0
 62
    79
  6
CONTINUOUS
  0
LAYER
  2
寸法
 70
     0
 62
    80
  6
CONTINUOUS
  0
LAYER
  2
ﾊｯﾁﾝｸﾞ
 70
     0
 62
    95
  6
CONTINUOUS
  0
LAYER
  2
別途部材
 70
     0
 62
    96
  6
CONTINUOUS
  0
LAYER
  2
曲げ物
 70
     0
 62
   111
  6
CONTINUOUS
  0
LAYER
  2
鉄骨等
 70
     0
 62
   112
  6
CONTINUOUS
  0
LAYER
  2
St
 70
     0
 62
   127
  6
CONTINUOUS
  0
LAYER
  2
その他部品等
 70
     0
 62
   128
  6
CONTINUOUS
  0
LAYER
  2
ｶﾞｽｹｯﾄ
 70
     0
 62
   143
  6
CONTINUOUS
  0
LAYER
  2
ｽｹｯﾁ
 70
     0
 62
    14
  6
CONTINUOUS
  0
LAYER
  2
0
 70
     0
 62
    17
  6
CONTINUOUS
  0
LAYER
  2
1
 70
     0
 62
    30
  6
CONTINUOUS
  0
LAYER
  2
4
 70
     0
 62
    33
  6
CONTINUOUS
  0
LAYER
  2
ﾚｲﾔ3
 70
     0
 62
    46
  6
CONTINUOUS
  0
LAYER
  2
外形線
 70
     0
 62
    49
  6
CONTINUOUS
  0
LAYER
  2
部品
 70
     0
 62
    14
  6
CONTINUOUS
  0
LAYER
  2
サッシ芯
 70
     0
 62
    17
  6
DASHDOTX2
  0
LAYER
  2
寸法線
 70
     0
 62
    62
  6
CONTINUOUS
  0
LAYER
  2
姿図外形線
 70
     0
 62
    65
  6
CONTINUOUS
  0
LAYER
  2
姿補助線
 70
     0
 62
    30
  6
CONTINUOUS
  0
LAYER
  2
透視線
 70
     0
 62
    78
  6
DOT
  0
LAYER
  2
用紙
 70
     0
 62
    81
  6
CONTINUOUS
  0
LAYER
  2
実線図枠
 70
     0
 62
    94
  6
CONTINUOUS
  0
LAYER
  2
補助図枠
 70
     0
 62
    97
  6
CONTINUOUS
  0
LAYER
  2
建具記号
 70
     0
 62
   110
  6
CONTINUOUS
  0
LAYER
  2
補助文字
 70
     0
 62
   113
  6
CONTINUOUS
  0
ENDTAB
  0
TABLE
  2
STYLE
 70
    10
  0
STYLE
  2
STANDARD
 70
     0
 40
1.0
 41
1.0
 42
1.0
 50
0.0
 71
     0
  3
TXT
  4
BIGFONT
  0
STYLE
  2
TATE
 70
     4
 40
1.0
 41
1.0
 42
1.0
 50
0.0
 71
     0
  3
TXT
  4
BIGFONT
  0
STYLE
  2
TextStyle03
 70
     0
 40
1.0
 41
1.0
 42
1.0
 50
0.0
 71
     0
  3
MONOTXT
  4
BIGFONT
  0
STYLE
  2
TextStyle04
 70
     0
 40
1.0
 41
1.0
 42
1.0
 50
0.0
 71
     0
  3
MONOTXT
  4
BIGFONT
  0
STYLE
  2
TextStyle05
 70
     0
 40
1.0
 41
1.0
 42
1.0
 50
0.0
 71
     0
  3
MONOTXT
  4
BIGFONT
  0
STYLE
  2
TextStyle06
 70
     0
 40
1.0
 41
1.0
 42
1.0
 50
0.0
 71
     0
  3
MONOTXT
  4
BIGFONT
  0
STYLE
  2
TextStyle07
 70
     0
 40
1.0
 41
1.0
 42
1.0
 50
0.0
 71
     0
  3
MONOTXT
  4
BIGFONT
  0
STYLE
  2
TextStyle08
 70
     0
 40
1.0
 41
1.0
 42
1.0
 50
0.0
 71
     0
  3
MONOTXT
  4
BIGFONT
  0
STYLE
  2
TextStyle09
 70
     0
 40
1.0
 41
1.0
 42
1.0
 50
0.0
 71
     0
  3
MONOTXT
  4
BIGFONT
  0
STYLE
  2
TextStyle10
 70
     0
 40
1.0
 41
1.0
 42
1.0
 50
0.0
 71
     0
  3
MONOTXT
  4
BIGFONT
  0
ENDTAB
  0
ENDSEC
  0
SECTION
  2
BLOCKS
  0
BLOCK
  2
*GRP_0001
 70
    65
 10
0.0
 20
0.0
  0
LINE
  8
型材断面
  6
CONTINUOUS
 10
195.0
 20
133.5
 11
195.0
 21
-133.5
  0
LINE
  8
型材断面
  6
CONTINUOUS
 10
195.0
 20
-133.5
 11
-185.0
 21
-133.5
  0
LINE
  8
型材断面
  6
CONTINUOUS
 10
-185.0
 20
-133.5
 11
-185.0
 21
133.5
  0
LINE
  8
型材断面
  6
CONTINUOUS
 10
195.0
 20
133.5
 11
-185.0
 21
133.5
  0
LINE
  8
型材断面
  6
CONTINUOUS
 10
145.0
 20
-133.5
 11
145.0
 21
-118.5
  0
LINE
  8
型材断面
  6
CONTINUOUS
 10
195.0
 20
-118.5
 11
145.0
 21
-118.5
  0
ENDBLK
  0
BLOCK
  2
*DIM_0002
 70
    65
 10
0.0
 20
0.0
  0
LINE
  8
寸法
  6
BYBLOCK
 62
     0
 10
-117.523975
 20
112.47666
 11
-117.523975
 21
123.407415
  0
LINE
  8
寸法
  6
BYBLOCK
 62
     0
 10
-82.523975
 20
112.47666
 11
-82.523975
 21
123.407415
  0
LINE
  8
寸法
  6
BYBLOCK
 62
     0
 10
-117.523975
 20
123.407415
 11
-82.523975
 21
123.407415
  0
POINT
  8
寸法
 62
     0
 10
-117.523975
 20
123.407415
  0
POINT
  8
寸法
 62
     0
 10
-82.523975
 20
123.407415
  0
TEXT
  7
TextStyle03
  8
寸法
  6
CONTINUOUS
 62
     0
 10
-102.4875
 20
123.8
  1
700
 40
3.0
 72
     5
 11
-97.6125
 21
123.8
  0
ENDBLK
  0
BLOCK
  2
*DIM_0003
 70
    65
 10
0.0
 20
0.0
  0
LINE
  8
寸法
  6
BYBLOCK
 62
     0
 10
-47.523975
 20
112.47666
 11
-47.523975
 21
123.407415
  0
LINE
  8
寸法
  6
BYBLOCK
 62
     0
 10
-82.523975
 20
123.407415
 11
-47.523975
 21
123.407415
  0
POINT
  8
寸法
 62
     0
 10
-47.523975
 20
123.407415
  0
TEXT
  7
TextStyle03
  8
寸法
  6
CONTINUOUS
 62
     0
 10
-67.4875
 20
123.8
  1
700
 40
3.0
 72
     5
 11
-62.6125
 21
123.8
  0
ENDBLK
  0
BLOCK
  2
*DIM_0004
 70
    65
 10
0.0
 20
0.0
  0
LINE
  8
寸法
  6
CONTINUOUS
 10
-152.778975
 20
72.22166
 11
-163.70973
 21
72.221665
  0
LINE
  8
寸法
  6
CONTINUOUS
 10
-152.778978
 20
37.22166
 11
-163.709732
 21
37.221665
  0
LINE
  8
寸法
  6
CONTINUOUS
 10
-163.70973
 20
72.221665
 11
-163.709732
 21
37.221665
  0
POINT
  8
寸法
 10
-163.70973
 20
72.221665
  0
POINT
  8
寸法
 10
-163.709732
 20
37.221665
  0
TEXT
  7
TextStyle03
  8
寸法
  6
CONTINUOUS
 10
-164.1
 20
52.2625
  1
700
 40
3.0
 50
90.0
 72
     5
 11
-164.1
 21
57.1375
  0
ENDBLK
  0
BLOCK
  2
*DIM_0005
 70
    65
 10
0.0
 20
0.0
  0
LINE
  8
寸法
  6
CONTINUOUS
 10
-152.778978
 20
37.22166
 11
-163.709732
 21
37.221662
  0
LINE
  8
寸法
  6
CONTINUOUS
 10
-152.77898
 20
2.22166
 11
-163.709735
 21
2.221662
  0
LINE
  8
寸法
  6
CONTINUOUS
 10
-163.709732
 20
37.221662
 11
-163.709735
 21
2.221662
  0
POINT
  8
寸法
 10
-163.709735
 20
2.221662
  0
TEXT
  7
TextStyle03
  8
寸法
  6
CONTINUOUS
 10
-164.1
 20
17.2625
  1
700
 40
3.0
 50
90.0
 72
     5
 11
-164.1
 21
22.1375
  0
ENDBLK
  0
BLOCK
  2
*DIM_0006
 70
    65
 10
0.0
 20
0.0
  0
LINE
  8
寸法
  6
CONTINUOUS
 10
-90.023975
 20
-73.08645
 11
-90.023975
 21
-58.655588
  0
LINE
  8
寸法
  6
CONTINUOUS
 10
-75.023975
 20
-73.08645
 11
-75.023975
 21
-58.655588
  0
LINE
  8
寸法
  6
CONTINUOUS
 10
-90.023975
 20
-58.655588
 11
-75.023975
 21
-58.655588
  0
POINT
  8
寸法
 10
-90.023975
 20
-58.655588
  0
POINT
  8
寸法
 10
-75.023975
 20
-58.655588
  0
TEXT
  7
TextStyle03
  8
寸法
  6
CONTINUOUS
 10
-85.775
 20
-58.3
  1
300
 40
4.0
 72
     5
 11
-79.275
 21
-58.3
  0
ENDBLK
  0
BLOCK
  2
*DIM_0007
 70
    65
 10
0.0
 20
0.0
  0
LINE
  8
寸法
  6
CONTINUOUS
 10
-74.023975
 20
-74.08645
 11
-56.825
 21
-74.08645
  0
LINE
  8
寸法
  6
CONTINUOUS
 10
-56.825
 20
-66.586445
 11
-56.825
 21
-74.08645
  0
POINT
  8
寸法
 10
-56.825
 20
-66.586445
  0
POINT
  8
寸法
 10
-56.825
 20
-74.08645
  0
TEXT
  7
TextStyle03
  8
寸法
  6
CONTINUOUS
 10
-57.2
 20
-73.6
  1
150
 40
4.0
 50
90.0
 72
     5
 11
-57.2
 21
-67.1
  0
ENDBLK
  0
BLOCK
  2
*DIM_0008
 70
    65
 10
0.0
 20
0.0
  0
LINE
  8
寸法
  6
CONTINUOUS
 10
-37.523975
 20
-50.794235
 11
-37.523975
 21
-50.465507
  0
LINE
  8
寸法
  6
CONTINUOUS
 10
-33.248975
 20
-114.96741
 11
-33.248975
 21
-50.465507
  0
LINE
  8
寸法
  6
CONTINUOUS
 10
-37.523975
 20
-50.465507
 11
-33.248975
 21
-50.465507
  0
POINT
  8
寸法
 10
-33.248975
 20
-50.465507
  0
TEXT
  7
TextStyle03
  8
寸法
  6
CONTINUOUS
 10
-31.93125
 20
-50.1
  1
85.5
 40
3.0
 72
     5
 11
-25.36875
 21
-50.1
  0
ENDBLK
  0
BLOCK
  2
*DIM_0009
 70
    65
 10
0.0
 20
0.0
  0
LINE
  8
寸法
  6
CONTINUOUS
 10
-131.798975
 20
-114.96741
 11
-131.798975
 21
-50.465507
  0
LINE
  8
寸法
  6
CONTINUOUS
 10
-127.523975
 20
-50.465507
 11
-131.798975
 21
-50.465507
  0
POINT
  8
寸法
 10
-127.523975
 20
-50.465507
  0
POINT
  8
寸法
 10
-131.798975
 20
-50.465507
  0
TEXT
  7
TextStyle03
  8
寸法
  6
CONTINUOUS
 10
-139.70625
 20
-50.1
  1
85.5
 40
3.0
 72
     5
 11
-133.14375
 21
-50.1
  0
ENDBLK
  0
BLOCK
  2
*DIM_0010
 70
    65
 10
0.0
 20
0.0
  0
LINE
  8
寸法
  6
CONTINUOUS
 10
-127.523975
 20
-50.794235
 11
-127.523975
 21
-50.465507
  0
LINE
  8
寸法
  6
CONTINUOUS
 10
-37.523975
 20
-50.794235
 11
-37.523975
 21
-50.465507
  0
LINE
  8
寸法
  6
CONTINUOUS
 10
-127.523975
 20
-50.465507
 11
-37.523975
 21
-50.465507
  0
POINT
  8
寸法
 10
-127.523975
 20
-50.465507
  0
POINT
  8
寸法
 10
-37.523975
 20
-50.465507
  0
TEXT
  7
TextStyle03
  8
寸法
  6
CONTINUOUS
 10
-85.80625
 20
-50.1
  1
1800
 40
3.0
 72
     5
 11
-79.24375
 21
-50.1
  0
ENDBLK
  0
BLOCK
  2
*DIM_0011
 70
    65
 10
0.0
 20
0.0
  0
LINE
  8
寸法
  6
CONTINUOUS
 10
-81.523975
 20
-66.586445
 11
-15.395088
 21
-66.586445
  0
LINE
  8
寸法
  6
CONTINUOUS
 10
-15.395088
 20
-115.96741
 11
-15.395088
 21
-66.586445
  0
POINT
  8
寸法
 10
-15.395088
 20
-115.96741
  0
POINT
  8
寸法
 10
-15.395088
 20
-66.586445
  0
TEXT
  7
TextStyle03
  8
寸法
  6
CONTINUOUS
 10
-15.775
 20
-95.425
  1
987.6
 40
3.0
 50
90.0
 72
     5
 11
-15.775
 21
-87.175
  0
ENDBLK
  0
BLOCK
  2
*DIM_0012
 70
    65
 10
0.0
 20
0.0
  0
LINE
  8
寸法
  6
CONTINUOUS
 10
-32.248975
 20
-115.96741
 11
-15.395088
 21
-115.96741
  0
LINE
  8
寸法
  6
CONTINUOUS
 10
-32.248975
 20
-117.235787
 11
-15.395088
 21
-117.235787
  0
LINE
  8
寸法
  6
CONTINUOUS
 10
-15.395088
 20
-115.96741
 11
-15.395088
 21
-117.235787
  0
POINT
  8
寸法
 10
-15.395088
 20
-115.96741
  0
POINT
  8
寸法
 10
-15.395088
 20
-117.235787
  0
TEXT
  7
TextStyle03
  8
寸法
  6
CONTINUOUS
 10
-12.4
 20
-119.90625
  1
25.4
 40
3.0
 50
90.0
 72
     5
 11
-12.4
 21
-113.34375
  0
ENDBLK
  0
BLOCK
  2
*DIM_0013
 70
    65
 10
0.0
 20
0.0
  0
LINE
  8
寸法
  6
CONTINUOUS
 10
138.576453
 20
-87.344413
 11
138.576453
 21
-99.95
  0
LINE
  8
寸法
  6
CONTINUOUS
 10
93.781455
 20
-87.344413
 11
93.781455
 21
-99.95
  0
LINE
  8
寸法
  6
CONTINUOUS
 10
138.576453
 20
-99.95
 11
93.781455
 21
-99.95
  0
POINT
  8
寸法
 10
138.576453
 20
-99.95
  0
POINT
  8
寸法
 10
93.781455
 20
-99.95
  0
TEXT
  7
TextStyle03
  8
寸法
  6
CONTINUOUS
 10
112.05
 20
-99.575
  1
895.9
 40
3.0
 72
     5
 11
120.3
 21
-99.575
  0
ENDBLK
  0
BLOCK
  2
*DIM_0014
 70
    65
 10
0.0
 20
0.0
  0
LINE
  8
寸法
  6
CONTINUOUS
 10
143.576453
 20
-18.994992
 11
160.888638
 21
-18.994992
  0
LINE
  8
寸法
  6
CONTINUOUS
 10
143.576453
 20
-82.344413
 11
160.888638
 21
-82.344413
  0
LINE
  8
寸法
  6
CONTINUOUS
 10
160.888638
 20
-18.994992
 11
160.888638
 21
-82.344413
  0
POINT
  8
寸法
 10
160.888638
 20
-18.994992
  0
POINT
  8
寸法
 10
160.888638
 20
-82.344413
  0
TEXT
  7
TextStyle03
  8
寸法
  6
CONTINUOUS
 10
160.5
 20
-53.95625
  1
1267
 40
3.0
 50
90.0
 72
     5
 11
160.5
 21
-47.39375
  0
ENDBLK
  0
ENDSEC
  0
SECTION
  2
ENTITIES
  0
POLYLINE
  8
通り芯
  6
CONTINUOUS
 66
     1
 70
     1
  0
VERTEX
  8
通り芯
 10
-210.0
 20
-148.5
  0
VERTEX
  8
通り芯
 10
210.0
 20
-148.5
  0
VERTEX
  8
通り芯
 10
210.0
 20
148.5
  0
VERTEX
  8
通り芯
 10
-210.0
 20
148.5
  0
SEQEND
  0
INSERT
  2
*GRP_0001
  8
型材断面
  6
CONTINUOUS
 10
0.0
 20
0.0
  0
LINE
  8
型材断面
  6
CONTINUOUS
 10
-80.28053
 20
-24.687975
 11
-84.76742
 21
-24.687975
  0
LINE
  8
型材断面
  6
CONTINUOUS
 10
-83.748975
 20
-113.333185
 11
-81.298975
 21
-113.333185
  0
LINE
  8
型材断面
  6
CONTINUOUS
 10
-90.023975
 20
44.72166
 11
-90.023975
 21
29.72166
  0
LINE
  8
型材断面
  6
CONTINUOUS
 10
-90.023975
 20
29.72166
 11
-75.023975
 21
29.72166
  0
LINE
  8
型材断面
  6
CONTINUOUS
 10
-75.023975
 20
29.72166
 11
-75.023975
 21
44.72166
  0
LINE
  8
型材断面
  6
CONTINUOUS
 10
-90.023975
 20
44.72166
 11
-75.023975
 21
44.72166
  0
LINE
  8
型材断面
  6
CONTINUOUS
 10
-75.023975
 20
44.72166
 11
-90.023975
 21
29.72166
  0
LINE
  8
型材断面
  6
CONTINUOUS
 10
-90.023975
 20
44.72166
 11
-75.023975
 21
29.72166
  0
LINE
  8
型材断面
  6
CONTINUOUS
 10
-35.706423
 20
38.44666
 11
-35.706423
 21
35.99666
  0
LINE
  8
型材断面
  6
CONTINUOUS
 62
    47
 10
-33.248975
 20
-115.96741
 11
-33.248975
 21
-116.535787
  0
LINE
  8
型材断面
  6
CONTINUOUS
 62
    47
 10
-33.923975
 20
-117.235787
 11
-33.248975
 21
-117.235787
  0
LINE
  8
型材断面
  6
CONTINUOUS
 62
    47
 10
-33.248975
 20
-117.235787
 11
-33.248975
 21
-116.535787
  0
LINE
  8
型材断面
  6
CONTINUOUS
 62
    47
 10
-34.573977
 20
-116.535787
 11
-33.248975
 21
-116.535787
  0
LINE
  8
型材断面
  6
CONTINUOUS
 62
    47
 10
-33.923975
 20
-117.235787
 11
-33.923975
 21
-117.735787
  0
LINE
  8
型材断面
  6
CONTINUOUS
 10
-33.998975
 20
-117.735787
 11
-33.923975
 21
-117.735787
  0
LINE
  8
型材断面
  6
CONTINUOUS
 62
    47
 10
-35.35287
 20
-113.863515
 11
-34.292208
 21
-114.924178
  0
LINE
  8
型材断面
  6
CONTINUOUS
 10
-35.8832
 20
-113.333185
 11
-38.601642
 21
-113.333185
  0
LINE
  8
型材断面
  6
CONTINUOUS
 10
-33.923975
 20
-117.235787
 11
-82.523975
 21
-117.235787
  0
LINE
  8
型材断面
  6
CONTINUOUS
 10
-33.248975
 20
-116.535787
 11
-82.523975
 21
-116.535787
  0
LINE
  8
型材断面
  6
CONTINUOUS
 10
-33.923975
 20
-117.735787
 11
-82.523975
 21
-117.735787
  0
LINE
  8
型材断面
  6
CONTINUOUS
 10
-33.248975
 20
-115.96741
 11
-82.523975
 21
-115.96741
  0
LINE
  8
型材断面
  6
CONTINUOUS
 10
-34.292208
 20
-114.924178
 11
-82.523975
 21
-114.924178
  0
LINE
  8
型材断面
  6
CONTINUOUS
 10
-35.35287
 20
-113.863515
 11
-82.523975
 21
-113.863515
  0
LINE
  8
型材断面
  6
CONTINUOUS
 10
-34.645763
 20
-114.570622
 11
-82.523975
 21
-114.570622
  0
LINE
  8
型材断面
  6
CONTINUOUS
 10
-29.500097
 20
37.22166
 11
-25.614337
 21
34.978215
  0
LINE
  8
型材断面
  6
CONTINUOUS
 10
-29.500097
 20
37.22166
 11
-25.614337
 21
39.465105
  0
LINE
  8
型材断面
  6
CONTINUOUS
 10
-25.614337
 20
39.465105
 11
-25.614337
 21
34.978215
  0
LINE
  8
型材断面
  6
CONTINUOUS
 10
-35.706423
 20
35.99666
 11
-75.023975
 21
35.99666
  0
LINE
  8
型材断面
  6
CONTINUOUS
 10
-35.706423
 20
38.44666
 11
-75.023975
 21
38.44666
  0
LINE
  8
型材断面
  6
CONTINUOUS
 10
-35.706423
 20
37.47166
 11
-75.023975
 21
37.47166
  0
LINE
  8
型材断面
  6
CONTINUOUS
 10
-35.706423
 20
36.97166
 11
-75.023975
 21
36.97166
  0
LINE
  8
型材断面
  6
CONTINUOUS
 10
-129.341528
 20
38.44666
 11
-129.341528
 21
35.99666
  0
LINE
  8
型材断面
  6
CONTINUOUS
 62
    47
 10
-131.798975
 20
-115.96741
 11
-131.798975
 21
-116.535787
  0
LINE
  8
型材断面
  6
CONTINUOUS
 62
    47
 10
-131.123975
 20
-117.235787
 11
-131.798975
 21
-117.235787
  0
LINE
  8
型材断面
  6
CONTINUOUS
 62
    47
 10
-131.798975
 20
-117.235787
 11
-131.798975
 21
-116.535787
  0
LINE
  8
型材断面
  6
CONTINUOUS
 62
    47
 10
-130.473973
 20
-116.535787
 11
-131.798975
 21
-116.535787
  0
LINE
  8
型材断面
  6
CONTINUOUS
 62
    47
 10
-131.123975
 20
-117.235787
 11
-131.123975
 21
-117.735787
  0
LINE
  8
型材断面
  6
CONTINUOUS
 10
-131.048975
 20
-117.735787
 11
-131.123975
 21
-117.735787
  0
LINE
  8
型材断面
  6
CONTINUOUS
 62
    47
 10
-129.69508
 20
-113.863515
 11
-130.755743
 21
-114.924178
  0
LINE
  8
型材断面
  6
CONTINUOUS
 10
-129.16475
 20
-113.333185
 11
-126.446307
 21
-113.333185
  0
LINE
  8
型材断面
  6
CONTINUOUS
 10
-131.123975
 20
-117.235787
 11
-82.523975
 21
-117.235787
  0
LINE
  8
型材断面
  6
CONTINUOUS
 10
-131.798975
 20
-116.535787
 11
-82.523975
 21
-116.535787
  0
LINE
  8
型材断面
  6
CONTINUOUS
 10
-131.123975
 20
-117.735787
 11
-82.523975
 21
-117.735787
  0
LINE
  8
型材断面
  6
CONTINUOUS
 10
-131.798975
 20
-115.96741
 11
-82.523975
 21
-115.96741
  0
LINE
  8
型材断面
  6
CONTINUOUS
 10
-130.755743
 20
-114.924178
 11
-82.523975
 21
-114.924178
  0
LINE
  8
型材断面
  6
CONTINUOUS
 10
-129.69508
 20
-113.863515
 11
-82.523975
 21
-113.863515
  0
LINE
  8
型材断面
  6
CONTINUOUS
 10
-130.402188
 20
-114.570622
 11
-82.523975
 21
-114.570622
  0
LINE
  8
型材断面
  6
CONTINUOUS
 10
-135.547853
 20
37.22166
 11
-139.433612
 21
34.978215
  0
LINE
  8
型材断面
  6
CONTINUOUS
 10
-135.547853
 20
37.22166
 11
-139.433612
 21
39.465105
  0
LINE
  8
型材断面
  6
CONTINUOUS
 10
-139.433612
 20
39.465105
 11
-139.433612
 21
34.978215
  0
LINE
  8
型材断面
  6
CONTINUOUS
 10
-129.341528
 20
38.44666
 11
-90.023975
 21
38.44666
  0
LINE
  8
型材断面
  6
CONTINUOUS
 10
-129.341528
 20
37.47166
 11
-90.023975
 21
37.47166
  0
LINE
  8
型材断面
  6
CONTINUOUS
 10
-129.341528
 20
36.97166
 11
-90.023975
 21
36.97166
  0
LINE
  8
型材断面
  6
CONTINUOUS
 10
-129.341528
 20
35.99666
 11
-90.023975
 21
35.99666
  0
LINE
  8
型材断面
  6
DASHDOT
 10
-37.523975
 20
37.22166
 11
-127.523975
 21
37.22166
  0
LINE
  8
型材断面
  6
CONTINUOUS
 10
-81.298975
 20
84.039213
 11
-83.748975
 21
84.039213
  0
LINE
  8
型材断面
  6
DASHDOT
 10
-82.523975
 20
82.22166
 11
-82.523975
 21
-124.710787
  0
LINE
  8
型材断面
  6
CONTINUOUS
 10
-82.523975
 20
90.245535
 11
-84.76742
 21
94.131295
  0
LINE
  8
型材断面
  6
CONTINUOUS
 10
-82.523975
 20
90.245535
 11
-80.28053
 21
94.131295
  0
LINE
  8
型材断面
  6
CONTINUOUS
 10
-80.28053
 20
94.131295
 11
-84.76742
 21
94.131295
  0
LINE
  8
型材断面
  6
CONTINUOUS
 10
-81.298975
 20
84.039213
 11
-81.298975
 21
44.72166
  0
LINE
  8
型材断面
  6
CONTINUOUS
 10
-82.273975
 20
84.039213
 11
-82.273975
 21
44.72166
  0
LINE
  8
型材断面
  6
CONTINUOUS
 10
-82.773975
 20
84.039213
 11
-82.773975
 21
44.72166
  0
LINE
  8
型材断面
  6
CONTINUOUS
 10
-83.748975
 20
84.039213
 11
-83.748975
 21
44.72166
  0
LINE
  8
型材断面
  6
CONTINUOUS
 10
-33.248975
 20
86.49666
 11
-40.398975
 21
79.34666
  0
LINE
  8
型材断面
  6
CONTINUOUS
 10
-38.142043
 20
84.039213
 11
-35.706423
 21
84.039213
  0
LINE
  8
型材断面
  6
CONTINUOUS
 10
-35.706423
 20
81.603593
 11
-35.706423
 21
84.039213
  0
LINE
  8
型材断面
  6
DASHDOT
 10
-37.523975
 20
82.22166
 11
-37.523975
 21
72.22166
  0
LINE
  8
型材断面
  6
CONTINUOUS
 10
-34.292208
 20
85.453428
 11
-82.523975
 21
85.453428
  0
LINE
  8
型材断面
  6
CONTINUOUS
 10
-33.248975
 20
86.49666
 11
-82.523975
 21
86.49666
  0
LINE
  8
型材断面
  6
CONTINUOUS
 10
-35.35287
 20
84.392765
 11
-82.523975
 21
84.392765
  0
LINE
  8
型材断面
  6
CONTINUOUS
 10
-35.635713
 20
84.109922
 11
-82.523975
 21
84.109922
  0
LINE
  8
型材断面
  6
CONTINUOUS
 10
-34.645763
 20
85.099872
 11
-82.523975
 21
85.099872
  0
LINE
  8
型材断面
  6
DASHDOT
 10
-37.523975
 20
82.22166
 11
-78.273975
 21
41.47166
  0
LINE
  8
型材断面
  6
CONTINUOUS
 10
-35.635713
 20
84.109922
 11
-35.635713
 21
37.22166
  0
LINE
  8
型材断面
  6
CONTINUOUS
 10
-35.35287
 20
84.392765
 11
-35.35287
 21
37.22166
  0
LINE
  8
型材断面
  6
CONTINUOUS
 10
-34.645763
 20
85.099872
 11
-34.645763
 21
37.22166
  0
LINE
  8
型材断面
  6
CONTINUOUS
 10
-34.292208
 20
85.453428
 11
-34.292208
 21
37.22166
  0
LINE
  8
型材断面
  6
CONTINUOUS
 10
-33.248975
 20
86.49666
 11
-33.248975
 21
37.22166
  0
LINE
  8
型材断面
  6
DASHDOT
 10
-37.523975
 20
82.22166
 11
-37.523975
 21
-124.710787
  0
LINE
  8
型材断面
  6
CONTINUOUS
 10
-35.706423
 20
81.603593
 11
-75.023975
 21
42.28604
  0
LINE
  8
型材断面
  6
CONTINUOUS
 10
-35.706423
 20
83.68566
 11
-75.023975
 21
44.368108
  0
LINE
  8
型材断面
  6
CONTINUOUS
 10
-36.059975
 20
84.039213
 11
-75.37754
 21
44.72166
  0
LINE
  8
型材断面
  6
CONTINUOUS
 10
-38.142043
 20
84.039213
 11
-77.459595
 21
44.72166
  0
LINE
  8
型材断面
  6
CONTINUOUS
 10
-131.798975
 20
86.49666
 11
-124.648975
 21
79.34666
  0
LINE
  8
型材断面
  6
CONTINUOUS
 10
-126.905908
 20
84.039213
 11
-129.341528
 21
84.039213
  0
LINE
  8
型材断面
  6
CONTINUOUS
 10
-129.341528
 20
81.603593
 11
-129.341528
 21
84.039213
  0
LINE
  8
型材断面
  6
DASHDOT
 10
-127.523975
 20
82.22166
 11
-127.523975
 21
72.22166
  0
LINE
  8
型材断面
  6
CONTINUOUS
 10
-130.755743
 20
85.453428
 11
-82.523975
 21
85.453428
  0
LINE
  8
型材断面
  6
CONTINUOUS
 10
-131.798975
 20
86.49666
 11
-82.523975
 21
86.49666
  0
LINE
  8
型材断面
  6
CONTINUOUS
 10
-129.69508
 20
84.392765
 11
-82.523975
 21
84.392765
  0
LINE
  8
型材断面
  6
CONTINUOUS
 10
-129.412238
 20
84.109922
 11
-82.523975
 21
84.109922
  0
LINE
  8
型材断面
  6
CONTINUOUS
 10
-130.402188
 20
85.099872
 11
-82.523975
 21
85.099872
  0
LINE
  8
型材断面
  6
DASHDOT
 10
-127.523975
 20
82.22166
 11
-86.773975
 21
41.47166
  0
LINE
  8
型材断面
  6
CONTINUOUS
 10
-129.412238
 20
84.109922
 11
-129.412238
 21
37.22166
  0
LINE
  8
型材断面
  6
CONTINUOUS
 10
-129.69508
 20
84.392765
 11
-129.69508
 21
37.22166
  0
LINE
  8
型材断面
  6
CONTINUOUS
 10
-130.402188
 20
85.099872
 11
-130.402188
 21
37.22166
  0
LINE
  8
型材断面
  6
CONTINUOUS
 10
-130.755743
 20
85.453428
 11
-130.755743
 21
37.22166
  0
LINE
  8
型材断面
  6
CONTINUOUS
 10
-131.798975
 20
86.49666
 11
-131.798975
 21
37.22166
  0
LINE
  8
型材断面
  6
DASHDOT
 10
-127.523975
 20
82.22166
 11
-127.523975
 21
-124.710787
  0
LINE
  8
型材断面
  6
CONTINUOUS
 10
-126.905908
 20
84.039213
 11
-87.588355
 21
44.72166
  0
LINE
  8
型材断面
  6
CONTINUOUS
 10
-128.987975
 20
84.039213
 11
-89.67041
 21
44.72166
  0
LINE
  8
型材断面
  6
CONTINUOUS
 10
-129.341528
 20
83.68566
 11
-90.023975
 21
44.368108
  0
LINE
  8
型材断面
  6
CONTINUOUS
 10
-129.341528
 20
81.603593
 11
-90.023975
 21
42.28604
  0
LINE
  8
型材断面
  6
DASHDOT
 10
-37.523975
 20
82.22166
 11
-127.523975
 21
82.22166
  0
LINE
  8
型材断面
  6
CONTINUOUS
 10
-81.298975
 20
-9.595892
 11
-83.748975
 21
-9.595892
  0
LINE
  8
型材断面
  6
CONTINUOUS
 10
-82.523975
 20
-15.802215
 11
-84.76742
 21
-24.687975
  0
LINE
  8
型材断面
  6
CONTINUOUS
 10
-82.523975
 20
-15.802215
 11
-80.28053
 21
-24.687975
  0
LINE
  8
型材断面
  6
CONTINUOUS
 10
-83.748975
 20
-9.595892
 11
-83.748975
 21
29.72166
  0
LINE
  8
型材断面
  6
CONTINUOUS
 10
-82.773975
 20
-9.595892
 11
-82.773975
 21
29.72166
  0
LINE
  8
型材断面
  6
CONTINUOUS
 10
-82.273975
 20
-9.595892
 11
-82.273975
 21
29.72166
  0
LINE
  8
型材断面
  6
CONTINUOUS
 10
-81.298975
 20
-9.595892
 11
-81.298975
 21
29.72166
  0
LINE
  8
型材断面
  6
CONTINUOUS
 10
-33.248975
 20
-12.05334
 11
-40.398975
 21
-4.90334
  0
LINE
  8
型材断面
  6
CONTINUOUS
 10
-38.142043
 20
-9.595892
 11
-35.706423
 21
-9.595892
  0
LINE
  8
型材断面
  6
CONTINUOUS
 10
-35.706423
 20
-7.160272
 11
-35.706423
 21
-9.595892
  0
LINE
  8
型材断面
  6
DASHDOT
 10
-37.523975
 20
-7.77834
 11
-37.523975
 21
2.22166
  0
LINE
  8
型材断面
  6
CONTINUOUS
 10
-34.292208
 20
-11.010107
 11
-82.523975
 21
-11.010107
  0
LINE
  8
型材断面
  6
CONTINUOUS
 10
-33.248975
 20
-12.05334
 11
-82.523975
 21
-12.05334
  0
LINE
  8
型材断面
  6
CONTINUOUS
 10
-35.35287
 20
-9.949445
 11
-82.523975
 21
-9.949445
  0
LINE
  8
型材断面
  6
CONTINUOUS
 10
-35.635713
 20
-9.666603
 11
-82.523975
 21
-9.666603
  0
LINE
  8
型材断面
  6
CONTINUOUS
 10
-34.645763
 20
-10.656552
 11
-82.523975
 21
-10.656552
  0
LINE
  8
型材断面
  6
DASHDOT
 10
-37.523975
 20
-7.77834
 11
-78.273975
 21
32.97166
  0
LINE
  8
型材断面
  6
CONTINUOUS
 10
-35.635713
 20
-9.666603
 11
-35.635713
 21
37.22166
  0
LINE
  8
型材断面
  6
CONTINUOUS
 10
-35.35287
 20
-9.949445
 11
-35.35287
 21
37.22166
  0
LINE
  8
型材断面
  6
CONTINUOUS
 10
-34.645763
 20
-10.656552
 11
-34.645763
 21
37.22166
  0
LINE
  8
型材断面
  6
CONTINUOUS
 10
-34.292208
 20
-11.010107
 11
-34.292208
 21
37.22166
  0
LINE
  8
型材断面
  6
CONTINUOUS
 10
-33.248975
 20
-12.05334
 11
-33.248975
 21
37.22166
  0
LINE
  8
型材断面
  6
CONTINUOUS
 10
-38.142043
 20
-9.595892
 11
-77.459595
 21
29.72166
  0
LINE
  8
型材断面
  6
CONTINUOUS
 10
-36.059975
 20
-9.595892
 11
-75.37754
 21
29.72166
  0
LINE
  8
型材断面
  6
CONTINUOUS
 10
-35.706423
 20
-9.24234
 11
-75.023975
 21
30.075213
  0
LINE
  8
型材断面
  6
CONTINUOUS
 10
-35.706423
 20
-7.160272
 11
-75.023975
 21
32.15728
  0
LINE
  8
型材断面
  6
CONTINUOUS
 10
-131.798975
 20
-12.05334
 11
-124.648975
 21
-4.90334
  0
LINE
  8
型材断面
  6
CONTINUOUS
 10
-126.905908
 20
-9.595892
 11
-129.341528
 21
-9.595892
  0
LINE
  8
型材断面
  6
CONTINUOUS
 10
-129.341528
 20
-7.160272
 11
-129.341528
 21
-9.595892
  0
LINE
  8
型材断面
  6
DASHDOT
 10
-127.523975
 20
-7.77834
 11
-127.523975
 21
2.22166
  0
LINE
  8
型材断面
  6
CONTINUOUS
 10
-130.755743
 20
-11.010107
 11
-82.523975
 21
-11.010107
  0
LINE
  8
型材断面
  6
CONTINUOUS
 10
-131.798975
 20
-12.05334
 11
-82.523975
 21
-12.05334
  0
LINE
  8
型材断面
  6
CONTINUOUS
 10
-129.69508
 20
-9.949445
 11
-82.523975
 21
-9.949445
  0
LINE
  8
型材断面
  6
CONTINUOUS
 10
-129.412238
 20
-9.666603
 11
-82.523975
 21
-9.666603
  0
LINE
  8
型材断面
  6
CONTINUOUS
 10
-130.402188
 20
-10.656552
 11
-82.523975
 21
-10.656552
  0
LINE
  8
型材断面
  6
DASHDOT
 10
-127.523975
 20
-7.77834
 11
-86.773975
 21
32.97166
  0
LINE
  8
型材断面
  6
CONTINUOUS
 10
-129.412238
 20
-9.666603
 11
-129.412238
 21
37.22166
  0
LINE
  8
型材断面
  6
CONTINUOUS
 10
-129.69508
 20
-9.949445
 11
-129.69508
 21
37.22166
  0
LINE
  8
型材断面
  6
CONTINUOUS
 10
-130.402188
 20
-10.656552
 11
-130.402188
 21
37.22166
  0
LINE
  8
型材断面
  6
CONTINUOUS
 10
-130.755743
 20
-11.010107
 11
-130.755743
 21
37.22166
  0
LINE
  8
型材断面
  6
CONTINUOUS
 10
-131.798975
 20
-12.05334
 11
-131.798975
 21
37.22166
  0
LINE
  8
型材断面
  6
CONTINUOUS
 10
-128.987975
 20
-9.595892
 11
-89.67041
 21
29.72166
  0
LINE
  8
型材断面
  6
CONTINUOUS
 10
-126.905908
 20
-9.595892
 11
-87.588355
 21
29.72166
  0
LINE
  8
型材断面
  6
CONTINUOUS
 10
-129.341528
 20
-7.160272
 11
-90.023975
 21
32.15728
  0
LINE
  8
型材断面
  6
CONTINUOUS
 10
-129.341528
 20
-9.24234
 11
-90.023975
 21
30.075213
  0
LINE
  8
型材断面
  6
DASHDOT
 10
-37.523975
 20
-7.77834
 11
-127.523975
 21
-7.77834
  0
LINE
  8
型材断面
  6
CONTINUOUS
 10
-82.523975
 20
-66.586445
 11
-90.023975
 21
-74.08645
  0
LINE
  8
型材断面
  6
CONTINUOUS
 10
-90.023975
 20
-74.08645
 11
-89.970993
 21
-74.139433
  0
LINE
  8
型材断面
  6
CONTINUOUS
 10
-90.023978
 20
-74.08645
 11
-85.773978
 21
-74.08645
  0
LINE
  8
型材断面
  6
CONTINUOUS
 10
-89.970993
 20
-74.139433
 11
-85.773978
 21
-74.139433
  0
LINE
  8
型材断面
  6
CONTINUOUS
 10
-89.970993
 20
-74.139433
 11
-90.023978
 21
-74.08645
  0
LINE
  8
型材断面
  6
CONTINUOUS
 10
-90.023975
 20
-74.08645
 11
-82.523975
 21
-74.08645
  0
LINE
  8
型材断面
  6
CONTINUOUS
 10
-89.970993
 20
-74.139433
 11
-82.523975
 21
-74.139433
  0
LINE
  8
型材断面
  6
CONTINUOUS
 10
-75.023975
 20
-74.08645
 11
-75.076958
 21
-74.139433
  0
LINE
  8
型材断面
  6
CONTINUOUS
 10
-75.023973
 20
-74.08645
 11
-79.273973
 21
-74.08645
  0
LINE
  8
型材断面
  6
CONTINUOUS
 10
-75.076958
 20
-74.139433
 11
-79.273973
 21
-74.139433
  0
LINE
  8
型材断面
  6
CONTINUOUS
 10
-75.076958
 20
-74.139433
 11
-75.023973
 21
-74.08645
  0
LINE
  8
型材断面
  6
CONTINUOUS
 10
-75.023975
 20
-74.08645
 11
-82.523975
 21
-74.08645
  0
LINE
  8
型材断面
  6
CONTINUOUS
 10
-75.076958
 20
-74.139433
 11
-82.523975
 21
-74.139433
  0
LINE
  8
型材断面
  6
CONTINUOUS
 10
-82.523975
 20
-66.586445
 11
-75.02397
 21
-74.08645
  0
LINE
  8
型材断面
  6
CONTINUOUS
 10
-82.773975
 20
-113.333185
 11
-82.773975
 21
-74.08645
  0
LINE
  8
型材断面
  6
CONTINUOUS
 10
-83.748975
 20
-113.333185
 11
-83.748975
 21
-74.08645
  0
LINE
  8
型材断面
  6
CONTINUOUS
 10
-82.273975
 20
-113.333185
 11
-82.273975
 21
-74.08645
  0
LINE
  8
型材断面
  6
CONTINUOUS
 10
-81.298975
 20
-113.333185
 11
-81.298975
 21
-74.08645
  0
LINE
  8
型材断面
  6
CONTINUOUS
 62
    47
 10
-33.248975
 20
-115.96741
 11
-82.523975
 21
-66.69241
  0
LINE
  8
型材断面
  6
CONTINUOUS
 10
-38.3188
 20
-113.333185
 11
-77.565535
 21
-74.08645
  0
LINE
  8
型材断面
  6
CONTINUOUS
 10
-38.601642
 20
-113.333185
 11
-77.84839
 21
-74.08645
  0
LINE
  8
型材断面
  6
CONTINUOUS
 62
    47
 10
-131.798975
 20
-115.96741
 11
-82.523975
 21
-66.69241
  0
LINE
  8
型材断面
  6
CONTINUOUS
 10
-126.72915
 20
-113.333185
 11
-87.482415
 21
-74.08645
  0
LINE
  8
型材断面
  6
CONTINUOUS
 10
-126.446307
 20
-113.333185
 11
-87.19956
 21
-74.08645
  0
LINE
  8
型材断面
  6
CONTINUOUS
 10
7.69756
 20
13.780617
 11
5.454115
 21
9.894858
  0
LINE
  8
型材断面
  6
CONTINUOUS
 10
7.69756
 20
13.780617
 11
9.941005
 21
9.894858
  0
LINE
  8
型材断面
  6
CONTINUOUS
 10
9.941005
 20
9.894858
 11
5.454115
 21
9.894858
  0
LINE
  8
型材断面
  6
CONTINUOUS
 10
-1.33632
 20
8.486965
 11
51.32036
 21
8.486965
  0
LINE
  8
型材断面
  6
CONTINUOUS
 10
-1.33632
 20
1.312693
 11
51.32036
 21
1.312693
  0
LINE
  8
型材断面
  6
CONTINUOUS
 10
94.92581
 20
-25.229795
 11
118.857432
 21
-25.229795
  0
LINE
  8
ガラス
  6
CONTINUOUS
 10
-91.704115
 20
68.582608
 11
-95.57675
 21
64.709973
  0
LINE
  8
ガラス
  6
CONTINUOUS
 10
-93.302473
 20
67.702285
 11
-94.696428
 21
66.30833
  0
LINE
  8
ガラス
  6
CONTINUOUS
 10
-69.450512
 20
68.582608
 11
-73.323147
 21
64.709973
  0
LINE
  8
ガラス
  6
CONTINUOUS
 10
-71.04887
 20
67.702285
 11
-72.442825
 21
66.30833
  0
LINE
  8
ガラス
  6
CONTINUOUS
 10
-91.704115
 20
8.172422
 11
-95.57675
 21
4.299787
  0
LINE
  8
ガラス
  6
CONTINUOUS
 10
-93.302473
 20
7.2921
 11
-94.696428
 21
5.898145
  0
LINE
  8
ガラス
  6
CONTINUOUS
 10
-69.450512
 20
8.172422
 11
-73.323147
 21
4.299787
  0
LINE
  8
ガラス
  6
CONTINUOUS
 10
-71.04887
 20
7.2921
 11
-72.442825
 21
5.898145
  0
LINE
  8
ガラス
  6
CONTINUOUS
 10
-49.417715
 20
26.72543
 11
-53.29035
 21
22.852795
  0
LINE
  8
ガラス
  6
CONTINUOUS
 10
-51.016072
 20
25.845108
 11
-52.410027
 21
24.451152
  0
LINE
  8
ガラス
  6
CONTINUOUS
 10
-49.417715
 20
50.817883
 11
-53.29035
 21
46.945248
  0
LINE
  8
ガラス
  6
CONTINUOUS
 10
-51.016072
 20
49.93756
 11
-52.410027
 21
48.543605
  0
LINE
  8
ガラス
  6
CONTINUOUS
 10
-114.65988
 20
26.72543
 11
-118.532515
 21
22.852795
  0
LINE
  8
ガラス
  6
CONTINUOUS
 10
-116.258237
 20
25.845108
 11
-117.652193
 21
24.451152
  0
LINE
  8
ガラス
  6
CONTINUOUS
 10
-114.65988
 20
50.817883
 11
-118.532515
 21
46.945248
  0
LINE
  8
ガラス
  6
CONTINUOUS
 10
-116.258237
 20
49.93756
 11
-117.652193
 21
48.543605
  0
LINE
  8
ガラス
  6
CONTINUOUS
 10
-70.330835
 20
66.98425
 11
-71.72479
 21
65.590295
  0
LINE
  8
ガラス
  6
CONTINUOUS
 10
-92.584437
 20
66.98425
 11
-93.978392
 21
65.590295
  0
LINE
  8
ガラス
  6
CONTINUOUS
 10
-115.540203
 20
49.219525
 11
-116.934158
 21
47.82557
  0
LINE
  8
ガラス
  6
CONTINUOUS
 10
-115.540203
 20
25.127073
 11
-116.934158
 21
23.733117
  0
LINE
  8
ガラス
  6
CONTINUOUS
 10
-92.584437
 20
6.574065
 11
-93.978392
 21
5.18011
  0
LINE
  8
ガラス
  6
CONTINUOUS
 10
-70.330835
 20
6.574065
 11
-71.72479
 21
5.18011
  0
LINE
  8
ガラス
  6
CONTINUOUS
 10
-50.298038
 20
25.127073
 11
-51.691993
 21
23.733117
  0
LINE
  8
ガラス
  6
CONTINUOUS
 10
-50.298038
 20
49.219525
 11
-51.691993
 21
47.82557
  0
LINE
  8
ガラス
  6
CONTINUOUS
 10
-92.718815
 20
-93.579918
 11
-96.59145
 21
-97.452552
  0
LINE
  8
ガラス
  6
CONTINUOUS
 10
-93.599137
 20
-95.178275
 11
-94.993092
 21
-96.57223
  0
LINE
  8
ガラス
  6
CONTINUOUS
 10
-94.317173
 20
-94.46024
 11
-95.711128
 21
-95.854195
  0
LINE
  8
ガラス
  6
CONTINUOUS
 10
-67.644205
 20
-93.579918
 11
-71.51684
 21
-97.452552
  0
LINE
  8
ガラス
  6
CONTINUOUS
 10
-68.524528
 20
-95.178275
 11
-69.918483
 21
-96.57223
  0
LINE
  8
ガラス
  6
CONTINUOUS
 10
-69.242562
 20
-94.46024
 11
-70.636517
 21
-95.854195
  0
TEXT
  7
TextStyle03
  8
文字
  6
CONTINUOUS
 10
77.0
 20
91.5
  1
ＮＳコード：ＮＳ４ＣＫＳ
 40
5.0
 72
     5
 11
143.875
 21
91.5
  0
TEXT
  7
TextStyle03
  8
文字
  6
CONTINUOUS
 10
-144.775
 20
119.0
  1
アンカーピッチ
 40
3.0
 72
     5
 11
-121.525
 21
119.0
  0
TEXT
  7
TextStyle03
  8
文字
  6
CONTINUOUS
 10
-160.5
 20
-22.5
  1
アンカーピッチ
 40
3.0
 50
90.0
 72
     5
 11
-160.5
 21
0.75
  0
TEXT
  7
TextStyle03
  8
文字
  6
CONTINUOUS
 10
12.025
 20
10.2
  1
は排水穴位置を示す
 40
3.0
 72
     5
 11
42.025
 21
10.2
  0
TEXT
  7
TextStyle03
  8
文字
  6
CONTINUOUS
 10
6.425
 20
2.675
  1
アンカー数量　１２ヶ所
 40
3.0
 72
     5
 11
43.175
 21
2.675
  0
TEXT
  7
TextStyle03
  8
文字
  6
CONTINUOUS
 10
76.6
 20
118.825
  1
シリーズ：ＳＴＦ４Ｋ
 40
5.0
 72
     5
 11
132.225
 21
118.825
  0
TEXT
  7
TextStyle03
  8
文字
  6
CONTINUOUS
 10
76.6
 20
113.2
  1
　　　　　四角錘（固定）1800×1800タイプ
 40
5.0
 72
     5
 11
188.475
 21
113.2
  0
TEXT
  7
TextStyle03
  8
文字
  6
CONTINUOUS
 10
76.6
 20
107.575
  1
　　　　　シングルガラス仕様
 40
5.0
 72
     5
 11
154.725
 21
107.575
  0
TEXT
  7
TextStyle03
  8
文字
  6
CONTINUOUS
 10
76.6
 20
101.95
  1
図面名　：外観姿図
 40
5.0
 72
     5
 11
126.6
 21
101.95
  0
TEXT
  7
TextStyle03
  8
文字
  6
CONTINUOUS
 10
76.6
 20
96.325
  1
　　　　　　
 40
5.0
 72
     5
 11
109.725
 21
96.325
  0
TEXT
  7
TextStyle03
  8
文字
  6
CONTINUOUS
 10
98.5
 20
-24.025
  1
ガラス寸法
 40
3.0
 72
     5
 11
115.0
 21
-24.025
  0
TEXT
  7
TextStyle03
  8
文字
  6
CONTINUOUS
 10
117.0
 20
-75.1
  1
本図×４枚
 40
3.0
 72
     5
 11
133.5
 21
-75.1
  0
TEXT
  7
TextStyle03
  8
文字
  6
CONTINUOUS
 10
117.0
 20
-78.475
  1
逆図×４枚
 40
3.0
 72
     5
 11
133.5
 21
-78.475
  0
INSERT
  2
*DIM_0002
  8
寸法
  6
CONTINUOUS
 10
0.0
 20
0.0
  0
INSERT
  2
*DIM_0003
  8
寸法
  6
CONTINUOUS
 10
0.0
 20
0.0
  0
INSERT
  2
*DIM_0004
  8
寸法
  6
CONTINUOUS
 10
0.0
 20
0.0
  0
INSERT
  2
*DIM_0005
  8
寸法
  6
CONTINUOUS
 10
0.0
 20
0.0
  0
INSERT
  2
*DIM_0006
  8
寸法
  6
CONTINUOUS
 10
0.0
 20
0.0
  0
INSERT
  2
*DIM_0007
  8
寸法
  6
CONTINUOUS
 10
0.0
 20
0.0
  0
INSERT
  2
*DIM_0008
  8
寸法
  6
CONTINUOUS
 10
0.0
 20
0.0
  0
INSERT
  2
*DIM_0009
  8
寸法
  6
CONTINUOUS
 10
0.0
 20
0.0
  0
INSERT
  2
*DIM_0010
  8
寸法
  6
CONTINUOUS
 10
0.0
 20
0.0
  0
INSERT
  2
*DIM_0011
  8
寸法
  6
CONTINUOUS
 10
0.0
 20
0.0
  0
INSERT
  2
*DIM_0012
  8
寸法
  6
CONTINUOUS
 10
0.0
 20
0.0
  0
INSERT
  2
*DIM_0013
  8
寸法
  6
CONTINUOUS
 10
0.0
 20
0.0
  0
INSERT
  2
*DIM_0014
  8
寸法
  6
CONTINUOUS
 10
0.0
 20
0.0
  0
LINE
  8
曲げ物
  6
CONTINUOUS
 10
93.781455
 20
-82.344413
 11
138.576453
 21
-82.344413
  0
LINE
  8
曲げ物
  6
CONTINUOUS
 10
138.576453
 20
-82.344413
 11
138.576453
 21
-18.994992
  0
LINE
  8
曲げ物
  6
CONTINUOUS
 10
93.781455
 20
-82.344413
 11
138.576453
 21
-18.994992
  0
ENDSEC
  0
EOF
