  0
SECTION
  2
HEADER
  9
$EXTMIN
 10
-210.0
 20
-148.5
  9
$EXTMAX
 10
210.0
 20
148.5
  9
$PDMODE
 70
    32
  9
$PDSIZE
 40
1.5
  9
$LTSCALE
 40
10.0
  0
ENDSEC
  0
SECTION
  2
TABLES
  0
TABLE
  2
LTYPE
 70
    15
  0
LTYPE
  2
CONTINUOUS
 70
    64
  3
実線
 72
    65
 73
     0
 40
0.0
  0
LTYPE
  2
DASHED
 70
    64
  3
破線A
 72
    65
 73
     2
 40
0.6
 49
0.4
 49
-0.2
  0
LTYPE
  2
DASHEDX2
 70
    64
  3
破線B
 72
    65
 73
     2
 40
1.3
 49
0.9
 49
-0.4
  0
LTYPE
  2
DASHDOT
 70
    64
  3
１点鎖線A
 72
    65
 73
     4
 40
0.5375
 49
0.375
 49
-0.05
 49
0.0625
 49
-0.05
  0
LTYPE
  2
DASHDOTX2
 70
    64
  3
１点鎖線B
 72
    65
 73
     4
 40
1.075
 49
0.75
 49
-0.1
 49
0.125
 49
-0.1
  0
LTYPE
  2
DIVIDE2
 70
    64
  3
２点鎖線A
 72
    65
 73
     6
 40
0.5125
 49
0.3
 49
-0.0375
 49
0.05
 49
-0.0375
 49
0.05
 49
-0.0375
  0
LTYPE
  2
DIVIDE
 70
    64
  3
２点鎖線B
 72
    65
 73
     6
 40
1.05
 49
0.55
 49
-0.1
 49
0.1
 49
-0.1
 49
0.1
 49
-0.1
  0
LTYPE
  2
DOT
 70
    64
  3
点線A
 72
    65
 73
     2
 40
0.1125
 49
0.0625
 49
-0.05
  0
LTYPE
  2
DOTX2
 70
    64
  3
点線B
 72
    65
 73
     2
 40
0.275
 49
0.15
 49
-0.125
  0
LTYPE
  2
CONTINUOUS
 70
    64
  3
実線
 72
    65
 73
     0
 40
0.0
  0
LTYPE
  2
CONTINUOUS
 70
    64
  3
実線
 72
    65
 73
     0
 40
0.0
  0
LTYPE
  2
CONTINUOUS
 70
    64
  3
実線
 72
    65
 73
     0
 40
0.0
  0
LTYPE
  2
CONTINUOUS
 70
    64
  3
実線
 72
    65
 73
     0
 40
0.0
  0
LTYPE
  2
CONTINUOUS
 70
    64
  3
実線
 72
    65
 73
     0
 40
0.0
  0
LTYPE
  2
CONTINUOUS
 70
    64
  3
実線
 72
    65
 73
     0
 40
0.0
  0
ENDTAB
  0
TABLE
  2
LAYER
 70
    34
  0
LAYER
  2
通り芯
 70
     0
 62
    15
  6
CONTINUOUS
  0
LAYER
  2
補助線
 70
     0
 62
    16
  6
DOT
  0
LAYER
  2
躯体
 70
     0
 62
    31
  6
CONTINUOUS
  0
LAYER
  2
型材
 70
     0
 62
    32
  6
CONTINUOUS
  0
LAYER
  2
型材断面
 70
     0
 62
    47
  6
CONTINUOUS
  0
LAYER
  2
ガラス
 70
     0
 62
    48
  6
CONTINUOUS
  0
LAYER
  2
ゴム等
 70
     0
 62
    63
  6
CONTINUOUS
  0
LAYER
  2
ボルト／ビス
 70
     0
 62
    64
  6
CONTINUOUS
  0
LAYER
  2
文字
 70
     0
 62
    79
  6
CONTINUOUS
  0
LAYER
  2
寸法
 70
     0
 62
    80
  6
CONTINUOUS
  0
LAYER
  2
ﾊｯﾁﾝｸﾞ
 70
     0
 62
    95
  6
CONTINUOUS
  0
LAYER
  2
別途部材
 70
     0
 62
    96
  6
CONTINUOUS
  0
LAYER
  2
曲げ物
 70
     0
 62
   111
  6
CONTINUOUS
  0
LAYER
  2
鉄骨等
 70
     0
 62
   112
  6
CONTINUOUS
  0
LAYER
  2
St
 70
     0
 62
   127
  6
CONTINUOUS
  0
LAYER
  2
その他部品等
 70
     0
 62
   128
  6
CONTINUOUS
  0
LAYER
  2
ｶﾞｽｹｯﾄ
 70
     0
 62
   143
  6
CONTINUOUS
  0
LAYER
  2
ｽｹｯﾁ
 70
     0
 62
    14
  6
CONTINUOUS
  0
LAYER
  2
0
 70
     0
 62
    17
  6
CONTINUOUS
  0
LAYER
  2
1
 70
     0
 62
    30
  6
CONTINUOUS
  0
LAYER
  2
4
 70
     0
 62
    33
  6
CONTINUOUS
  0
LAYER
  2
ﾚｲﾔ3
 70
     0
 62
    46
  6
CONTINUOUS
  0
LAYER
  2
外形線
 70
     0
 62
    49
  6
CONTINUOUS
  0
LAYER
  2
部品
 70
     0
 62
    14
  6
CONTINUOUS
  0
LAYER
  2
サッシ芯
 70
     0
 62
    17
  6
DASHDOTX2
  0
LAYER
  2
寸法線
 70
     0
 62
    62
  6
CONTINUOUS
  0
LAYER
  2
姿図外形線
 70
     0
 62
    65
  6
CONTINUOUS
  0
LAYER
  2
姿補助線
 70
     0
 62
    30
  6
CONTINUOUS
  0
LAYER
  2
透視線
 70
     0
 62
    78
  6
DOT
  0
LAYER
  2
用紙
 70
     0
 62
    81
  6
CONTINUOUS
  0
LAYER
  2
実線図枠
 70
     0
 62
    94
  6
CONTINUOUS
  0
LAYER
  2
補助図枠
 70
     0
 62
    97
  6
CONTINUOUS
  0
LAYER
  2
建具記号
 70
     0
 62
   110
  6
CONTINUOUS
  0
LAYER
  2
補助文字
 70
     0
 62
   113
  6
CONTINUOUS
  0
ENDTAB
  0
TABLE
  2
STYLE
 70
    10
  0
STYLE
  2
STANDARD
 70
     0
 40
1.0
 41
1.0
 42
1.0
 50
0.0
 71
     0
  3
TXT
  4
BIGFONT
  0
STYLE
  2
TATE
 70
     4
 40
1.0
 41
1.0
 42
1.0
 50
0.0
 71
     0
  3
TXT
  4
BIGFONT
  0
STYLE
  2
TextStyle03
 70
     0
 40
1.0
 41
1.0
 42
1.0
 50
0.0
 71
     0
  3
MONOTXT
  4
BIGFONT
  0
STYLE
  2
TextStyle04
 70
     0
 40
1.0
 41
1.0
 42
1.0
 50
0.0
 71
     0
  3
MONOTXT
  4
BIGFONT
  0
STYLE
  2
TextStyle05
 70
     0
 40
1.0
 41
1.0
 42
1.0
 50
0.0
 71
     0
  3
MONOTXT
  4
BIGFONT
  0
STYLE
  2
TextStyle06
 70
     0
 40
1.0
 41
1.0
 42
1.0
 50
0.0
 71
     0
  3
MONOTXT
  4
BIGFONT
  0
STYLE
  2
TextStyle07
 70
     0
 40
1.0
 41
1.0
 42
1.0
 50
0.0
 71
     0
  3
MONOTXT
  4
BIGFONT
  0
STYLE
  2
TextStyle08
 70
     0
 40
1.0
 41
1.0
 42
1.0
 50
0.0
 71
     0
  3
MONOTXT
  4
BIGFONT
  0
STYLE
  2
TextStyle09
 70
     0
 40
1.0
 41
1.0
 42
1.0
 50
0.0
 71
     0
  3
MONOTXT
  4
BIGFONT
  0
STYLE
  2
TextStyle10
 70
     0
 40
1.0
 41
1.0
 42
1.0
 50
0.0
 71
     0
  3
MONOTXT
  4
BIGFONT
  0
ENDTAB
  0
ENDSEC
  0
SECTION
  2
BLOCKS
  0
BLOCK
  2
*GRP_0001
 70
    65
 10
0.0
 20
0.0
  0
LINE
  8
型材断面
  6
CONTINUOUS
 10
195.0
 20
133.5
 11
195.0
 21
-133.5
  0
LINE
  8
型材断面
  6
CONTINUOUS
 10
195.0
 20
-133.5
 11
-185.0
 21
-133.5
  0
LINE
  8
型材断面
  6
CONTINUOUS
 10
-185.0
 20
-133.5
 11
-185.0
 21
133.5
  0
LINE
  8
型材断面
  6
CONTINUOUS
 10
195.0
 20
133.5
 11
-185.0
 21
133.5
  0
LINE
  8
型材断面
  6
CONTINUOUS
 10
145.0
 20
-133.5
 11
145.0
 21
-118.5
  0
LINE
  8
型材断面
  6
CONTINUOUS
 10
195.0
 20
-118.5
 11
145.0
 21
-118.5
  0
ENDBLK
  0
BLOCK
  2
*DIM_0002
 70
    65
 10
0.0
 20
0.0
  0
LINE
  8
寸法
  6
BYBLOCK
 62
     0
 10
-73.91896
 20
-60.741528
 11
-3.2481
 21
-60.741528
  0
LINE
  8
寸法
  6
BYBLOCK
 62
     0
 10
-3.2481
 20
-115.122493
 11
-3.2481
 21
-60.741528
  0
POINT
  8
寸法
 62
     0
 10
-3.2481
 20
-115.122493
  0
POINT
  8
寸法
 62
     0
 10
-3.2481
 20
-60.741528
  0
TEXT
  7
TextStyle03
  8
寸法
  6
CONTINUOUS
 62
     0
 10
-3.65
 20
-92.89375
  1
1087.6
 40
3.0
 50
90.0
 72
     5
 11
-3.65
 21
-82.95625
  0
ENDBLK
  0
BLOCK
  2
*DIM_0003
 70
    65
 10
0.0
 20
0.0
  0
LINE
  8
寸法
  6
BYBLOCK
 62
     0
 10
-124.91896
 20
-45.629485
 11
-124.91896
 21
-45.793665
  0
LINE
  8
寸法
  6
BYBLOCK
 62
     0
 10
-24.91896
 20
-45.629485
 11
-24.91896
 21
-45.793665
  0
LINE
  8
寸法
  6
BYBLOCK
 62
     0
 10
-124.91896
 20
-45.793665
 11
-24.91896
 21
-45.793665
  0
POINT
  8
寸法
 62
     0
 10
-124.91896
 20
-45.793665
  0
POINT
  8
寸法
 62
     0
 10
-24.91896
 20
-45.793665
  0
TEXT
  7
TextStyle03
  8
寸法
  6
CONTINUOUS
 62
     0
 10
-86.66875
 20
-45.425
  1
呼称寸法　2000
 40
3.0
 72
     5
 11
-63.23125
 21
-45.425
  0
ENDBLK
  0
BLOCK
  2
*DIM_0004
 70
    65
 10
0.0
 20
0.0
  0
LINE
  8
寸法
  6
BYBLOCK
 62
     0
 10
-20.64396
 20
-114.122493
 11
-20.64396
 21
-45.793665
  0
LINE
  8
寸法
  6
BYBLOCK
 62
     0
 10
-24.91896
 20
-45.793665
 11
-20.64396
 21
-45.793665
  0
POINT
  8
寸法
 62
     0
 10
-20.64396
 20
-45.793665
  0
TEXT
  7
TextStyle03
  8
寸法
  6
CONTINUOUS
 62
     0
 10
-19.35625
 20
-45.425
  1
85.5
 40
3.0
 72
     5
 11
-12.79375
 21
-45.425
  0
ENDBLK
  0
BLOCK
  2
*DIM_0005
 70
    65
 10
0.0
 20
0.0
  0
LINE
  8
寸法
  6
BYBLOCK
 62
     0
 10
-129.19396
 20
-114.122493
 11
-129.19396
 21
-45.793665
  0
LINE
  8
寸法
  6
BYBLOCK
 62
     0
 10
-124.91896
 20
-45.793665
 11
-129.19396
 21
-45.793665
  0
POINT
  8
寸法
 62
     0
 10
-124.91896
 20
-45.793665
  0
POINT
  8
寸法
 62
     0
 10
-129.19396
 20
-45.793665
  0
TEXT
  7
TextStyle03
  8
寸法
  6
CONTINUOUS
 62
     0
 10
-137.13125
 20
-45.425
  1
85.5
 40
3.0
 72
     5
 11
-130.56875
 21
-45.425
  0
ENDBLK
  0
BLOCK
  2
*DIM_0006
 70
    65
 10
0.0
 20
0.0
  0
LINE
  8
寸法
  6
BYBLOCK
 62
     0
 10
-19.64396
 20
-115.122493
 11
-3.2481
 21
-115.122493
  0
LINE
  8
寸法
  6
BYBLOCK
 62
     0
 10
-19.64396
 20
-117.168688
 11
-3.2481
 21
-117.168688
  0
LINE
  8
寸法
  6
BYBLOCK
 62
     0
 10
-3.2481
 20
-115.122493
 11
-3.2481
 21
-117.168688
  0
POINT
  8
寸法
 62
     0
 10
-3.2481
 20
-115.122493
  0
POINT
  8
寸法
 62
     0
 10
-3.2481
 20
-117.168688
  0
TEXT
  7
TextStyle03
  8
寸法
  6
CONTINUOUS
 62
     0
 10
-0.275
 20
-119.43125
  1
40.9
 40
3.0
 50
90.0
 72
     5
 11
-0.275
 21
-112.86875
  0
ENDBLK
  0
BLOCK
  2
*DIM_0007
 70
    65
 10
0.0
 20
0.0
  0
LINE
  8
寸法
  6
BYBLOCK
 62
     0
 10
-82.41896
 20
-67.241532
 11
-82.41896
 21
-52.81067
  0
LINE
  8
寸法
  6
BYBLOCK
 62
     0
 10
-67.41896
 20
-67.241532
 11
-67.41896
 21
-52.81067
  0
LINE
  8
寸法
  6
BYBLOCK
 62
     0
 10
-82.41896
 20
-52.81067
 11
-67.41896
 21
-52.81067
  0
POINT
  8
寸法
 62
     0
 10
-82.41896
 20
-52.81067
  0
POINT
  8
寸法
 62
     0
 10
-67.41896
 20
-52.81067
  0
TEXT
  7
TextStyle03
  8
寸法
  6
CONTINUOUS
 62
     0
 10
-78.2
 20
-52.475
  1
300
 40
4.0
 72
     5
 11
-71.7
 21
-52.475
  0
ENDBLK
  0
BLOCK
  2
*DIM_0008
 70
    65
 10
0.0
 20
0.0
  0
LINE
  8
寸法
  6
BYBLOCK
 62
     0
 10
-66.41896
 20
-68.241532
 11
-49.219985
 21
-68.241532
  0
LINE
  8
寸法
  6
BYBLOCK
 62
     0
 10
-49.219985
 20
-60.741528
 11
-49.219985
 21
-68.241532
  0
POINT
  8
寸法
 62
     0
 10
-49.219985
 20
-60.741528
  0
POINT
  8
寸法
 62
     0
 10
-49.219985
 20
-68.241532
  0
TEXT
  7
TextStyle03
  8
寸法
  6
CONTINUOUS
 62
     0
 10
-49.625
 20
-67.775
  1
150
 40
4.0
 50
90.0
 72
     5
 11
-49.625
 21
-61.275
  0
ENDBLK
  0
BLOCK
  2
*DIM_0009
 70
    65
 10
0.0
 20
0.0
  0
LINE
  8
寸法
  6
BYBLOCK
 62
     0
 10
-109.91896
 20
108.180753
 11
-109.91896
 21
119.111507
  0
LINE
  8
寸法
  6
BYBLOCK
 62
     0
 10
-74.91896
 20
108.180753
 11
-74.91896
 21
119.111507
  0
LINE
  8
寸法
  6
BYBLOCK
 62
     0
 10
-109.91896
 20
119.111507
 11
-74.91896
 21
119.111507
  0
POINT
  8
寸法
 62
     0
 10
-109.91896
 20
119.111507
  0
POINT
  8
寸法
 62
     0
 10
-74.91896
 20
119.111507
  0
TEXT
  7
TextStyle03
  8
寸法
  6
CONTINUOUS
 62
     0
 10
-94.8875
 20
119.5
  1
700
 40
3.0
 72
     5
 11
-90.0125
 21
119.5
  0
ENDBLK
  0
BLOCK
  2
*DIM_0010
 70
    65
 10
0.0
 20
0.0
  0
LINE
  8
寸法
  6
BYBLOCK
 62
     0
 10
-39.91896
 20
108.180753
 11
-39.91896
 21
119.111507
  0
LINE
  8
寸法
  6
BYBLOCK
 62
     0
 10
-74.91896
 20
119.111507
 11
-39.91896
 21
119.111507
  0
POINT
  8
寸法
 62
     0
 10
-39.91896
 20
119.111507
  0
TEXT
  7
TextStyle03
  8
寸法
  6
CONTINUOUS
 62
     0
 10
-59.8875
 20
119.5
  1
700
 40
3.0
 72
     5
 11
-55.0125
 21
119.5
  0
ENDBLK
  0
BLOCK
  2
*DIM_0011
 70
    65
 10
0.0
 20
0.0
  0
LINE
  8
寸法
  6
BYBLOCK
 62
     0
 10
-150.17396
 20
67.925753
 11
-161.104715
 21
67.925755
  0
LINE
  8
寸法
  6
BYBLOCK
 62
     0
 10
-150.173963
 20
32.925753
 11
-161.104717
 21
32.925755
  0
LINE
  8
寸法
  6
BYBLOCK
 62
     0
 10
-161.104715
 20
67.925755
 11
-161.104717
 21
32.925755
  0
POINT
  8
寸法
 62
     0
 10
-161.104715
 20
67.925755
  0
POINT
  8
寸法
 62
     0
 10
-161.104717
 20
32.925755
  0
TEXT
  7
TextStyle03
  8
寸法
  6
CONTINUOUS
 62
     0
 10
-161.5
 20
47.9875
  1
700
 40
3.0
 50
90.0
 72
     5
 11
-161.5
 21
52.8625
  0
ENDBLK
  0
BLOCK
  2
*DIM_0012
 70
    65
 10
0.0
 20
0.0
  0
LINE
  8
寸法
  6
BYBLOCK
 62
     0
 10
-150.173963
 20
32.925753
 11
-161.104717
 21
32.925757
  0
LINE
  8
寸法
  6
BYBLOCK
 62
     0
 10
-150.173965
 20
-2.074248
 11
-161.10472
 21
-2.074243
  0
LINE
  8
寸法
  6
BYBLOCK
 62
     0
 10
-161.104717
 20
32.925757
 11
-161.10472
 21
-2.074243
  0
POINT
  8
寸法
 62
     0
 10
-161.10472
 20
-2.074243
  0
TEXT
  7
TextStyle03
  8
寸法
  6
CONTINUOUS
 62
     0
 10
-161.5
 20
12.9875
  1
700
 40
3.0
 50
90.0
 72
     5
 11
-161.5
 21
17.8625
  0
ENDBLK
  0
BLOCK
  2
*DIM_0013
 70
    65
 10
0.0
 20
0.0
  0
LINE
  8
寸法
  6
BYBLOCK
 62
     0
 10
100.358093
 20
-85.344413
 11
100.358093
 21
-98.503205
  0
LINE
  8
寸法
  6
BYBLOCK
 62
     0
 10
150.343093
 20
-85.344413
 11
150.343093
 21
-98.503205
  0
LINE
  8
寸法
  6
BYBLOCK
 62
     0
 10
100.358093
 20
-98.503205
 11
150.343093
 21
-98.503205
  0
POINT
  8
寸法
 62
     0
 10
100.358093
 20
-98.503205
  0
POINT
  8
寸法
 62
     0
 10
150.343093
 20
-98.503205
  0
TEXT
  7
TextStyle03
  8
寸法
  6
CONTINUOUS
 62
     0
 10
121.225
 20
-98.15
  1
999.7
 40
3.0
 72
     5
 11
129.475
 21
-98.15
  0
ENDBLK
  0
BLOCK
  2
*DIM_0014
 70
    65
 10
0.0
 20
0.0
  0
LINE
  8
寸法
  6
BYBLOCK
 62
     0
 10
153.343093
 20
-82.344413
 11
162.337392
 21
-82.344413
  0
LINE
  8
寸法
  6
BYBLOCK
 62
     0
 10
153.343093
 20
-11.655253
 11
162.337392
 21
-11.655253
  0
LINE
  8
寸法
  6
BYBLOCK
 62
     0
 10
162.337392
 20
-82.344413
 11
162.337392
 21
-11.655253
  0
POINT
  8
寸法
 62
     0
 10
162.337392
 20
-82.344413
  0
POINT
  8
寸法
 62
     0
 10
162.337392
 20
-11.655253
  0
TEXT
  7
TextStyle03
  8
寸法
  6
CONTINUOUS
 62
     0
 10
161.95
 20
-51.96875
  1
1413.8
 40
3.0
 50
90.0
 72
     5
 11
161.95
 21
-42.03125
  0
ENDBLK
  0
ENDSEC
  0
SECTION
  2
ENTITIES
  0
POLYLINE
  8
通り芯
  6
CONTINUOUS
 66
     1
 70
     1
  0
VERTEX
  8
通り芯
 10
-210.0
 20
-148.5
  0
VERTEX
  8
通り芯
 10
210.0
 20
-148.5
  0
VERTEX
  8
通り芯
 10
210.0
 20
148.5
  0
VERTEX
  8
通り芯
 10
-210.0
 20
148.5
  0
SEQEND
  0
INSERT
  2
*GRP_0001
  8
型材断面
  6
CONTINUOUS
 10
0.0
 20
0.0
  0
LINE
  8
型材断面
  6
CONTINUOUS
 10
10.014493
 20
6.041205
 11
7.771047
 21
2.155445
  0
LINE
  8
型材断面
  6
CONTINUOUS
 10
10.014493
 20
6.041205
 11
12.257937
 21
2.155445
  0
LINE
  8
型材断面
  6
CONTINUOUS
 10
12.257937
 20
2.155445
 11
7.771047
 21
2.155445
  0
LINE
  8
型材断面
  6
CONTINUOUS
 10
0.980612
 20
0.747552
 11
53.637292
 21
0.747552
  0
LINE
  8
型材断面
  6
CONTINUOUS
 10
0.980612
 20
-6.593885
 11
53.637292
 21
-6.593885
  0
LINE
  8
型材断面
  6
CONTINUOUS
 10
-25.908847
 20
-19.351422
 11
-22.641788
 21
-19.351422
  0
LINE
  8
型材断面
  6
CONTINUOUS
 10
-22.641788
 20
-19.351422
 11
-22.641788
 21
-16.084363
  0
LINE
  8
型材断面
  6
CONTINUOUS
 10
-21.298285
 20
-20.694925
 11
-74.91896
 21
-20.694925
  0
LINE
  8
型材断面
  6
CONTINUOUS
 10
-20.94473
 20
-21.048477
 11
-74.91896
 21
-21.048477
  0
LINE
  8
型材断面
  6
CONTINUOUS
 10
-22.288235
 20
-19.704975
 11
-74.91896
 21
-19.704975
  0
LINE
  8
型材断面
  6
CONTINUOUS
 10
-22.571077
 20
-19.422133
 11
-74.91896
 21
-19.422133
  0
LINE
  8
型材断面
  6
CONTINUOUS
 10
-20.64396
 20
-21.349248
 11
-74.91896
 21
-21.349248
  0
LINE
  8
型材断面
  6
DASHDOT
 10
-24.91896
 20
-17.074248
 11
-124.91896
 21
-17.074248
  0
LINE
  8
型材断面
  6
DASHDOT
 10
-24.91896
 20
32.925753
 11
-124.91896
 21
32.925753
  0
LINE
  8
型材断面
  6
DASHDOT
 10
-24.91896
 20
82.925753
 11
-124.91896
 21
82.925753
  0
LINE
  8
型材断面
  6
CONTINUOUS
 10
-22.288235
 20
-19.704975
 11
-22.288235
 21
32.925753
  0
LINE
  8
型材断面
  6
CONTINUOUS
 10
-22.571077
 20
-19.422133
 11
-22.571077
 21
32.925753
  0
LINE
  8
型材断面
  6
CONTINUOUS
 10
-20.64396
 20
-21.349248
 11
-20.64396
 21
32.925753
  0
LINE
  8
型材断面
  6
CONTINUOUS
 10
-20.94473
 20
-21.048477
 11
-20.94473
 21
32.925753
  0
LINE
  8
型材断面
  6
CONTINUOUS
 10
-21.298285
 20
-20.694925
 11
-21.298285
 21
32.925753
  0
LINE
  8
型材断面
  6
DASHDOT
 10
-20.64396
 20
-21.349248
 11
-70.66896
 21
28.675753
  0
LINE
  8
型材断面
  6
CONTINUOUS
 10
-25.908847
 20
85.202928
 11
-22.641788
 21
85.202928
  0
LINE
  8
型材断面
  6
CONTINUOUS
 10
-22.641788
 20
85.202928
 11
-22.641788
 21
81.935867
  0
LINE
  8
型材断面
  6
CONTINUOUS
 10
-21.298285
 20
86.54643
 11
-74.91896
 21
86.54643
  0
LINE
  8
型材断面
  6
CONTINUOUS
 10
-20.94473
 20
86.899983
 11
-74.91896
 21
86.899983
  0
LINE
  8
型材断面
  6
CONTINUOUS
 10
-22.288235
 20
85.55648
 11
-74.91896
 21
85.55648
  0
LINE
  8
型材断面
  6
CONTINUOUS
 10
-22.571077
 20
85.273638
 11
-74.91896
 21
85.273638
  0
LINE
  8
型材断面
  6
CONTINUOUS
 10
-20.64396
 20
87.200753
 11
-74.91896
 21
87.200753
  0
LINE
  8
型材断面
  6
CONTINUOUS
 10
-22.288235
 20
85.55648
 11
-22.288235
 21
32.925753
  0
LINE
  8
型材断面
  6
CONTINUOUS
 10
-22.571077
 20
85.273638
 11
-22.571077
 21
32.925753
  0
LINE
  8
型材断面
  6
CONTINUOUS
 10
-20.64396
 20
87.200753
 11
-20.64396
 21
32.925753
  0
LINE
  8
型材断面
  6
CONTINUOUS
 10
-20.94473
 20
86.899983
 11
-20.94473
 21
32.925753
  0
LINE
  8
型材断面
  6
CONTINUOUS
 10
-21.298285
 20
86.54643
 11
-21.298285
 21
32.925753
  0
LINE
  8
型材断面
  6
DASHDOT
 10
-20.64396
 20
87.200753
 11
-70.66896
 21
37.175753
  0
LINE
  8
型材断面
  6
CONTINUOUS
 10
-123.929072
 20
85.202928
 11
-127.196133
 21
85.202928
  0
LINE
  8
型材断面
  6
CONTINUOUS
 10
-127.196133
 20
85.202928
 11
-127.196133
 21
81.935867
  0
LINE
  8
型材断面
  6
CONTINUOUS
 10
-128.539635
 20
86.54643
 11
-74.91896
 21
86.54643
  0
LINE
  8
型材断面
  6
CONTINUOUS
 10
-128.89319
 20
86.899983
 11
-74.91896
 21
86.899983
  0
LINE
  8
型材断面
  6
CONTINUOUS
 10
-127.549685
 20
85.55648
 11
-74.91896
 21
85.55648
  0
LINE
  8
型材断面
  6
CONTINUOUS
 10
-127.266842
 20
85.273638
 11
-74.91896
 21
85.273638
  0
LINE
  8
型材断面
  6
CONTINUOUS
 10
-129.19396
 20
87.200753
 11
-74.91896
 21
87.200753
  0
LINE
  8
型材断面
  6
CONTINUOUS
 10
-127.549685
 20
85.55648
 11
-127.549685
 21
32.925753
  0
LINE
  8
型材断面
  6
CONTINUOUS
 10
-127.266842
 20
85.273638
 11
-127.266842
 21
32.925753
  0
LINE
  8
型材断面
  6
CONTINUOUS
 10
-129.19396
 20
87.200753
 11
-129.19396
 21
32.925753
  0
LINE
  8
型材断面
  6
CONTINUOUS
 10
-128.89319
 20
86.899983
 11
-128.89319
 21
32.925753
  0
LINE
  8
型材断面
  6
CONTINUOUS
 10
-128.539635
 20
86.54643
 11
-128.539635
 21
32.925753
  0
LINE
  8
型材断面
  6
CONTINUOUS
 10
-127.196133
 20
84.849373
 11
-79.16896
 21
36.822187
  0
LINE
  8
型材断面
  6
CONTINUOUS
 10
-123.929072
 20
-19.351422
 11
-127.196133
 21
-19.351422
  0
LINE
  8
型材断面
  6
CONTINUOUS
 10
-127.196133
 20
-19.351422
 11
-127.196133
 21
-16.084363
  0
LINE
  8
型材断面
  6
CONTINUOUS
 10
-128.539635
 20
-20.694925
 11
-74.91896
 21
-20.694925
  0
LINE
  8
型材断面
  6
CONTINUOUS
 10
-128.89319
 20
-21.048477
 11
-74.91896
 21
-21.048477
  0
LINE
  8
型材断面
  6
CONTINUOUS
 10
-127.549685
 20
-19.704975
 11
-74.91896
 21
-19.704975
  0
LINE
  8
型材断面
  6
CONTINUOUS
 10
-127.266842
 20
-19.422133
 11
-74.91896
 21
-19.422133
  0
LINE
  8
型材断面
  6
CONTINUOUS
 10
-129.19396
 20
-21.349248
 11
-74.91896
 21
-21.349248
  0
LINE
  8
型材断面
  6
CONTINUOUS
 10
-127.549685
 20
-19.704975
 11
-127.549685
 21
32.925753
  0
LINE
  8
型材断面
  6
CONTINUOUS
 10
-127.266842
 20
-19.422133
 11
-127.266842
 21
32.925753
  0
LINE
  8
型材断面
  6
CONTINUOUS
 10
-129.19396
 20
-21.349248
 11
-129.19396
 21
32.925753
  0
LINE
  8
型材断面
  6
CONTINUOUS
 10
-128.89319
 20
-21.048477
 11
-128.89319
 21
32.925753
  0
LINE
  8
型材断面
  6
CONTINUOUS
 10
-128.539635
 20
-20.694925
 11
-128.539635
 21
32.925753
  0
LINE
  8
型材断面
  6
DASHDOT
 10
-129.19396
 20
-21.349248
 11
-79.16896
 21
28.675753
  0
LINE
  8
型材断面
  6
CONTINUOUS
 10
-20.94473
 20
-114.82172
 11
-20.64396
 21
-115.122493
  0
LINE
  8
型材断面
  6
CONTINUOUS
 10
-20.64396
 20
-116.468688
 11
-20.64396
 21
-115.122493
  0
LINE
  8
型材断面
  6
CONTINUOUS
 62
    47
 10
-20.64396
 20
-117.168688
 11
-20.64396
 21
-116.468688
  0
LINE
  8
型材断面
  6
CONTINUOUS
 62
    47
 10
-21.31896
 20
-117.168688
 11
-21.31896
 21
-117.668688
  0
LINE
  8
型材断面
  6
CONTINUOUS
 62
    47
 10
-22.288235
 20
-113.478218
 11
-20.94473
 21
-114.82172
  0
LINE
  8
型材断面
  6
CONTINUOUS
 10
-22.641788
 20
-113.124665
 11
-26.191693
 21
-113.124665
  0
LINE
  8
型材断面
  6
CONTINUOUS
 10
-22.288235
 20
-113.478218
 11
-74.91896
 21
-60.847493
  0
LINE
  8
型材断面
  6
CONTINUOUS
 10
-20.64396
 20
-116.468688
 11
-74.91896
 21
-116.468688
  0
LINE
  8
型材断面
  6
CONTINUOUS
 10
-21.31896
 20
-117.668688
 11
-74.91896
 21
-117.668688
  0
LINE
  8
型材断面
  6
CONTINUOUS
 10
-20.64396
 20
-117.168688
 11
-74.91896
 21
-117.168688
  0
LINE
  8
型材断面
  6
CONTINUOUS
 10
-20.94473
 20
-114.82172
 11
-74.91896
 21
-114.82172
  0
LINE
  8
型材断面
  6
CONTINUOUS
 10
-21.298285
 20
-114.468167
 11
-74.91896
 21
-114.468167
  0
LINE
  8
型材断面
  6
CONTINUOUS
 10
-22.288235
 20
-113.478218
 11
-74.91896
 21
-113.478218
  0
LINE
  8
型材断面
  6
CONTINUOUS
 10
-20.64396
 20
-115.122493
 11
-74.91896
 21
-115.122493
  0
LINE
  8
型材断面
  6
CONTINUOUS
 10
-128.89319
 20
-114.82172
 11
-129.19396
 21
-115.122493
  0
LINE
  8
型材断面
  6
CONTINUOUS
 10
-129.19396
 20
-116.468688
 11
-129.19396
 21
-115.122493
  0
LINE
  8
型材断面
  6
CONTINUOUS
 62
    47
 10
-129.19396
 20
-117.168688
 11
-129.19396
 21
-116.468688
  0
LINE
  8
型材断面
  6
CONTINUOUS
 62
    47
 10
-128.51896
 20
-117.168688
 11
-128.51896
 21
-117.668688
  0
LINE
  8
型材断面
  6
CONTINUOUS
 62
    47
 10
-127.549685
 20
-113.478218
 11
-128.89319
 21
-114.82172
  0
LINE
  8
型材断面
  6
CONTINUOUS
 10
-127.196133
 20
-113.124665
 11
-123.646227
 21
-113.124665
  0
LINE
  8
型材断面
  6
CONTINUOUS
 10
-127.549685
 20
-113.478218
 11
-74.91896
 21
-60.847493
  0
LINE
  8
型材断面
  6
CONTINUOUS
 10
-129.19396
 20
-116.468688
 11
-74.91896
 21
-116.468688
  0
LINE
  8
型材断面
  6
CONTINUOUS
 10
-128.51896
 20
-117.668688
 11
-74.91896
 21
-117.668688
  0
LINE
  8
型材断面
  6
CONTINUOUS
 10
-129.19396
 20
-117.168688
 11
-74.91896
 21
-117.168688
  0
LINE
  8
型材断面
  6
CONTINUOUS
 10
-128.89319
 20
-114.82172
 11
-74.91896
 21
-114.82172
  0
LINE
  8
型材断面
  6
CONTINUOUS
 10
-128.539635
 20
-114.468167
 11
-74.91896
 21
-114.468167
  0
LINE
  8
型材断面
  6
CONTINUOUS
 10
-127.549685
 20
-113.478218
 11
-74.91896
 21
-113.478218
  0
LINE
  8
型材断面
  6
CONTINUOUS
 10
-129.19396
 20
-115.122493
 11
-74.91896
 21
-115.122493
  0
LINE
  8
型材断面
  6
DASHDOT
 10
-124.91896
 20
82.925753
 11
-124.91896
 21
-124.643688
  0
LINE
  8
型材断面
  6
DASHDOT
 10
-24.91896
 20
82.925753
 11
-24.91896
 21
-124.643688
  0
LINE
  8
型材断面
  6
DASHDOT
 10
-74.91896
 20
82.925753
 11
-74.91896
 21
-124.643688
  0
LINE
  8
型材断面
  6
CONTINUOUS
 10
-74.91896
 20
-25.098123
 11
-77.162405
 21
-28.983882
  0
LINE
  8
型材断面
  6
CONTINUOUS
 10
-74.91896
 20
-25.098123
 11
-72.675515
 21
-28.983882
  0
LINE
  8
型材断面
  6
CONTINUOUS
 10
-72.675515
 20
-28.983882
 11
-77.162405
 21
-28.983882
  0
LINE
  8
型材断面
  6
CONTINUOUS
 10
-132.942838
 20
32.925753
 11
-136.828597
 21
30.682308
  0
LINE
  8
型材断面
  6
CONTINUOUS
 10
-132.942838
 20
32.925753
 11
-136.828597
 21
35.169197
  0
LINE
  8
型材断面
  6
CONTINUOUS
 10
-136.828597
 20
35.169197
 11
-136.828597
 21
30.682308
  0
LINE
  8
型材断面
  6
CONTINUOUS
 10
-74.91896
 20
90.949627
 11
-77.162405
 21
94.835388
  0
LINE
  8
型材断面
  6
CONTINUOUS
 10
-74.91896
 20
90.949627
 11
-72.675515
 21
94.835388
  0
LINE
  8
型材断面
  6
CONTINUOUS
 10
-72.675515
 20
94.835388
 11
-77.162405
 21
94.835388
  0
LINE
  8
型材断面
  6
CONTINUOUS
 10
-16.895082
 20
32.925753
 11
-13.009322
 21
30.682308
  0
LINE
  8
型材断面
  6
CONTINUOUS
 10
-16.895082
 20
32.925753
 11
-13.009322
 21
35.169197
  0
LINE
  8
型材断面
  6
CONTINUOUS
 10
-13.009322
 20
35.169197
 11
-13.009322
 21
30.682308
  0
LINE
  8
型材断面
  6
CONTINUOUS
 10
-73.69396
 20
-19.351422
 11
-76.14396
 21
-19.351422
  0
LINE
  8
型材断面
  6
CONTINUOUS
 10
-22.641785
 20
31.700753
 11
-22.641785
 21
34.150753
  0
LINE
  8
型材断面
  6
CONTINUOUS
 10
-76.14396
 20
85.202928
 11
-73.69396
 21
85.202928
  0
LINE
  8
型材断面
  6
CONTINUOUS
 10
-127.196135
 20
34.150753
 11
-127.196135
 21
31.700753
  0
LINE
  8
型材断面
  6
CONTINUOUS
 10
-76.14396
 20
-113.124665
 11
-73.69396
 21
-113.124665
  0
LINE
  8
型材断面
  6
CONTINUOUS
 10
-82.41896
 20
40.425753
 11
-82.41896
 21
25.425753
  0
LINE
  8
型材断面
  6
CONTINUOUS
 10
-82.41896
 20
25.425753
 11
-67.41896
 21
25.425753
  0
LINE
  8
型材断面
  6
CONTINUOUS
 10
-67.41896
 20
25.425753
 11
-67.41896
 21
40.425753
  0
LINE
  8
型材断面
  6
CONTINUOUS
 10
-82.41896
 20
40.425753
 11
-67.41896
 21
40.425753
  0
LINE
  8
型材断面
  6
CONTINUOUS
 10
-67.41896
 20
40.425753
 11
-82.41896
 21
25.425753
  0
LINE
  8
型材断面
  6
CONTINUOUS
 10
-82.41896
 20
40.425753
 11
-67.41896
 21
25.425753
  0
LINE
  8
型材断面
  6
CONTINUOUS
 10
-74.91896
 20
-60.741528
 11
-82.41896
 21
-68.241532
  0
LINE
  8
型材断面
  6
CONTINUOUS
 10
-82.41896
 20
-68.241532
 11
-82.365978
 21
-68.294515
  0
LINE
  8
型材断面
  6
CONTINUOUS
 10
-82.418962
 20
-68.241532
 11
-78.168962
 21
-68.241532
  0
LINE
  8
型材断面
  6
CONTINUOUS
 10
-82.365978
 20
-68.294515
 11
-78.168962
 21
-68.294515
  0
LINE
  8
型材断面
  6
CONTINUOUS
 10
-82.365978
 20
-68.294515
 11
-82.418962
 21
-68.241532
  0
LINE
  8
型材断面
  6
CONTINUOUS
 10
-82.41896
 20
-68.241532
 11
-74.91896
 21
-68.241532
  0
LINE
  8
型材断面
  6
CONTINUOUS
 10
-82.365978
 20
-68.294515
 11
-74.91896
 21
-68.294515
  0
LINE
  8
型材断面
  6
CONTINUOUS
 10
-67.41896
 20
-68.241532
 11
-67.471943
 21
-68.294515
  0
LINE
  8
型材断面
  6
CONTINUOUS
 10
-67.418958
 20
-68.241532
 11
-71.668958
 21
-68.241532
  0
LINE
  8
型材断面
  6
CONTINUOUS
 10
-67.471943
 20
-68.294515
 11
-71.668958
 21
-68.294515
  0
LINE
  8
型材断面
  6
CONTINUOUS
 10
-67.471943
 20
-68.294515
 11
-67.418958
 21
-68.241532
  0
LINE
  8
型材断面
  6
CONTINUOUS
 10
-67.41896
 20
-68.241532
 11
-74.91896
 21
-68.241532
  0
LINE
  8
型材断面
  6
CONTINUOUS
 10
-67.471943
 20
-68.294515
 11
-74.91896
 21
-68.294515
  0
LINE
  8
型材断面
  6
CONTINUOUS
 10
-74.91896
 20
-60.741528
 11
-67.418955
 21
-68.241532
  0
LINE
  8
型材断面
  6
CONTINUOUS
 10
-126.842577
 20
-113.124665
 11
-82.012428
 21
-68.294515
  0
LINE
  8
型材断面
  6
CONTINUOUS
 10
-123.92907
 20
-113.124665
 11
-79.098932
 21
-68.294515
  0
LINE
  8
型材断面
  6
CONTINUOUS
 10
-123.646227
 20
-113.124665
 11
-78.81609
 21
-68.294515
  0
LINE
  8
型材断面
  6
CONTINUOUS
 10
-76.14396
 20
-113.124665
 11
-76.14396
 21
-68.294515
  0
LINE
  8
型材断面
  6
CONTINUOUS
 10
-75.16896
 20
-113.124665
 11
-75.16896
 21
-68.294515
  0
LINE
  8
型材断面
  6
CONTINUOUS
 10
-74.66896
 20
-113.124665
 11
-74.66896
 21
-68.294515
  0
LINE
  8
型材断面
  6
CONTINUOUS
 10
-73.69396
 20
-113.124665
 11
-73.69396
 21
-68.294515
  0
LINE
  8
型材断面
  6
CONTINUOUS
 10
-25.90885
 20
-113.124665
 11
-70.738987
 21
-68.294515
  0
LINE
  8
型材断面
  6
CONTINUOUS
 10
-26.191693
 20
-113.124665
 11
-71.02183
 21
-68.294515
  0
LINE
  8
型材断面
  6
CONTINUOUS
 10
-22.995342
 20
-113.124665
 11
-67.825493
 21
-68.294515
  0
LINE
  8
型材断面
  6
CONTINUOUS
 10
-123.929072
 20
-19.351422
 11
-79.15191
 21
25.425753
  0
LINE
  8
型材断面
  6
CONTINUOUS
 10
-126.84258
 20
-19.351422
 11
-82.065417
 21
25.425753
  0
LINE
  8
型材断面
  6
CONTINUOUS
 10
-76.14396
 20
-19.351422
 11
-76.14396
 21
25.425753
  0
LINE
  8
型材断面
  6
CONTINUOUS
 10
-75.16896
 20
-19.351422
 11
-75.16896
 21
25.425753
  0
LINE
  8
型材断面
  6
CONTINUOUS
 10
-74.66896
 20
-19.351422
 11
-74.66896
 21
25.425753
  0
LINE
  8
型材断面
  6
CONTINUOUS
 10
-73.69396
 20
-19.351422
 11
-73.69396
 21
25.425753
  0
LINE
  8
型材断面
  6
CONTINUOUS
 10
-25.908847
 20
-19.351422
 11
-70.68601
 21
25.425753
  0
LINE
  8
型材断面
  6
CONTINUOUS
 10
-22.99534
 20
-19.351422
 11
-67.772502
 21
25.425753
  0
LINE
  8
型材断面
  6
CONTINUOUS
 10
-22.641788
 20
-18.997868
 11
-67.41896
 21
25.779318
  0
LINE
  8
型材断面
  6
CONTINUOUS
 10
-22.641788
 20
-16.084363
 11
-67.41896
 21
28.69282
  0
LINE
  8
型材断面
  6
CONTINUOUS
 10
-22.641785
 20
31.700753
 11
-67.41896
 21
31.700753
  0
LINE
  8
型材断面
  6
CONTINUOUS
 10
-22.641785
 20
34.150753
 11
-67.41896
 21
34.150753
  0
LINE
  8
型材断面
  6
CONTINUOUS
 10
-22.641785
 20
33.175753
 11
-67.41896
 21
33.175753
  0
LINE
  8
型材断面
  6
CONTINUOUS
 10
-22.641785
 20
32.675753
 11
-67.41896
 21
32.675753
  0
LINE
  8
型材断面
  6
CONTINUOUS
 10
-22.641788
 20
81.935867
 11
-67.41896
 21
37.158685
  0
LINE
  8
型材断面
  6
CONTINUOUS
 10
-22.641788
 20
84.849373
 11
-67.41896
 21
40.072187
  0
LINE
  8
型材断面
  6
CONTINUOUS
 10
-22.99534
 20
85.202928
 11
-67.772502
 21
40.425753
  0
LINE
  8
型材断面
  6
CONTINUOUS
 10
-25.908847
 20
85.202928
 11
-70.68601
 21
40.425753
  0
LINE
  8
型材断面
  6
CONTINUOUS
 10
-73.69396
 20
85.202928
 11
-73.69396
 21
40.425753
  0
LINE
  8
型材断面
  6
CONTINUOUS
 10
-76.14396
 20
85.202928
 11
-76.14396
 21
40.425753
  0
LINE
  8
型材断面
  6
CONTINUOUS
 10
-75.16896
 20
85.202928
 11
-75.16896
 21
40.425753
  0
LINE
  8
型材断面
  6
CONTINUOUS
 10
-74.66896
 20
85.202928
 11
-74.66896
 21
40.425753
  0
LINE
  8
型材断面
  6
CONTINUOUS
 10
-123.929072
 20
85.202928
 11
-79.15191
 21
40.425753
  0
LINE
  8
型材断面
  6
CONTINUOUS
 10
-126.84258
 20
85.202928
 11
-82.065417
 21
40.425753
  0
LINE
  8
型材断面
  6
DASHDOT
 10
-129.19396
 20
87.200753
 11
-82.41896
 21
40.425753
  0
LINE
  8
型材断面
  6
CONTINUOUS
 10
-127.196133
 20
81.935867
 11
-82.41896
 21
37.158685
  0
LINE
  8
型材断面
  6
CONTINUOUS
 10
-127.196135
 20
34.150753
 11
-82.41896
 21
34.150753
  0
LINE
  8
型材断面
  6
CONTINUOUS
 10
-127.196135
 20
33.175753
 11
-82.41896
 21
33.175753
  0
LINE
  8
型材断面
  6
CONTINUOUS
 10
-127.196135
 20
32.675753
 11
-82.41896
 21
32.675753
  0
LINE
  8
型材断面
  6
CONTINUOUS
 10
-127.196135
 20
31.700753
 11
-82.41896
 21
31.700753
  0
LINE
  8
型材断面
  6
CONTINUOUS
 10
-127.196133
 20
-16.084363
 11
-82.41896
 21
28.69282
  0
LINE
  8
型材断面
  6
CONTINUOUS
 10
-127.196133
 20
-18.997868
 11
-82.41896
 21
25.779318
  0
LINE
  8
型材断面
  6
CONTINUOUS
 10
101.69245
 20
-25.229795
 11
125.624072
 21
-25.229795
  0
LINE
  8
ガラス
  6
CONTINUOUS
 10
-84.0991
 20
64.2867
 11
-87.971735
 21
60.414065
  0
LINE
  8
ガラス
  6
CONTINUOUS
 10
-85.697458
 20
63.406378
 11
-87.091413
 21
62.012422
  0
LINE
  8
ガラス
  6
CONTINUOUS
 10
-61.845497
 20
64.2867
 11
-65.718132
 21
60.414065
  0
LINE
  8
ガラス
  6
CONTINUOUS
 10
-63.443855
 20
63.406378
 11
-64.83781
 21
62.012422
  0
LINE
  8
ガラス
  6
CONTINUOUS
 10
-84.0991
 20
3.876515
 11
-87.971735
 21
0.00388
  0
LINE
  8
ガラス
  6
CONTINUOUS
 10
-85.697458
 20
2.996192
 11
-87.091413
 21
1.602238
  0
LINE
  8
ガラス
  6
CONTINUOUS
 10
-61.845497
 20
3.876515
 11
-65.718132
 21
0.00388
  0
LINE
  8
ガラス
  6
CONTINUOUS
 10
-63.443855
 20
2.996192
 11
-64.83781
 21
1.602238
  0
LINE
  8
ガラス
  6
CONTINUOUS
 10
-41.8127
 20
22.429522
 11
-45.685335
 21
18.556888
  0
LINE
  8
ガラス
  6
CONTINUOUS
 10
-43.411057
 20
21.5492
 11
-44.805012
 21
20.155245
  0
LINE
  8
ガラス
  6
CONTINUOUS
 10
-41.8127
 20
46.521975
 11
-45.685335
 21
42.64934
  0
LINE
  8
ガラス
  6
CONTINUOUS
 10
-43.411057
 20
45.641653
 11
-44.805012
 21
44.247697
  0
LINE
  8
ガラス
  6
CONTINUOUS
 10
-107.054865
 20
22.429522
 11
-110.9275
 21
18.556888
  0
LINE
  8
ガラス
  6
CONTINUOUS
 10
-108.653223
 20
21.5492
 11
-110.047178
 21
20.155245
  0
LINE
  8
ガラス
  6
CONTINUOUS
 10
-107.054865
 20
46.521975
 11
-110.9275
 21
42.64934
  0
LINE
  8
ガラス
  6
CONTINUOUS
 10
-108.653223
 20
45.641653
 11
-110.047178
 21
44.247697
  0
LINE
  8
ガラス
  6
CONTINUOUS
 10
-62.72582
 20
62.688342
 11
-64.119775
 21
61.294388
  0
LINE
  8
ガラス
  6
CONTINUOUS
 10
-84.979422
 20
62.688342
 11
-86.373377
 21
61.294388
  0
LINE
  8
ガラス
  6
CONTINUOUS
 10
-107.935188
 20
44.923617
 11
-109.329143
 21
43.529663
  0
LINE
  8
ガラス
  6
CONTINUOUS
 10
-107.935188
 20
20.831165
 11
-109.329143
 21
19.43721
  0
LINE
  8
ガラス
  6
CONTINUOUS
 10
-84.979422
 20
2.278158
 11
-86.373377
 21
0.884202
  0
LINE
  8
ガラス
  6
CONTINUOUS
 10
-62.72582
 20
2.278158
 11
-64.119775
 21
0.884202
  0
LINE
  8
ガラス
  6
CONTINUOUS
 10
-42.693023
 20
20.831165
 11
-44.086978
 21
19.43721
  0
LINE
  8
ガラス
  6
CONTINUOUS
 10
-42.693023
 20
44.923617
 11
-44.086978
 21
43.529663
  0
LINE
  8
ガラス
  6
CONTINUOUS
 10
-88.314565
 20
-92.752488
 11
-92.1872
 21
-96.625123
  0
LINE
  8
ガラス
  6
CONTINUOUS
 10
-89.194888
 20
-94.350845
 11
-90.588843
 21
-95.7448
  0
LINE
  8
ガラス
  6
CONTINUOUS
 10
-89.912922
 20
-93.63281
 11
-91.306877
 21
-95.026765
  0
LINE
  8
ガラス
  6
CONTINUOUS
 10
-58.559363
 20
-92.752488
 11
-62.431998
 21
-96.625123
  0
LINE
  8
ガラス
  6
CONTINUOUS
 10
-59.439685
 20
-94.350845
 11
-60.83364
 21
-95.7448
  0
LINE
  8
ガラス
  6
CONTINUOUS
 10
-60.15772
 20
-93.63281
 11
-61.551675
 21
-95.026765
  0
TEXT
  7
TextStyle03
  8
文字
  6
CONTINUOUS
 10
14.325
 20
2.475
  1
は排水穴位置を示す
 40
3.0
 72
     5
 11
44.325
 21
2.475
  0
TEXT
  7
TextStyle03
  8
文字
  6
CONTINUOUS
 10
70.425
 20
91.5
  1
ＮＳコード：ＮＳ４ＣＫＳ
 40
5.0
 72
     5
 11
137.3
 21
91.5
  0
TEXT
  7
TextStyle03
  8
文字
  6
CONTINUOUS
 10
8.725
 20
-5.225
  1
アンカー数量　１２ヶ所
 40
3.0
 72
     5
 11
45.475
 21
-5.225
  0
TEXT
  7
TextStyle03
  8
文字
  6
CONTINUOUS
 10
-157.9
 20
-26.8
  1
アンカーピッチ
 40
3.0
 50
90.0
 72
     5
 11
-157.9
 21
-3.55
  0
TEXT
  7
TextStyle03
  8
文字
  6
CONTINUOUS
 10
-137.175
 20
114.7
  1
アンカーピッチ
 40
3.0
 72
     5
 11
-113.925
 21
114.7
  0
TEXT
  7
TextStyle03
  8
文字
  6
CONTINUOUS
 10
105.275
 20
-24.025
  1
ガラス寸法
 40
3.0
 72
     5
 11
121.775
 21
-24.025
  0
TEXT
  7
TextStyle03
  8
文字
  6
CONTINUOUS
 10
128.775
 20
-75.1
  1
本図×４枚
 40
3.0
 72
     5
 11
145.275
 21
-75.1
  0
TEXT
  7
TextStyle03
  8
文字
  6
CONTINUOUS
 10
128.775
 20
-78.475
  1
逆図×４枚
 40
3.0
 72
     5
 11
145.275
 21
-78.475
  0
TEXT
  7
TextStyle03
  8
文字
  6
CONTINUOUS
 10
71.425
 20
120.625
  1
シリーズ：ＳＴＦ４Ｋ
 40
5.0
 72
     5
 11
127.05
 21
120.625
  0
TEXT
  7
TextStyle03
  8
文字
  6
CONTINUOUS
 10
71.425
 20
115.0
  1
　　　　　四角錘（固定）2000×2000タイプ
 40
5.0
 72
     5
 11
183.3
 21
115.0
  0
TEXT
  7
TextStyle03
  8
文字
  6
CONTINUOUS
 10
71.425
 20
109.375
  1
　　　　　ペアガラス仕様
 40
5.0
 72
     5
 11
138.3
 21
109.375
  0
TEXT
  7
TextStyle03
  8
文字
  6
CONTINUOUS
 10
71.425
 20
103.75
  1
図面名　：外観姿図
 40
5.0
 72
     5
 11
121.425
 21
103.75
  0
TEXT
  7
TextStyle03
  8
文字
  6
CONTINUOUS
 10
71.425
 20
98.125
  1
　　　　　　
 40
5.0
 72
     5
 11
104.55
 21
98.125
  0
INSERT
  2
*DIM_0002
  8
寸法
  6
CONTINUOUS
 10
0.0
 20
0.0
  0
INSERT
  2
*DIM_0003
  8
寸法
  6
CONTINUOUS
 10
0.0
 20
0.0
  0
INSERT
  2
*DIM_0004
  8
寸法
  6
CONTINUOUS
 10
0.0
 20
0.0
  0
INSERT
  2
*DIM_0005
  8
寸法
  6
CONTINUOUS
 10
0.0
 20
0.0
  0
INSERT
  2
*DIM_0006
  8
寸法
  6
CONTINUOUS
 10
0.0
 20
0.0
  0
INSERT
  2
*DIM_0007
  8
寸法
  6
CONTINUOUS
 10
0.0
 20
0.0
  0
INSERT
  2
*DIM_0008
  8
寸法
  6
CONTINUOUS
 10
0.0
 20
0.0
  0
INSERT
  2
*DIM_0009
  8
寸法
  6
CONTINUOUS
 10
0.0
 20
0.0
  0
INSERT
  2
*DIM_0010
  8
寸法
  6
CONTINUOUS
 10
0.0
 20
0.0
  0
INSERT
  2
*DIM_0011
  8
寸法
  6
CONTINUOUS
 10
0.0
 20
0.0
  0
INSERT
  2
*DIM_0012
  8
寸法
  6
CONTINUOUS
 10
0.0
 20
0.0
  0
INSERT
  2
*DIM_0013
  8
寸法
  6
CONTINUOUS
 10
0.0
 20
0.0
  0
INSERT
  2
*DIM_0014
  8
寸法
  6
CONTINUOUS
 10
0.0
 20
0.0
  0
LINE
  8
曲げ物
  6
CONTINUOUS
 10
150.343093
 20
-82.344413
 11
100.358093
 21
-82.344413
  0
LINE
  8
曲げ物
  6
CONTINUOUS
 10
100.358093
 20
-82.344413
 11
150.343093
 21
-11.655253
  0
LINE
  8
曲げ物
  6
CONTINUOUS
 10
150.343093
 20
-82.344413
 11
150.343093
 21
-11.655253
  0
ENDSEC
  0
EOF
