  0
SECTION
  2
HEADER
  9
$EXTMIN
 10
-210.0
 20
-148.5
  9
$EXTMAX
 10
210.0
 20
148.5
  9
$PDMODE
 70
    32
  9
$PDSIZE
 40
1.5
  9
$LTSCALE
 40
10.0
  0
ENDSEC
  0
SECTION
  2
TABLES
  0
TABLE
  2
LTYPE
 70
    15
  0
LTYPE
  2
CONTINUOUS
 70
    64
  3
実線
 72
    65
 73
     0
 40
0.0
  0
LTYPE
  2
DASHED
 70
    64
  3
破線A
 72
    65
 73
     2
 40
0.6
 49
0.4
 49
-0.2
  0
LTYPE
  2
DASHEDX2
 70
    64
  3
破線B
 72
    65
 73
     2
 40
1.3
 49
0.9
 49
-0.4
  0
LTYPE
  2
DASHDOT
 70
    64
  3
１点鎖線A
 72
    65
 73
     4
 40
0.5375
 49
0.375
 49
-0.05
 49
0.0625
 49
-0.05
  0
LTYPE
  2
DASHDOTX2
 70
    64
  3
１点鎖線B
 72
    65
 73
     4
 40
1.075
 49
0.75
 49
-0.1
 49
0.125
 49
-0.1
  0
LTYPE
  2
DIVIDE2
 70
    64
  3
２点鎖線A
 72
    65
 73
     6
 40
0.5125
 49
0.3
 49
-0.0375
 49
0.05
 49
-0.0375
 49
0.05
 49
-0.0375
  0
LTYPE
  2
DIVIDE
 70
    64
  3
２点鎖線B
 72
    65
 73
     6
 40
1.05
 49
0.55
 49
-0.1
 49
0.1
 49
-0.1
 49
0.1
 49
-0.1
  0
LTYPE
  2
DOT
 70
    64
  3
点線A
 72
    65
 73
     2
 40
0.1125
 49
0.0625
 49
-0.05
  0
LTYPE
  2
DOTX2
 70
    64
  3
点線B
 72
    65
 73
     2
 40
0.275
 49
0.15
 49
-0.125
  0
LTYPE
  2
CONTINUOUS
 70
    64
  3
実線
 72
    65
 73
     0
 40
0.0
  0
LTYPE
  2
CONTINUOUS
 70
    64
  3
実線
 72
    65
 73
     0
 40
0.0
  0
LTYPE
  2
CONTINUOUS
 70
    64
  3
実線
 72
    65
 73
     0
 40
0.0
  0
LTYPE
  2
CONTINUOUS
 70
    64
  3
実線
 72
    65
 73
     0
 40
0.0
  0
LTYPE
  2
CONTINUOUS
 70
    64
  3
実線
 72
    65
 73
     0
 40
0.0
  0
LTYPE
  2
CONTINUOUS
 70
    64
  3
実線
 72
    65
 73
     0
 40
0.0
  0
ENDTAB
  0
TABLE
  2
LAYER
 70
    34
  0
LAYER
  2
通り芯
 70
     0
 62
    15
  6
CONTINUOUS
  0
LAYER
  2
補助線
 70
     0
 62
    16
  6
DOT
  0
LAYER
  2
躯体
 70
     0
 62
    31
  6
CONTINUOUS
  0
LAYER
  2
型材
 70
     0
 62
    32
  6
CONTINUOUS
  0
LAYER
  2
型材断面
 70
     0
 62
    47
  6
CONTINUOUS
  0
LAYER
  2
ガラス
 70
     0
 62
    48
  6
CONTINUOUS
  0
LAYER
  2
ゴム等
 70
     0
 62
    63
  6
CONTINUOUS
  0
LAYER
  2
ボルト／ビス
 70
     0
 62
    64
  6
CONTINUOUS
  0
LAYER
  2
文字
 70
     0
 62
    79
  6
CONTINUOUS
  0
LAYER
  2
寸法
 70
     0
 62
    80
  6
CONTINUOUS
  0
LAYER
  2
ﾊｯﾁﾝｸﾞ
 70
     0
 62
    95
  6
CONTINUOUS
  0
LAYER
  2
別途部材
 70
     0
 62
    96
  6
CONTINUOUS
  0
LAYER
  2
曲げ物
 70
     0
 62
   111
  6
CONTINUOUS
  0
LAYER
  2
鉄骨等
 70
     0
 62
   112
  6
CONTINUOUS
  0
LAYER
  2
St
 70
     0
 62
   127
  6
CONTINUOUS
  0
LAYER
  2
その他部品等
 70
     0
 62
   128
  6
CONTINUOUS
  0
LAYER
  2
ｶﾞｽｹｯﾄ
 70
     0
 62
   143
  6
CONTINUOUS
  0
LAYER
  2
ｽｹｯﾁ
 70
     0
 62
    14
  6
CONTINUOUS
  0
LAYER
  2
0
 70
     0
 62
    17
  6
CONTINUOUS
  0
LAYER
  2
1
 70
     0
 62
    30
  6
CONTINUOUS
  0
LAYER
  2
4
 70
     0
 62
    33
  6
CONTINUOUS
  0
LAYER
  2
ﾚｲﾔ3
 70
     0
 62
    46
  6
CONTINUOUS
  0
LAYER
  2
外形線
 70
     0
 62
    49
  6
CONTINUOUS
  0
LAYER
  2
部品
 70
     0
 62
    14
  6
CONTINUOUS
  0
LAYER
  2
サッシ芯
 70
     0
 62
    17
  6
DASHDOTX2
  0
LAYER
  2
寸法線
 70
     0
 62
    62
  6
CONTINUOUS
  0
LAYER
  2
姿図外形線
 70
     0
 62
    65
  6
CONTINUOUS
  0
LAYER
  2
姿補助線
 70
     0
 62
    30
  6
CONTINUOUS
  0
LAYER
  2
透視線
 70
     0
 62
    78
  6
DOT
  0
LAYER
  2
用紙
 70
     0
 62
    81
  6
CONTINUOUS
  0
LAYER
  2
実線図枠
 70
     0
 62
    94
  6
CONTINUOUS
  0
LAYER
  2
補助図枠
 70
     0
 62
    97
  6
CONTINUOUS
  0
LAYER
  2
建具記号
 70
     0
 62
   110
  6
CONTINUOUS
  0
LAYER
  2
補助文字
 70
     0
 62
   113
  6
CONTINUOUS
  0
ENDTAB
  0
TABLE
  2
STYLE
 70
    10
  0
STYLE
  2
STANDARD
 70
     0
 40
1.0
 41
1.0
 42
1.0
 50
0.0
 71
     0
  3
TXT
  4
BIGFONT
  0
STYLE
  2
TATE
 70
     4
 40
1.0
 41
1.0
 42
1.0
 50
0.0
 71
     0
  3
TXT
  4
BIGFONT
  0
STYLE
  2
TextStyle03
 70
     0
 40
1.0
 41
1.0
 42
1.0
 50
0.0
 71
     0
  3
MONOTXT
  4
BIGFONT
  0
STYLE
  2
TextStyle04
 70
     0
 40
1.0
 41
1.0
 42
1.0
 50
0.0
 71
     0
  3
MONOTXT
  4
BIGFONT
  0
STYLE
  2
TextStyle05
 70
     0
 40
1.0
 41
1.0
 42
1.0
 50
0.0
 71
     0
  3
MONOTXT
  4
BIGFONT
  0
STYLE
  2
TextStyle06
 70
     0
 40
1.0
 41
1.0
 42
1.0
 50
0.0
 71
     0
  3
MONOTXT
  4
BIGFONT
  0
STYLE
  2
TextStyle07
 70
     0
 40
1.0
 41
1.0
 42
1.0
 50
0.0
 71
     0
  3
MONOTXT
  4
BIGFONT
  0
STYLE
  2
TextStyle08
 70
     0
 40
1.0
 41
1.0
 42
1.0
 50
0.0
 71
     0
  3
MONOTXT
  4
BIGFONT
  0
STYLE
  2
TextStyle09
 70
     0
 40
1.0
 41
1.0
 42
1.0
 50
0.0
 71
     0
  3
MONOTXT
  4
BIGFONT
  0
STYLE
  2
TextStyle10
 70
     0
 40
1.0
 41
1.0
 42
1.0
 50
0.0
 71
     0
  3
MONOTXT
  4
BIGFONT
  0
ENDTAB
  0
ENDSEC
  0
SECTION
  2
BLOCKS
  0
BLOCK
  2
*GRP_0001
 70
    65
 10
0.0
 20
0.0
  0
LINE
  8
型材断面
  6
CONTINUOUS
 10
195.0
 20
133.5
 11
195.0
 21
-133.5
  0
LINE
  8
型材断面
  6
CONTINUOUS
 10
195.0
 20
-133.5
 11
-185.0
 21
-133.5
  0
LINE
  8
型材断面
  6
CONTINUOUS
 10
-185.0
 20
-133.5
 11
-185.0
 21
133.5
  0
LINE
  8
型材断面
  6
CONTINUOUS
 10
195.0
 20
133.5
 11
-185.0
 21
133.5
  0
LINE
  8
型材断面
  6
CONTINUOUS
 10
145.0
 20
-133.5
 11
145.0
 21
-118.5
  0
LINE
  8
型材断面
  6
CONTINUOUS
 10
195.0
 20
-118.5
 11
145.0
 21
-118.5
  0
ENDBLK
  0
BLOCK
  2
*DIM_0002
 70
    65
 10
0.0
 20
0.0
  0
LINE
  8
寸法
  6
BYBLOCK
 62
     0
 10
-59.900342
 20
-30.395367
 11
-59.900342
 21
-31.06104
  0
LINE
  8
寸法
  6
BYBLOCK
 62
     0
 10
-29.900342
 20
-30.395367
 11
-29.900342
 21
-31.06104
  0
LINE
  8
寸法
  6
BYBLOCK
 62
     0
 10
-59.900342
 20
-31.06104
 11
-29.900342
 21
-31.06104
  0
POINT
  8
寸法
 62
     0
 10
-59.900342
 20
-31.06104
  0
POINT
  8
寸法
 62
     0
 10
-29.900342
 20
-31.06104
  0
TEXT
  7
TextStyle03
  8
寸法
  6
CONTINUOUS
 62
     0
 10
-55.8
 20
-30.725
  1
呼称寸法　600
 40
3.0
 72
     5
 11
-34.05
 21
-30.725
  0
ENDBLK
  0
BLOCK
  2
*DIM_0003
 70
    65
 10
0.0
 20
0.0
  0
LINE
  8
寸法
  6
BYBLOCK
 62
     0
 10
-25.625342
 20
-65.425495
 11
-25.625342
 21
-31.06104
  0
LINE
  8
寸法
  6
BYBLOCK
 62
     0
 10
-29.900342
 20
-31.06104
 11
-25.625342
 21
-31.06104
  0
POINT
  8
寸法
 62
     0
 10
-25.625342
 20
-31.06104
  0
TEXT
  7
TextStyle03
  8
寸法
  6
CONTINUOUS
 62
     0
 10
-24.33125
 20
-30.725
  1
85.5
 40
3.0
 72
     5
 11
-17.76875
 21
-30.725
  0
ENDBLK
  0
BLOCK
  2
*DIM_0004
 70
    65
 10
0.0
 20
0.0
  0
LINE
  8
寸法
  6
BYBLOCK
 62
     0
 10
-64.175342
 20
-65.425495
 11
-64.175342
 21
-31.06104
  0
LINE
  8
寸法
  6
BYBLOCK
 62
     0
 10
-59.900342
 20
-31.06104
 11
-64.175342
 21
-31.06104
  0
POINT
  8
寸法
 62
     0
 10
-59.900342
 20
-31.06104
  0
POINT
  8
寸法
 62
     0
 10
-64.175342
 20
-31.06104
  0
TEXT
  7
TextStyle03
  8
寸法
  6
CONTINUOUS
 62
     0
 10
-72.10625
 20
-30.725
  1
85.5
 40
3.0
 72
     5
 11
-65.54375
 21
-30.725
  0
ENDBLK
  0
BLOCK
  2
*DIM_0005
 70
    65
 10
0.0
 20
0.0
  0
LINE
  8
寸法
  6
BYBLOCK
 62
     0
 10
-49.15034
 20
-50.29453
 11
-49.15034
 21
-39.844362
  0
LINE
  8
寸法
  6
BYBLOCK
 62
     0
 10
-40.650342
 20
-50.29453
 11
-40.650342
 21
-39.844362
  0
LINE
  8
寸法
  6
BYBLOCK
 62
     0
 10
-49.15034
 20
-39.844362
 11
-40.650342
 21
-39.844362
  0
POINT
  8
寸法
 62
     0
 10
-49.15034
 20
-39.844362
  0
POINT
  8
寸法
 62
     0
 10
-40.650342
 20
-39.844362
  0
TEXT
  7
TextStyle03
  8
寸法
  6
CONTINUOUS
 62
     0
 10
-47.3625
 20
-39.5
  1
170
 40
3.0
 72
     5
 11
-42.4875
 21
-39.5
  0
ENDBLK
  0
BLOCK
  2
*DIM_0006
 70
    65
 10
0.0
 20
0.0
  0
LINE
  8
寸法
  6
BYBLOCK
 62
     0
 10
-35.563565
 20
-47.04453
 11
-34.675007
 21
-47.04453
  0
LINE
  8
寸法
  6
BYBLOCK
 62
     0
 10
-39.650342
 20
-51.29453
 11
-34.675007
 21
-51.29453
  0
LINE
  8
寸法
  6
BYBLOCK
 62
     0
 10
-34.675007
 20
-47.04453
 11
-34.675007
 21
-51.29453
  0
POINT
  8
寸法
 62
     0
 10
-34.675007
 20
-47.04453
  0
POINT
  8
寸法
 62
     0
 10
-34.675007
 20
-51.29453
  0
TEXT
  7
TextStyle03
  8
寸法
  6
CONTINUOUS
 62
     0
 10
-35.075
 20
-50.79375
  1
85
 40
3.0
 50
90.0
 72
     5
 11
-35.075
 21
-47.60625
  0
ENDBLK
  0
BLOCK
  2
*DIM_0007
 70
    65
 10
0.0
 20
0.0
  0
LINE
  8
寸法
  6
BYBLOCK
 62
     0
 10
-43.900342
 20
-47.04453
 11
-8.229482
 21
-47.04453
  0
LINE
  8
寸法
  6
BYBLOCK
 62
     0
 10
-8.229482
 20
-66.425495
 11
-8.229482
 21
-47.04453
  0
POINT
  8
寸法
 62
     0
 10
-8.229482
 20
-47.04453
  0
TEXT
  7
TextStyle03
  8
寸法
  6
CONTINUOUS
 62
     0
 10
-8.625
 20
-60.875
  1
387.6
 40
3.0
 50
90.0
 72
     5
 11
-8.625
 21
-52.625
  0
ENDBLK
  0
BLOCK
  2
*DIM_0008
 70
    65
 10
0.0
 20
0.0
  0
LINE
  8
寸法
  6
BYBLOCK
 62
     0
 10
-24.625342
 20
-66.425495
 11
-8.229482
 21
-66.425495
  0
LINE
  8
寸法
  6
BYBLOCK
 62
     0
 10
-24.625342
 20
-68.47169
 11
-8.229482
 21
-68.47169
  0
LINE
  8
寸法
  6
BYBLOCK
 62
     0
 10
-8.229482
 20
-66.425495
 11
-8.229482
 21
-68.47169
  0
POINT
  8
寸法
 62
     0
 10
-8.229482
 20
-66.425495
  0
POINT
  8
寸法
 62
     0
 10
-8.229482
 20
-68.47169
  0
TEXT
  7
TextStyle03
  8
寸法
  6
CONTINUOUS
 62
     0
 10
-5.25
 20
-70.73125
  1
40.9
 40
3.0
 50
90.0
 72
     5
 11
-5.25
 21
-64.16875
  0
ENDBLK
  0
BLOCK
  2
*DIM_0009
 70
    65
 10
0.0
 20
0.0
  0
LINE
  8
寸法
  6
BYBLOCK
 62
     0
 10
-54.90034
 20
28.50669
 11
-54.90034
 21
48.09587
  0
LINE
  8
寸法
  6
BYBLOCK
 62
     0
 10
-34.90034
 20
28.50669
 11
-34.90034
 21
48.09587
  0
LINE
  8
寸法
  6
BYBLOCK
 62
     0
 10
-54.90034
 20
48.09587
 11
-34.90034
 21
48.09587
  0
POINT
  8
寸法
 62
     0
 10
-54.90034
 20
48.09587
  0
POINT
  8
寸法
 62
     0
 10
-34.90034
 20
48.09587
  0
TEXT
  7
TextStyle03
  8
寸法
  6
CONTINUOUS
 62
     0
 10
-47.3875
 20
48.5
  1
400
 40
3.0
 72
     5
 11
-42.5125
 21
48.5
  0
ENDBLK
  0
BLOCK
  2
*DIM_0010
 70
    65
 10
0.0
 20
0.0
  0
LINE
  8
寸法
  6
BYBLOCK
 62
     0
 10
117.758163
 20
-80.399633
 11
117.758163
 21
-96.372508
  0
LINE
  8
寸法
  6
BYBLOCK
 62
     0
 10
149.378162
 20
-80.399633
 11
149.378162
 21
-96.372508
  0
LINE
  8
寸法
  6
BYBLOCK
 62
     0
 10
117.758163
 20
-96.372508
 11
149.378162
 21
-96.372508
  0
POINT
  8
寸法
 62
     0
 10
117.758163
 20
-96.372508
  0
POINT
  8
寸法
 62
     0
 10
149.378162
 20
-96.372508
  0
TEXT
  7
TextStyle03
  8
寸法
  6
CONTINUOUS
 62
     0
 10
129.425
 20
-96.0
  1
632.4
 40
3.0
 72
     5
 11
137.675
 21
-96.0
  0
ENDBLK
  0
BLOCK
  2
*DIM_0011
 70
    65
 10
0.0
 20
0.0
  0
LINE
  8
寸法
  6
BYBLOCK
 62
     0
 10
152.378162
 20
-77.399633
 11
164.203348
 21
-77.399633
  0
LINE
  8
寸法
  6
BYBLOCK
 62
     0
 10
136.568162
 20
-55.04101
 11
164.203348
 21
-55.04101
  0
LINE
  8
寸法
  6
BYBLOCK
 62
     0
 10
164.203348
 20
-77.399633
 11
164.203348
 21
-55.04101
  0
POINT
  8
寸法
 62
     0
 10
164.203348
 20
-77.399633
  0
POINT
  8
寸法
 62
     0
 10
164.203348
 20
-55.04101
  0
TEXT
  7
TextStyle03
  8
寸法
  6
CONTINUOUS
 62
     0
 10
163.825
 20
-70.35
  1
447.2
 40
3.0
 50
90.0
 72
     5
 11
163.825
 21
-62.1
  0
ENDBLK
  0
ENDSEC
  0
SECTION
  2
ENTITIES
  0
POLYLINE
  8
通り芯
  6
CONTINUOUS
 66
     1
 70
     1
  0
VERTEX
  8
通り芯
 10
-210.0
 20
-148.5
  0
VERTEX
  8
通り芯
 10
210.0
 20
-148.5
  0
VERTEX
  8
通り芯
 10
210.0
 20
148.5
  0
VERTEX
  8
通り芯
 10
-210.0
 20
148.5
  0
SEQEND
  0
INSERT
  2
*GRP_0001
  8
型材断面
  6
CONTINUOUS
 10
0.0
 20
0.0
  0
LINE
  8
型材断面
  6
CONTINUOUS
 10
-58.910458
 20
29.78386
 11
-62.177517
 21
29.78386
  0
LINE
  8
型材断面
  6
CONTINUOUS
 10
-62.177517
 20
29.78386
 11
-62.177517
 21
26.5168
  0
LINE
  8
型材断面
  6
DASHDOT
 10
-44.900342
 20
27.506688
 11
-44.900342
 21
12.506688
  0
LINE
  8
型材断面
  6
DASHDOT
 10
-59.900342
 20
12.506688
 11
-44.900342
 21
12.506688
  0
LINE
  8
型材断面
  6
DASHDOT
 10
-59.900342
 20
27.506688
 11
-59.900342
 21
12.506688
  0
LINE
  8
型材断面
  6
CONTINUOUS
 10
-63.874572
 20
31.480918
 11
-63.874572
 21
12.506688
  0
LINE
  8
型材断面
  6
CONTINUOUS
 10
-64.175342
 20
31.781688
 11
-64.175342
 21
12.506688
  0
LINE
  8
型材断面
  6
CONTINUOUS
 10
-62.53107
 20
30.137413
 11
-62.53107
 21
12.506688
  0
LINE
  8
型材断面
  6
CONTINUOUS
 10
-62.248228
 20
29.85457
 11
-62.248228
 21
12.506688
  0
LINE
  8
型材断面
  6
CONTINUOUS
 10
-63.52102
 20
31.127362
 11
-63.52102
 21
12.506688
  0
LINE
  8
型材断面
  6
DASHDOT
 10
-59.900342
 20
27.506688
 11
-44.900342
 21
27.506688
  0
LINE
  8
型材断面
  6
CONTINUOUS
 10
-64.175342
 20
31.781688
 11
-44.900342
 21
31.781688
  0
LINE
  8
型材断面
  6
CONTINUOUS
 10
-63.874572
 20
31.480918
 11
-44.900342
 21
31.480918
  0
LINE
  8
型材断面
  6
CONTINUOUS
 10
-63.52102
 20
31.127362
 11
-44.900342
 21
31.127362
  0
LINE
  8
型材断面
  6
CONTINUOUS
 10
-62.53107
 20
30.137413
 11
-44.900342
 21
30.137413
  0
LINE
  8
型材断面
  6
CONTINUOUS
 10
-62.248228
 20
29.85457
 11
-44.900342
 21
29.85457
  0
LINE
  8
型材断面
  6
CONTINUOUS
 10
-44.900342
 20
16.756688
 11
-49.150342
 21
16.756688
  0
LINE
  8
型材断面
  6
CONTINUOUS
 10
-49.150342
 20
12.506688
 11
-49.150342
 21
16.756688
  0
LINE
  8
型材断面
  6
CONTINUOUS
 10
-49.150342
 20
16.756688
 11
-44.900342
 21
12.506688
  0
LINE
  8
型材断面
  6
CONTINUOUS
 10
-62.177517
 20
26.5168
 11
-49.150342
 21
13.489627
  0
LINE
  8
型材断面
  6
CONTINUOUS
 10
-62.177517
 20
29.430305
 11
-49.150342
 21
16.403132
  0
LINE
  8
型材断面
  6
CONTINUOUS
 10
-61.823965
 20
29.78386
 11
-48.79679
 21
16.756688
  0
LINE
  8
型材断面
  6
CONTINUOUS
 10
-58.910458
 20
29.78386
 11
-45.883283
 21
16.756688
  0
LINE
  8
型材断面
  6
DASHDOT
 10
-64.175342
 20
31.781688
 11
-44.900342
 21
12.506688
  0
LINE
  8
型材断面
  6
CONTINUOUS
 10
-58.910458
 20
-4.770488
 11
-62.177517
 21
-4.770488
  0
LINE
  8
型材断面
  6
CONTINUOUS
 10
-62.177517
 20
-4.770488
 11
-62.177517
 21
-1.503427
  0
LINE
  8
型材断面
  6
DASHDOT
 10
-59.900342
 20
-2.493312
 11
-59.900342
 21
12.506688
  0
LINE
  8
型材断面
  6
CONTINUOUS
 10
-63.874572
 20
-6.467543
 11
-63.874572
 21
12.506688
  0
LINE
  8
型材断面
  6
CONTINUOUS
 10
-64.175342
 20
-6.768312
 11
-64.175342
 21
12.506688
  0
LINE
  8
型材断面
  6
CONTINUOUS
 10
-62.53107
 20
-5.12404
 11
-62.53107
 21
12.506688
  0
LINE
  8
型材断面
  6
CONTINUOUS
 10
-62.248228
 20
-4.841197
 11
-62.248228
 21
12.506688
  0
LINE
  8
型材断面
  6
CONTINUOUS
 10
-63.52102
 20
-6.11399
 11
-63.52102
 21
12.506688
  0
LINE
  8
型材断面
  6
DASHDOT
 10
-59.900342
 20
-2.493312
 11
-44.900342
 21
-2.493312
  0
LINE
  8
型材断面
  6
CONTINUOUS
 10
-64.175342
 20
-6.768312
 11
-44.900342
 21
-6.768312
  0
LINE
  8
型材断面
  6
CONTINUOUS
 10
-63.874572
 20
-6.467543
 11
-44.900342
 21
-6.467543
  0
LINE
  8
型材断面
  6
CONTINUOUS
 10
-63.52102
 20
-6.11399
 11
-44.900342
 21
-6.11399
  0
LINE
  8
型材断面
  6
CONTINUOUS
 10
-62.53107
 20
-5.12404
 11
-44.900342
 21
-5.12404
  0
LINE
  8
型材断面
  6
CONTINUOUS
 10
-62.248228
 20
-4.841197
 11
-44.900342
 21
-4.841197
  0
LINE
  8
型材断面
  6
CONTINUOUS
 10
-44.900342
 20
8.256688
 11
-49.150342
 21
8.256688
  0
LINE
  8
型材断面
  6
CONTINUOUS
 10
-49.150342
 20
12.506688
 11
-49.150342
 21
8.256688
  0
LINE
  8
型材断面
  6
CONTINUOUS
 10
-49.150342
 20
8.256688
 11
-44.900342
 21
12.506688
  0
LINE
  8
型材断面
  6
CONTINUOUS
 10
-62.177517
 20
-1.503427
 11
-49.150342
 21
11.523747
  0
LINE
  8
型材断面
  6
CONTINUOUS
 10
-62.177517
 20
-4.416932
 11
-49.150342
 21
8.610242
  0
LINE
  8
型材断面
  6
CONTINUOUS
 10
-61.823965
 20
-4.770488
 11
-48.79679
 21
8.256688
  0
LINE
  8
型材断面
  6
CONTINUOUS
 10
-58.910458
 20
-4.770488
 11
-45.883283
 21
8.256688
  0
LINE
  8
型材断面
  6
DASHDOT
 10
-64.175342
 20
-6.768312
 11
-44.900342
 21
12.506688
  0
LINE
  8
型材断面
  6
CONTINUOUS
 10
-30.89023
 20
29.78386
 11
-27.62317
 21
29.78386
  0
LINE
  8
型材断面
  6
CONTINUOUS
 10
-27.62317
 20
29.78386
 11
-27.62317
 21
26.5168
  0
LINE
  8
型材断面
  6
DASHDOT
 10
-29.900342
 20
12.506688
 11
-44.900342
 21
12.506688
  0
LINE
  8
型材断面
  6
DASHDOT
 10
-29.900342
 20
27.506688
 11
-29.900342
 21
12.506688
  0
LINE
  8
型材断面
  6
CONTINUOUS
 10
-25.926112
 20
31.480918
 11
-25.926112
 21
12.506688
  0
LINE
  8
型材断面
  6
CONTINUOUS
 10
-25.625342
 20
31.781688
 11
-25.625342
 21
12.506688
  0
LINE
  8
型材断面
  6
CONTINUOUS
 10
-27.269618
 20
30.137413
 11
-27.269618
 21
12.506688
  0
LINE
  8
型材断面
  6
CONTINUOUS
 10
-27.55246
 20
29.85457
 11
-27.55246
 21
12.506688
  0
LINE
  8
型材断面
  6
CONTINUOUS
 10
-26.279667
 20
31.127362
 11
-26.279667
 21
12.506688
  0
LINE
  8
型材断面
  6
DASHDOT
 10
-29.900342
 20
27.506688
 11
-44.900342
 21
27.506688
  0
LINE
  8
型材断面
  6
CONTINUOUS
 10
-25.625342
 20
31.781688
 11
-44.900342
 21
31.781688
  0
LINE
  8
型材断面
  6
CONTINUOUS
 10
-25.926112
 20
31.480918
 11
-44.900342
 21
31.480918
  0
LINE
  8
型材断面
  6
CONTINUOUS
 10
-26.279667
 20
31.127362
 11
-44.900342
 21
31.127362
  0
LINE
  8
型材断面
  6
CONTINUOUS
 10
-27.269618
 20
30.137413
 11
-44.900342
 21
30.137413
  0
LINE
  8
型材断面
  6
CONTINUOUS
 10
-27.55246
 20
29.85457
 11
-44.900342
 21
29.85457
  0
LINE
  8
型材断面
  6
CONTINUOUS
 10
-44.900342
 20
16.756688
 11
-40.650342
 21
16.756688
  0
LINE
  8
型材断面
  6
CONTINUOUS
 10
-40.650342
 20
12.506688
 11
-40.650342
 21
16.756688
  0
LINE
  8
型材断面
  6
CONTINUOUS
 10
-40.650342
 20
16.756688
 11
-44.900342
 21
12.506688
  0
LINE
  8
型材断面
  6
CONTINUOUS
 10
-27.62317
 20
26.5168
 11
-40.650342
 21
13.489627
  0
LINE
  8
型材断面
  6
CONTINUOUS
 10
-27.62317
 20
29.430305
 11
-40.650342
 21
16.403132
  0
LINE
  8
型材断面
  6
CONTINUOUS
 10
-27.976722
 20
29.78386
 11
-41.003895
 21
16.756688
  0
LINE
  8
型材断面
  6
CONTINUOUS
 10
-30.89023
 20
29.78386
 11
-43.917403
 21
16.756688
  0
LINE
  8
型材断面
  6
DASHDOT
 10
-25.625342
 20
31.781688
 11
-44.900342
 21
12.506688
  0
LINE
  8
型材断面
  6
CONTINUOUS
 10
-30.89023
 20
-4.770488
 11
-27.62317
 21
-4.770488
  0
LINE
  8
型材断面
  6
CONTINUOUS
 10
-27.62317
 20
-4.770488
 11
-27.62317
 21
-1.503427
  0
LINE
  8
型材断面
  6
DASHDOT
 10
-29.900342
 20
-2.493312
 11
-29.900342
 21
12.506688
  0
LINE
  8
型材断面
  6
CONTINUOUS
 10
-25.926112
 20
-6.467543
 11
-25.926112
 21
12.506688
  0
LINE
  8
型材断面
  6
CONTINUOUS
 10
-25.625342
 20
-6.768312
 11
-25.625342
 21
12.506688
  0
LINE
  8
型材断面
  6
CONTINUOUS
 10
-27.269618
 20
-5.12404
 11
-27.269618
 21
12.506688
  0
LINE
  8
型材断面
  6
CONTINUOUS
 10
-27.55246
 20
-4.841197
 11
-27.55246
 21
12.506688
  0
LINE
  8
型材断面
  6
CONTINUOUS
 10
-26.279667
 20
-6.11399
 11
-26.279667
 21
12.506688
  0
LINE
  8
型材断面
  6
DASHDOT
 10
-29.900342
 20
-2.493312
 11
-44.900342
 21
-2.493312
  0
LINE
  8
型材断面
  6
CONTINUOUS
 10
-25.625342
 20
-6.768312
 11
-44.900342
 21
-6.768312
  0
LINE
  8
型材断面
  6
CONTINUOUS
 10
-25.926112
 20
-6.467543
 11
-44.900342
 21
-6.467543
  0
LINE
  8
型材断面
  6
CONTINUOUS
 10
-26.279667
 20
-6.11399
 11
-44.900342
 21
-6.11399
  0
LINE
  8
型材断面
  6
CONTINUOUS
 10
-27.269618
 20
-5.12404
 11
-44.900342
 21
-5.12404
  0
LINE
  8
型材断面
  6
CONTINUOUS
 10
-27.55246
 20
-4.841197
 11
-44.900342
 21
-4.841197
  0
LINE
  8
型材断面
  6
CONTINUOUS
 10
-44.900342
 20
8.256688
 11
-40.650342
 21
8.256688
  0
LINE
  8
型材断面
  6
CONTINUOUS
 10
-40.650342
 20
12.506688
 11
-40.650342
 21
8.256688
  0
LINE
  8
型材断面
  6
CONTINUOUS
 10
-40.650342
 20
8.256688
 11
-44.900342
 21
12.506688
  0
LINE
  8
型材断面
  6
CONTINUOUS
 10
-27.62317
 20
-1.503427
 11
-40.650342
 21
11.523747
  0
LINE
  8
型材断面
  6
CONTINUOUS
 10
-27.62317
 20
-4.416932
 11
-40.650342
 21
8.610242
  0
LINE
  8
型材断面
  6
CONTINUOUS
 10
-27.976722
 20
-4.770488
 11
-41.003895
 21
8.256688
  0
LINE
  8
型材断面
  6
CONTINUOUS
 10
-30.89023
 20
-4.770488
 11
-43.917403
 21
8.256688
  0
LINE
  8
型材断面
  6
DASHDOT
 10
-25.625342
 20
-6.768312
 11
-44.900342
 21
12.506688
  0
LINE
  8
型材断面
  6
CONTINUOUS
 10
-67.924215
 20
12.506688
 11
-71.809975
 21
10.263242
  0
LINE
  8
型材断面
  6
CONTINUOUS
 10
-67.924215
 20
12.506688
 11
-71.809975
 21
14.750132
  0
LINE
  8
型材断面
  6
CONTINUOUS
 10
-71.809975
 20
14.750132
 11
-71.809975
 21
10.263242
  0
LINE
  8
型材断面
  6
CONTINUOUS
 10
-21.876465
 20
12.506688
 11
-17.990705
 21
10.263242
  0
LINE
  8
型材断面
  6
CONTINUOUS
 10
-21.876465
 20
12.506688
 11
-17.990705
 21
14.750132
  0
LINE
  8
型材断面
  6
CONTINUOUS
 10
-17.990705
 20
14.750132
 11
-17.990705
 21
10.263242
  0
LINE
  8
型材断面
  6
CONTINUOUS
 10
-44.900342
 20
35.53056
 11
-47.143787
 21
39.41632
  0
LINE
  8
型材断面
  6
CONTINUOUS
 10
-44.900342
 20
35.53056
 11
-42.656898
 21
39.41632
  0
LINE
  8
型材断面
  6
CONTINUOUS
 10
-42.656898
 20
39.41632
 11
-47.143787
 21
39.41632
  0
LINE
  8
型材断面
  6
CONTINUOUS
 10
-44.900342
 20
-10.51719
 11
-47.143787
 21
-14.40295
  0
LINE
  8
型材断面
  6
CONTINUOUS
 10
-44.900342
 20
-10.51719
 11
-42.656898
 21
-14.40295
  0
LINE
  8
型材断面
  6
CONTINUOUS
 10
-42.656898
 20
-14.40295
 11
-47.143787
 21
-14.40295
  0
LINE
  8
型材断面
  6
DOT
 10
-34.236823
 20
-2.493312
 11
-34.236823
 21
27.50669
  0
LINE
  8
型材断面
  6
DOT
 10
-32.236823
 20
-2.493312
 11
-32.236823
 21
27.50669
  0
LINE
  8
型材断面
  6
CONTINUOUS
 10
4.208893
 20
-2.040128
 11
1.965447
 21
-5.925888
  0
LINE
  8
型材断面
  6
CONTINUOUS
 10
4.208893
 20
-2.040128
 11
6.452338
 21
-5.925888
  0
LINE
  8
型材断面
  6
CONTINUOUS
 10
6.452338
 20
-5.925888
 11
1.965447
 21
-5.925888
  0
LINE
  8
型材断面
  6
CONTINUOUS
 10
-4.824988
 20
-7.33378
 11
47.831692
 21
-7.33378
  0
LINE
  8
型材断面
  6
CONTINUOUS
 10
-63.874572
 20
-66.124723
 11
-64.175342
 21
-66.425495
  0
LINE
  8
型材断面
  6
CONTINUOUS
 10
-64.175342
 20
-67.77169
 11
-64.175342
 21
-66.425495
  0
LINE
  8
型材断面
  6
CONTINUOUS
 62
    47
 10
-64.175342
 20
-68.47169
 11
-64.175342
 21
-67.77169
  0
LINE
  8
型材断面
  6
CONTINUOUS
 62
    47
 10
-63.500342
 20
-68.47169
 11
-63.500342
 21
-68.97169
  0
LINE
  8
型材断面
  6
CONTINUOUS
 62
    47
 10
-62.53107
 20
-64.78122
 11
-63.874572
 21
-66.124723
  0
LINE
  8
型材断面
  6
CONTINUOUS
 10
-62.177517
 20
-64.427668
 11
-58.627613
 21
-64.427668
  0
LINE
  8
型材断面
  6
CONTINUOUS
 10
-62.531067
 20
-64.78122
 11
-44.900342
 21
-47.150495
  0
LINE
  8
型材断面
  6
CONTINUOUS
 10
-62.53107
 20
-64.78122
 11
-44.900342
 21
-64.78122
  0
LINE
  8
型材断面
  6
CONTINUOUS
 10
-63.874572
 20
-66.124723
 11
-44.900342
 21
-66.124723
  0
LINE
  8
型材断面
  6
CONTINUOUS
 10
-64.175342
 20
-68.47169
 11
-44.900342
 21
-68.47169
  0
LINE
  8
型材断面
  6
CONTINUOUS
 10
-64.175342
 20
-67.77169
 11
-44.900342
 21
-67.77169
  0
LINE
  8
型材断面
  6
CONTINUOUS
 10
-63.52102
 20
-65.77117
 11
-44.900342
 21
-65.77117
  0
LINE
  8
型材断面
  6
CONTINUOUS
 10
-64.175342
 20
-66.425495
 11
-44.900342
 21
-66.425495
  0
LINE
  8
型材断面
  6
CONTINUOUS
 10
-63.500342
 20
-68.97169
 11
-44.900342
 21
-68.97169
  0
LINE
  8
型材断面
  6
CONTINUOUS
 10
-25.926112
 20
-66.124723
 11
-25.625342
 21
-66.425495
  0
LINE
  8
型材断面
  6
CONTINUOUS
 10
-25.625342
 20
-67.77169
 11
-25.625342
 21
-66.425495
  0
LINE
  8
型材断面
  6
CONTINUOUS
 62
    47
 10
-25.625342
 20
-68.47169
 11
-25.625342
 21
-67.77169
  0
LINE
  8
型材断面
  6
CONTINUOUS
 62
    47
 10
-26.300342
 20
-68.47169
 11
-26.300342
 21
-68.97169
  0
LINE
  8
型材断面
  6
CONTINUOUS
 62
    47
 10
-27.269618
 20
-64.78122
 11
-25.926112
 21
-66.124723
  0
LINE
  8
型材断面
  6
CONTINUOUS
 10
-27.62317
 20
-64.427668
 11
-31.173075
 21
-64.427668
  0
LINE
  8
型材断面
  6
CONTINUOUS
 10
-27.269618
 20
-64.78122
 11
-44.900342
 21
-47.150495
  0
LINE
  8
型材断面
  6
CONTINUOUS
 10
-27.269618
 20
-64.78122
 11
-44.900342
 21
-64.78122
  0
LINE
  8
型材断面
  6
CONTINUOUS
 10
-25.926112
 20
-66.124723
 11
-44.900342
 21
-66.124723
  0
LINE
  8
型材断面
  6
CONTINUOUS
 10
-25.625342
 20
-68.47169
 11
-44.900342
 21
-68.47169
  0
LINE
  8
型材断面
  6
CONTINUOUS
 10
-25.625342
 20
-67.77169
 11
-44.900342
 21
-67.77169
  0
LINE
  8
型材断面
  6
CONTINUOUS
 10
-26.279667
 20
-65.77117
 11
-44.900342
 21
-65.77117
  0
LINE
  8
型材断面
  6
CONTINUOUS
 10
-25.625342
 20
-66.425495
 11
-44.900342
 21
-66.425495
  0
LINE
  8
型材断面
  6
CONTINUOUS
 10
-26.300342
 20
-68.97169
 11
-44.900342
 21
-68.97169
  0
LINE
  8
型材断面
  6
CONTINUOUS
 10
-40.650342
 20
-51.29453
 11
-44.900342
 21
-51.29453
  0
LINE
  8
型材断面
  6
CONTINUOUS
 10
-49.15034
 20
-51.29453
 11
-44.900342
 21
-51.29453
  0
LINE
  8
型材断面
  6
CONTINUOUS
 10
-49.097358
 20
-51.347512
 11
-44.900342
 21
-51.347512
  0
LINE
  8
型材断面
  6
CONTINUOUS
 10
-44.900342
 20
-47.04453
 11
-40.650342
 21
-51.29453
  0
LINE
  8
型材断面
  6
CONTINUOUS
 10
-44.900342
 20
-47.04453
 11
-49.15034
 21
-51.29453
  0
LINE
  8
型材断面
  6
CONTINUOUS
 10
-40.703327
 20
-51.347512
 11
-44.900342
 21
-51.347512
  0
LINE
  8
型材断面
  6
CONTINUOUS
 10
-49.15034
 20
-51.29453
 11
-49.097358
 21
-51.347512
  0
LINE
  8
型材断面
  6
CONTINUOUS
 10
-40.703327
 20
-51.347512
 11
-40.650342
 21
-51.29453
  0
LINE
  8
型材断面
  6
CONTINUOUS
 10
-58.910455
 20
-64.427668
 11
-45.8303
 21
-51.347512
  0
LINE
  8
型材断面
  6
CONTINUOUS
 10
-58.627613
 20
-64.427668
 11
-45.547458
 21
-51.347512
  0
LINE
  8
型材断面
  6
CONTINUOUS
 10
-30.890233
 20
-64.427668
 11
-43.970385
 21
-51.347512
  0
LINE
  8
型材断面
  6
CONTINUOUS
 10
-31.173075
 20
-64.427668
 11
-44.253227
 21
-51.347512
  0
LINE
  8
型材断面
  6
CONTINUOUS
 10
-27.976725
 20
-64.427668
 11
-41.05688
 21
-51.347512
  0
LINE
  8
型材断面
  6
CONTINUOUS
 10
-61.82396
 20
-64.427668
 11
-48.743808
 21
-51.347512
  0
LINE
  8
型材断面
  6
DASHDOT
 10
-29.900342
 20
-2.493312
 11
-29.900342
 21
-75.94669
  0
LINE
  8
型材断面
  6
DASHDOT
 10
-44.900342
 20
12.506688
 11
-44.900342
 21
-75.94669
  0
LINE
  8
型材断面
  6
DASHDOT
 10
-59.900342
 20
-2.493312
 11
-59.900342
 21
-75.94669
  0
LINE
  8
型材断面
  6
CONTINUOUS
 10
-4.824988
 20
-14.173725
 11
47.831692
 21
-14.173725
  0
LINE
  8
型材断面
  6
CONTINUOUS
 10
99.83635
 20
-56.921342
 11
123.767973
 21
-56.921342
  0
LINE
  8
ガラス
  6
CONTINUOUS
 10
-43.012637
 20
25.895655
 11
-46.885272
 21
22.02302
  0
LINE
  8
ガラス
  6
CONTINUOUS
 10
-43.89296
 20
24.297298
 11
-45.286915
 21
22.903342
  0
LINE
  8
ガラス
  6
CONTINUOUS
 10
-44.610995
 20
25.015332
 11
-46.00495
 21
23.621378
  0
LINE
  8
ガラス
  6
CONTINUOUS
 10
-43.012637
 20
1.810188
 11
-46.885272
 21
-2.062447
  0
LINE
  8
ガラス
  6
CONTINUOUS
 10
-43.89296
 20
0.21183
 11
-45.286915
 21
-1.182125
  0
LINE
  8
ガラス
  6
CONTINUOUS
 10
-44.610995
 20
0.929865
 11
-46.00495
 21
-0.46409
  0
LINE
  8
ガラス
  6
CONTINUOUS
 10
-30.5525
 20
14.462183
 11
-34.425135
 21
10.589547
  0
LINE
  8
ガラス
  6
CONTINUOUS
 10
-31.432823
 20
12.863825
 11
-32.826778
 21
11.46987
  0
LINE
  8
ガラス
  6
CONTINUOUS
 10
-32.150857
 20
13.58186
 11
-33.544812
 21
12.187905
  0
LINE
  8
ガラス
  6
CONTINUOUS
 10
-55.181337
 20
14.462183
 11
-59.053972
 21
10.589547
  0
LINE
  8
ガラス
  6
CONTINUOUS
 10
-56.06166
 20
12.863825
 11
-57.455615
 21
11.46987
  0
LINE
  8
ガラス
  6
CONTINUOUS
 10
-56.779695
 20
13.58186
 11
-58.17365
 21
12.187905
  0
LINE
  8
ガラス
  6
CONTINUOUS
 10
-43.012637
 20
-57.949333
 11
-46.885272
 21
-61.821968
  0
LINE
  8
ガラス
  6
CONTINUOUS
 10
-43.89296
 20
-59.54769
 11
-45.286915
 21
-60.941645
  0
LINE
  8
ガラス
  6
CONTINUOUS
 10
-44.610995
 20
-58.829655
 11
-46.00495
 21
-60.22361
  0
TEXT
  7
TextStyle03
  8
文字
  6
CONTINUOUS
 10
8.45
 20
-5.6
  1
は排水穴位置を示す
 40
3.0
 72
     5
 11
38.45
 21
-5.6
  0
TEXT
  7
TextStyle03
  8
文字
  6
CONTINUOUS
 10
2.85
 20
-12.8
  1
アンカー数量　４ヶ所
 40
3.0
 72
     5
 11
36.225
 21
-12.8
  0
TEXT
  7
TextStyle03
  8
文字
  6
CONTINUOUS
 10
-66.325
 20
53.925
  1
アンカーピッチ
 40
3.0
 72
     5
 11
-43.075
 21
53.925
  0
TEXT
  7
TextStyle03
  8
文字
  6
CONTINUOUS
 10
65.95
 20
93.175
  1
ＮＳコード：ＮＳ４ＣＫＳ
 40
5.0
 72
     5
 11
132.825
 21
93.175
  0
TEXT
  7
TextStyle03
  8
文字
  6
CONTINUOUS
 10
103.425
 20
-55.7
  1
ガラス寸法
 40
3.0
 72
     5
 11
119.925
 21
-55.7
  0
TEXT
  7
TextStyle03
  8
文字
  6
CONTINUOUS
 10
134.0
 20
-75.25
  1
×４枚
 40
3.0
 72
     5
 11
143.75
 21
-75.25
  0
TEXT
  7
TextStyle03
  8
文字
  6
CONTINUOUS
 10
66.275
 20
119.025
  1
シリーズ：ＳＴＦ４Ｋ
 40
5.0
 72
     5
 11
121.9
 21
119.025
  0
TEXT
  7
TextStyle03
  8
文字
  6
CONTINUOUS
 10
66.275
 20
113.4
  1
　　　　　四角錘（固定）600×600タイプ
 40
5.0
 72
     5
 11
172.525
 21
113.4
  0
TEXT
  7
TextStyle03
  8
文字
  6
CONTINUOUS
 10
66.275
 20
107.775
  1
　　　　　ペアガラス仕様
 40
5.0
 72
     5
 11
133.15
 21
107.775
  0
TEXT
  7
TextStyle03
  8
文字
  6
CONTINUOUS
 10
66.275
 20
102.15
  1
図面名　：外観姿図
 40
5.0
 72
     5
 11
116.275
 21
102.15
  0
TEXT
  7
TextStyle03
  8
文字
  6
CONTINUOUS
 10
66.275
 20
96.525
  1
　　　　　　
 40
5.0
 72
     5
 11
99.4
 21
96.525
  0
INSERT
  2
*DIM_0002
  8
寸法
  6
CONTINUOUS
 10
0.0
 20
0.0
  0
INSERT
  2
*DIM_0003
  8
寸法
  6
CONTINUOUS
 10
0.0
 20
0.0
  0
INSERT
  2
*DIM_0004
  8
寸法
  6
CONTINUOUS
 10
0.0
 20
0.0
  0
INSERT
  2
*DIM_0005
  8
寸法
  6
CONTINUOUS
 10
0.0
 20
0.0
  0
INSERT
  2
*DIM_0006
  8
寸法
  6
CONTINUOUS
 10
0.0
 20
0.0
  0
INSERT
  2
*DIM_0007
  8
寸法
  6
CONTINUOUS
 10
0.0
 20
0.0
  0
INSERT
  2
*DIM_0008
  8
寸法
  6
CONTINUOUS
 10
0.0
 20
0.0
  0
INSERT
  2
*DIM_0009
  8
寸法
  6
CONTINUOUS
 10
0.0
 20
0.0
  0
INSERT
  2
*DIM_0010
  8
寸法
  6
CONTINUOUS
 10
0.0
 20
0.0
  0
INSERT
  2
*DIM_0011
  8
寸法
  6
CONTINUOUS
 10
0.0
 20
0.0
  0
LINE
  8
曲げ物
  6
CONTINUOUS
 10
149.378162
 20
-77.399633
 11
117.758163
 21
-77.399633
  0
LINE
  8
曲げ物
  6
CONTINUOUS
 10
117.758163
 20
-77.399633
 11
133.568162
 21
-55.04101
  0
LINE
  8
曲げ物
  6
CONTINUOUS
 10
149.378162
 20
-77.399633
 11
133.568162
 21
-55.04101
  0
ENDSEC
  0
EOF
