  0
SECTION
  2
HEADER
  9
$EXTMIN
 10
-210.0
 20
-148.5
  9
$EXTMAX
 10
210.0
 20
148.5
  9
$PDMODE
 70
    32
  9
$PDSIZE
 40
1.5
  9
$LTSCALE
 40
10.0
  0
ENDSEC
  0
SECTION
  2
TABLES
  0
TABLE
  2
LTYPE
 70
    15
  0
LTYPE
  2
CONTINUOUS
 70
    64
  3
実線
 72
    65
 73
     0
 40
0.0
  0
LTYPE
  2
DASHED
 70
    64
  3
破線A
 72
    65
 73
     2
 40
0.6
 49
0.4
 49
-0.2
  0
LTYPE
  2
DASHEDX2
 70
    64
  3
破線B
 72
    65
 73
     2
 40
1.3
 49
0.9
 49
-0.4
  0
LTYPE
  2
DASHDOT
 70
    64
  3
１点鎖線A
 72
    65
 73
     4
 40
0.5375
 49
0.375
 49
-0.05
 49
0.0625
 49
-0.05
  0
LTYPE
  2
DASHDOTX2
 70
    64
  3
１点鎖線B
 72
    65
 73
     4
 40
1.075
 49
0.75
 49
-0.1
 49
0.125
 49
-0.1
  0
LTYPE
  2
DIVIDE2
 70
    64
  3
２点鎖線A
 72
    65
 73
     6
 40
0.5125
 49
0.3
 49
-0.0375
 49
0.05
 49
-0.0375
 49
0.05
 49
-0.0375
  0
LTYPE
  2
DIVIDE
 70
    64
  3
２点鎖線B
 72
    65
 73
     6
 40
1.05
 49
0.55
 49
-0.1
 49
0.1
 49
-0.1
 49
0.1
 49
-0.1
  0
LTYPE
  2
DOT
 70
    64
  3
点線A
 72
    65
 73
     2
 40
0.1125
 49
0.0625
 49
-0.05
  0
LTYPE
  2
DOTX2
 70
    64
  3
点線B
 72
    65
 73
     2
 40
0.275
 49
0.15
 49
-0.125
  0
LTYPE
  2
CONTINUOUS
 70
    64
  3
実線
 72
    65
 73
     0
 40
0.0
  0
LTYPE
  2
CONTINUOUS
 70
    64
  3
実線
 72
    65
 73
     0
 40
0.0
  0
LTYPE
  2
CONTINUOUS
 70
    64
  3
実線
 72
    65
 73
     0
 40
0.0
  0
LTYPE
  2
CONTINUOUS
 70
    64
  3
実線
 72
    65
 73
     0
 40
0.0
  0
LTYPE
  2
CONTINUOUS
 70
    64
  3
実線
 72
    65
 73
     0
 40
0.0
  0
LTYPE
  2
CONTINUOUS
 70
    64
  3
実線
 72
    65
 73
     0
 40
0.0
  0
ENDTAB
  0
TABLE
  2
LAYER
 70
    34
  0
LAYER
  2
通り芯
 70
     0
 62
    15
  6
CONTINUOUS
  0
LAYER
  2
補助線
 70
     0
 62
    16
  6
DOT
  0
LAYER
  2
躯体
 70
     0
 62
    31
  6
CONTINUOUS
  0
LAYER
  2
型材
 70
     0
 62
    32
  6
CONTINUOUS
  0
LAYER
  2
型材断面
 70
     0
 62
    47
  6
CONTINUOUS
  0
LAYER
  2
ガラス
 70
     0
 62
    48
  6
CONTINUOUS
  0
LAYER
  2
ゴム等
 70
     0
 62
    63
  6
CONTINUOUS
  0
LAYER
  2
ボルト／ビス
 70
     0
 62
    64
  6
CONTINUOUS
  0
LAYER
  2
文字
 70
     0
 62
    79
  6
CONTINUOUS
  0
LAYER
  2
寸法
 70
     0
 62
    80
  6
CONTINUOUS
  0
LAYER
  2
ﾊｯﾁﾝｸﾞ
 70
     0
 62
    95
  6
CONTINUOUS
  0
LAYER
  2
別途部材
 70
     0
 62
    96
  6
CONTINUOUS
  0
LAYER
  2
曲げ物
 70
     0
 62
   111
  6
CONTINUOUS
  0
LAYER
  2
鉄骨等
 70
     0
 62
   112
  6
CONTINUOUS
  0
LAYER
  2
St
 70
     0
 62
   127
  6
CONTINUOUS
  0
LAYER
  2
その他部品等
 70
     0
 62
   128
  6
CONTINUOUS
  0
LAYER
  2
ｶﾞｽｹｯﾄ
 70
     0
 62
   143
  6
CONTINUOUS
  0
LAYER
  2
ｽｹｯﾁ
 70
     0
 62
    14
  6
CONTINUOUS
  0
LAYER
  2
0
 70
     0
 62
    17
  6
CONTINUOUS
  0
LAYER
  2
1
 70
     0
 62
    30
  6
CONTINUOUS
  0
LAYER
  2
4
 70
     0
 62
    33
  6
CONTINUOUS
  0
LAYER
  2
ﾚｲﾔ3
 70
     0
 62
    46
  6
CONTINUOUS
  0
LAYER
  2
外形線
 70
     0
 62
    49
  6
CONTINUOUS
  0
LAYER
  2
部品
 70
     0
 62
    14
  6
CONTINUOUS
  0
LAYER
  2
サッシ芯
 70
     0
 62
    17
  6
DASHDOTX2
  0
LAYER
  2
寸法線
 70
     0
 62
    62
  6
CONTINUOUS
  0
LAYER
  2
姿図外形線
 70
     0
 62
    65
  6
CONTINUOUS
  0
LAYER
  2
姿補助線
 70
     0
 62
    30
  6
CONTINUOUS
  0
LAYER
  2
透視線
 70
     0
 62
    78
  6
DOT
  0
LAYER
  2
用紙
 70
     0
 62
    81
  6
CONTINUOUS
  0
LAYER
  2
実線図枠
 70
     0
 62
    94
  6
CONTINUOUS
  0
LAYER
  2
補助図枠
 70
     0
 62
    97
  6
CONTINUOUS
  0
LAYER
  2
建具記号
 70
     0
 62
   110
  6
CONTINUOUS
  0
LAYER
  2
補助文字
 70
     0
 62
   113
  6
CONTINUOUS
  0
ENDTAB
  0
TABLE
  2
STYLE
 70
    10
  0
STYLE
  2
STANDARD
 70
     0
 40
1.0
 41
1.0
 42
1.0
 50
0.0
 71
     0
  3
TXT
  4
BIGFONT
  0
STYLE
  2
TATE
 70
     4
 40
1.0
 41
1.0
 42
1.0
 50
0.0
 71
     0
  3
TXT
  4
BIGFONT
  0
STYLE
  2
TextStyle03
 70
     0
 40
1.0
 41
1.0
 42
1.0
 50
0.0
 71
     0
  3
MONOTXT
  4
BIGFONT
  0
STYLE
  2
TextStyle04
 70
     0
 40
1.0
 41
1.0
 42
1.0
 50
0.0
 71
     0
  3
MONOTXT
  4
BIGFONT
  0
STYLE
  2
TextStyle05
 70
     0
 40
1.0
 41
1.0
 42
1.0
 50
0.0
 71
     0
  3
MONOTXT
  4
BIGFONT
  0
STYLE
  2
TextStyle06
 70
     0
 40
1.0
 41
1.0
 42
1.0
 50
0.0
 71
     0
  3
MONOTXT
  4
BIGFONT
  0
STYLE
  2
TextStyle07
 70
     0
 40
1.0
 41
1.0
 42
1.0
 50
0.0
 71
     0
  3
MONOTXT
  4
BIGFONT
  0
STYLE
  2
TextStyle08
 70
     0
 40
1.0
 41
1.0
 42
1.0
 50
0.0
 71
     0
  3
MONOTXT
  4
BIGFONT
  0
STYLE
  2
TextStyle09
 70
     0
 40
1.0
 41
1.0
 42
1.0
 50
0.0
 71
     0
  3
MONOTXT
  4
BIGFONT
  0
STYLE
  2
TextStyle10
 70
     0
 40
1.0
 41
1.0
 42
1.0
 50
0.0
 71
     0
  3
MONOTXT
  4
BIGFONT
  0
ENDTAB
  0
ENDSEC
  0
SECTION
  2
BLOCKS
  0
BLOCK
  2
*GRP_0001
 70
    65
 10
0.0
 20
0.0
  0
LINE
  8
型材断面
  6
CONTINUOUS
 10
195.0
 20
133.5
 11
195.0
 21
-133.5
  0
LINE
  8
型材断面
  6
CONTINUOUS
 10
195.0
 20
-133.5
 11
-185.0
 21
-133.5
  0
LINE
  8
型材断面
  6
CONTINUOUS
 10
-185.0
 20
-133.5
 11
-185.0
 21
133.5
  0
LINE
  8
型材断面
  6
CONTINUOUS
 10
195.0
 20
133.5
 11
-185.0
 21
133.5
  0
LINE
  8
型材断面
  6
CONTINUOUS
 10
145.0
 20
-133.5
 11
145.0
 21
-118.5
  0
LINE
  8
型材断面
  6
CONTINUOUS
 10
195.0
 20
-118.5
 11
145.0
 21
-118.5
  0
ENDBLK
  0
BLOCK
  2
*DIM_0002
 70
    65
 10
0.0
 20
0.0
  0
LINE
  8
寸法
  6
BYBLOCK
 62
     0
 10
-72.146997
 20
-25.570405
 11
-72.146997
 21
-24.904732
  0
LINE
  8
寸法
  6
BYBLOCK
 62
     0
 10
-42.146997
 20
-25.570405
 11
-42.146997
 21
-24.904732
  0
LINE
  8
寸法
  6
BYBLOCK
 62
     0
 10
-72.146997
 20
-24.904732
 11
-42.146997
 21
-24.904732
  0
POINT
  8
寸法
 62
     0
 10
-72.146997
 20
-24.904732
  0
POINT
  8
寸法
 62
     0
 10
-42.146997
 20
-24.904732
  0
TEXT
  7
TextStyle03
  8
寸法
  6
CONTINUOUS
 62
     0
 10
-68.025
 20
-24.575
  1
呼称寸法　600
 40
3.0
 72
     5
 11
-46.275
 21
-24.575
  0
ENDBLK
  0
BLOCK
  2
*DIM_0003
 70
    65
 10
0.0
 20
0.0
  0
LINE
  8
寸法
  6
BYBLOCK
 62
     0
 10
-37.871997
 20
-61.66373
 11
-37.871997
 21
-24.904732
  0
LINE
  8
寸法
  6
BYBLOCK
 62
     0
 10
-42.146997
 20
-24.904732
 11
-37.871997
 21
-24.904732
  0
POINT
  8
寸法
 62
     0
 10
-37.871997
 20
-24.904732
  0
TEXT
  7
TextStyle03
  8
寸法
  6
CONTINUOUS
 62
     0
 10
-36.55625
 20
-24.575
  1
85.5
 40
3.0
 72
     5
 11
-29.99375
 21
-24.575
  0
ENDBLK
  0
BLOCK
  2
*DIM_0004
 70
    65
 10
0.0
 20
0.0
  0
LINE
  8
寸法
  6
BYBLOCK
 62
     0
 10
-76.421998
 20
-61.66373
 11
-76.421998
 21
-24.904732
  0
LINE
  8
寸法
  6
BYBLOCK
 62
     0
 10
-72.146997
 20
-24.904732
 11
-76.421998
 21
-24.904732
  0
POINT
  8
寸法
 62
     0
 10
-72.146997
 20
-24.904732
  0
POINT
  8
寸法
 62
     0
 10
-76.421998
 20
-24.904732
  0
TEXT
  7
TextStyle03
  8
寸法
  6
CONTINUOUS
 62
     0
 10
-84.33125
 20
-24.575
  1
85.5
 40
3.0
 72
     5
 11
-77.76875
 21
-24.575
  0
ENDBLK
  0
BLOCK
  2
*DIM_0005
 70
    65
 10
0.0
 20
0.0
  0
LINE
  8
寸法
  6
BYBLOCK
 62
     0
 10
-56.146997
 20
-43.282765
 11
-20.01811
 21
-43.282765
  0
LINE
  8
寸法
  6
BYBLOCK
 62
     0
 10
-20.01811
 20
-62.66373
 11
-20.01811
 21
-43.282765
  0
POINT
  8
寸法
 62
     0
 10
-20.01811
 20
-62.66373
  0
POINT
  8
寸法
 62
     0
 10
-20.01811
 20
-43.282765
  0
TEXT
  7
TextStyle03
  8
寸法
  6
CONTINUOUS
 62
     0
 10
-20.4
 20
-57.125
  1
387.6
 40
3.0
 50
90.0
 72
     5
 11
-20.4
 21
-48.875
  0
ENDBLK
  0
BLOCK
  2
*DIM_0006
 70
    65
 10
0.0
 20
0.0
  0
LINE
  8
寸法
  6
BYBLOCK
 62
     0
 10
-61.396995
 20
-46.532765
 11
-61.396995
 21
-36.683587
  0
LINE
  8
寸法
  6
BYBLOCK
 62
     0
 10
-52.896997
 20
-46.532765
 11
-52.896997
 21
-36.683587
  0
LINE
  8
寸法
  6
BYBLOCK
 62
     0
 10
-61.396995
 20
-36.683587
 11
-52.896997
 21
-36.683587
  0
POINT
  8
寸法
 62
     0
 10
-61.396995
 20
-36.683587
  0
POINT
  8
寸法
 62
     0
 10
-52.896997
 20
-36.683587
  0
TEXT
  7
TextStyle03
  8
寸法
  6
CONTINUOUS
 62
     0
 10
-59.5875
 20
-36.35
  1
170
 40
3.0
 72
     5
 11
-54.7125
 21
-36.35
  0
ENDBLK
  0
BLOCK
  2
*DIM_0007
 70
    65
 10
0.0
 20
0.0
  0
LINE
  8
寸法
  6
BYBLOCK
 62
     0
 10
-46.108528
 20
-43.282765
 11
-47.052805
 21
-43.282765
  0
LINE
  8
寸法
  6
BYBLOCK
 62
     0
 10
-51.896997
 20
-47.532765
 11
-47.052805
 21
-47.532765
  0
LINE
  8
寸法
  6
BYBLOCK
 62
     0
 10
-47.052805
 20
-43.282765
 11
-47.052805
 21
-47.532765
  0
POINT
  8
寸法
 62
     0
 10
-47.052805
 20
-43.282765
  0
POINT
  8
寸法
 62
     0
 10
-47.052805
 20
-47.532765
  0
TEXT
  7
TextStyle03
  8
寸法
  6
CONTINUOUS
 62
     0
 10
-47.425
 20
-47.04375
  1
85
 40
3.0
 50
90.0
 72
     5
 11
-47.425
 21
-43.85625
  0
ENDBLK
  0
BLOCK
  2
*DIM_0008
 70
    65
 10
0.0
 20
0.0
  0
LINE
  8
寸法
  6
BYBLOCK
 62
     0
 10
-36.871997
 20
-62.66373
 11
-20.01811
 21
-62.66373
  0
LINE
  8
寸法
  6
BYBLOCK
 62
     0
 10
-36.871997
 20
-63.932107
 11
-20.01811
 21
-63.932107
  0
LINE
  8
寸法
  6
BYBLOCK
 62
     0
 10
-20.01811
 20
-62.66373
 11
-20.01811
 21
-63.932107
  0
POINT
  8
寸法
 62
     0
 10
-20.01811
 20
-62.66373
  0
POINT
  8
寸法
 62
     0
 10
-20.01811
 20
-63.932107
  0
TEXT
  7
TextStyle03
  8
寸法
  6
CONTINUOUS
 62
     0
 10
-17.025
 20
-66.58125
  1
25.5
 40
3.0
 50
90.0
 72
     5
 11
-17.025
 21
-60.01875
  0
ENDBLK
  0
BLOCK
  2
*DIM_0009
 70
    65
 10
0.0
 20
0.0
  0
LINE
  8
寸法
  6
BYBLOCK
 62
     0
 10
-67.146995
 20
46.952225
 11
-67.146995
 21
66.541405
  0
LINE
  8
寸法
  6
BYBLOCK
 62
     0
 10
-47.146995
 20
46.952225
 11
-47.146995
 21
66.541405
  0
LINE
  8
寸法
  6
BYBLOCK
 62
     0
 10
-67.146995
 20
66.541405
 11
-47.146995
 21
66.541405
  0
POINT
  8
寸法
 62
     0
 10
-67.146995
 20
66.541405
  0
POINT
  8
寸法
 62
     0
 10
-47.146995
 20
66.541405
  0
TEXT
  7
TextStyle03
  8
寸法
  6
CONTINUOUS
 62
     0
 10
-59.6125
 20
66.925
  1
400
 40
3.0
 72
     5
 11
-54.7375
 21
66.925
  0
ENDBLK
  0
BLOCK
  2
*DIM_0010
 70
    65
 10
0.0
 20
0.0
  0
LINE
  8
寸法
  6
BYBLOCK
 62
     0
 10
118.243162
 20
-80.399633
 11
118.243162
 21
-96.335115
  0
LINE
  8
寸法
  6
BYBLOCK
 62
     0
 10
149.378162
 20
-80.399633
 11
149.378162
 21
-96.335115
  0
LINE
  8
寸法
  6
BYBLOCK
 62
     0
 10
118.243162
 20
-96.335115
 11
149.378162
 21
-96.335115
  0
POINT
  8
寸法
 62
     0
 10
118.243162
 20
-96.335115
  0
POINT
  8
寸法
 62
     0
 10
149.378162
 20
-96.335115
  0
TEXT
  7
TextStyle03
  8
寸法
  6
CONTINUOUS
 62
     0
 10
129.675
 20
-95.975
  1
622.7
 40
3.0
 72
     5
 11
137.925
 21
-95.975
  0
ENDBLK
  0
BLOCK
  2
*DIM_0011
 70
    65
 10
0.0
 20
0.0
  0
LINE
  8
寸法
  6
BYBLOCK
 62
     0
 10
152.378162
 20
-77.399633
 11
165.112393
 21
-77.399633
  0
LINE
  8
寸法
  6
BYBLOCK
 62
     0
 10
136.810663
 20
-55.383955
 11
165.112393
 21
-55.383955
  0
LINE
  8
寸法
  6
BYBLOCK
 62
     0
 10
165.112393
 20
-77.399633
 11
165.112393
 21
-55.383955
  0
POINT
  8
寸法
 62
     0
 10
165.112393
 20
-77.399633
  0
POINT
  8
寸法
 62
     0
 10
165.112393
 20
-55.383955
  0
TEXT
  7
TextStyle03
  8
寸法
  6
CONTINUOUS
 62
     0
 10
164.725
 20
-70.525
  1
440.3
 40
3.0
 50
90.0
 72
     5
 11
164.725
 21
-62.275
  0
ENDBLK
  0
ENDSEC
  0
SECTION
  2
ENTITIES
  0
POLYLINE
  8
通り芯
  6
CONTINUOUS
 66
     1
 70
     1
  0
VERTEX
  8
通り芯
 10
-210.0
 20
-148.5
  0
VERTEX
  8
通り芯
 10
210.0
 20
-148.5
  0
VERTEX
  8
通り芯
 10
210.0
 20
148.5
  0
VERTEX
  8
通り芯
 10
-210.0
 20
148.5
  0
SEQEND
  0
INSERT
  2
*GRP_0001
  8
型材断面
  6
CONTINUOUS
 10
0.0
 20
0.0
  0
LINE
  8
型材断面
  6
CONTINUOUS
 10
-76.421998
 20
50.227223
 11
-69.271997
 21
43.077223
  0
LINE
  8
型材断面
  6
CONTINUOUS
 10
-71.528932
 20
47.769778
 11
-73.964552
 21
47.769778
  0
LINE
  8
型材断面
  6
CONTINUOUS
 10
-73.964552
 20
45.334158
 11
-73.964552
 21
47.769778
  0
LINE
  8
型材断面
  6
DASHDOT
 10
-72.146997
 20
45.952223
 11
-72.146997
 21
30.952223
  0
LINE
  8
型材断面
  6
CONTINUOUS
 10
-76.421998
 20
50.227223
 11
-76.421998
 21
30.952223
  0
LINE
  8
型材断面
  6
CONTINUOUS
 10
-75.378765
 20
49.18399
 11
-75.378765
 21
30.952223
  0
LINE
  8
型材断面
  6
CONTINUOUS
 10
-75.025212
 20
48.830437
 11
-75.025212
 21
30.952223
  0
LINE
  8
型材断面
  6
CONTINUOUS
 10
-74.035263
 20
47.840488
 11
-74.035263
 21
30.952223
  0
LINE
  8
型材断面
  6
CONTINUOUS
 10
-74.318105
 20
48.12333
 11
-74.318105
 21
30.952223
  0
LINE
  8
型材断面
  6
DASHDOT
 10
-72.146997
 20
45.952223
 11
-57.146997
 21
45.952223
  0
LINE
  8
型材断面
  6
CONTINUOUS
 10
-76.421998
 20
50.227223
 11
-57.146997
 21
50.227223
  0
LINE
  8
型材断面
  6
CONTINUOUS
 10
-75.378765
 20
49.18399
 11
-57.146997
 21
49.18399
  0
LINE
  8
型材断面
  6
CONTINUOUS
 10
-75.025212
 20
48.830437
 11
-57.146997
 21
48.830437
  0
LINE
  8
型材断面
  6
CONTINUOUS
 10
-74.318105
 20
48.12333
 11
-57.146997
 21
48.12333
  0
LINE
  8
型材断面
  6
CONTINUOUS
 10
-74.035263
 20
47.840488
 11
-57.146997
 21
47.840488
  0
LINE
  8
型材断面
  6
CONTINUOUS
 10
-57.146997
 20
35.202223
 11
-61.396997
 21
35.202223
  0
LINE
  8
型材断面
  6
CONTINUOUS
 10
-61.396997
 20
30.952223
 11
-61.396997
 21
35.202223
  0
LINE
  8
型材断面
  6
CONTINUOUS
 10
-61.396997
 20
35.202223
 11
-57.146997
 21
30.952223
  0
LINE
  8
型材断面
  6
CONTINUOUS
 10
-73.964552
 20
45.334158
 11
-61.396997
 21
32.766603
  0
LINE
  8
型材断面
  6
CONTINUOUS
 10
-73.964552
 20
47.416225
 11
-61.396997
 21
34.84867
  0
LINE
  8
型材断面
  6
CONTINUOUS
 10
-73.610998
 20
47.769778
 11
-61.043445
 21
35.202223
  0
LINE
  8
型材断面
  6
CONTINUOUS
 10
-71.528932
 20
47.769778
 11
-58.961377
 21
35.202223
  0
LINE
  8
型材断面
  6
DASHDOT
 10
-72.146997
 20
45.952223
 11
-57.146997
 21
30.952223
  0
LINE
  8
型材断面
  6
DASHDOT
 10
-57.146997
 20
45.952223
 11
-57.146997
 21
30.952223
  0
LINE
  8
型材断面
  6
DASHDOT
 10
-72.146997
 20
30.952223
 11
-57.146997
 21
30.952223
  0
LINE
  8
型材断面
  6
CONTINUOUS
 10
-37.871997
 20
50.227223
 11
-45.021997
 21
43.077223
  0
LINE
  8
型材断面
  6
CONTINUOUS
 10
-42.765065
 20
47.769778
 11
-40.329445
 21
47.769778
  0
LINE
  8
型材断面
  6
CONTINUOUS
 10
-40.329445
 20
45.334158
 11
-40.329445
 21
47.769778
  0
LINE
  8
型材断面
  6
DASHDOT
 10
-42.146997
 20
45.952223
 11
-42.146997
 21
30.952223
  0
LINE
  8
型材断面
  6
CONTINUOUS
 10
-37.871997
 20
50.227223
 11
-37.871997
 21
30.952223
  0
LINE
  8
型材断面
  6
CONTINUOUS
 10
-38.91523
 20
49.18399
 11
-38.91523
 21
30.952223
  0
LINE
  8
型材断面
  6
CONTINUOUS
 10
-39.268785
 20
48.830437
 11
-39.268785
 21
30.952223
  0
LINE
  8
型材断面
  6
CONTINUOUS
 10
-40.258735
 20
47.840488
 11
-40.258735
 21
30.952223
  0
LINE
  8
型材断面
  6
CONTINUOUS
 10
-39.975893
 20
48.12333
 11
-39.975893
 21
30.952223
  0
LINE
  8
型材断面
  6
DASHDOT
 10
-42.146997
 20
45.952223
 11
-57.146997
 21
45.952223
  0
LINE
  8
型材断面
  6
CONTINUOUS
 10
-37.871997
 20
50.227223
 11
-57.146997
 21
50.227223
  0
LINE
  8
型材断面
  6
CONTINUOUS
 10
-38.91523
 20
49.18399
 11
-57.146997
 21
49.18399
  0
LINE
  8
型材断面
  6
CONTINUOUS
 10
-39.268785
 20
48.830437
 11
-57.146997
 21
48.830437
  0
LINE
  8
型材断面
  6
CONTINUOUS
 10
-39.975893
 20
48.12333
 11
-57.146997
 21
48.12333
  0
LINE
  8
型材断面
  6
CONTINUOUS
 10
-40.258735
 20
47.840488
 11
-57.146997
 21
47.840488
  0
LINE
  8
型材断面
  6
CONTINUOUS
 10
-57.146997
 20
35.202223
 11
-52.896997
 21
35.202223
  0
LINE
  8
型材断面
  6
CONTINUOUS
 10
-52.896997
 20
30.952223
 11
-52.896997
 21
35.202223
  0
LINE
  8
型材断面
  6
CONTINUOUS
 10
-52.896997
 20
35.202223
 11
-57.146997
 21
30.952223
  0
LINE
  8
型材断面
  6
CONTINUOUS
 10
-40.329445
 20
45.334158
 11
-52.896997
 21
32.766603
  0
LINE
  8
型材断面
  6
CONTINUOUS
 10
-40.329445
 20
47.416225
 11
-52.896997
 21
34.84867
  0
LINE
  8
型材断面
  6
CONTINUOUS
 10
-40.682997
 20
47.769778
 11
-53.250552
 21
35.202223
  0
LINE
  8
型材断面
  6
CONTINUOUS
 10
-42.765065
 20
47.769778
 11
-55.332618
 21
35.202223
  0
LINE
  8
型材断面
  6
DASHDOT
 10
-42.146997
 20
45.952223
 11
-57.146997
 21
30.952223
  0
LINE
  8
型材断面
  6
DASHDOT
 10
-42.146997
 20
30.952223
 11
-57.146997
 21
30.952223
  0
LINE
  8
型材断面
  6
CONTINUOUS
 10
-76.421998
 20
11.677223
 11
-69.271997
 21
18.827223
  0
LINE
  8
型材断面
  6
CONTINUOUS
 10
-71.528932
 20
14.13467
 11
-73.964552
 21
14.13467
  0
LINE
  8
型材断面
  6
CONTINUOUS
 10
-73.964552
 20
16.57029
 11
-73.964552
 21
14.13467
  0
LINE
  8
型材断面
  6
DASHDOT
 10
-72.146997
 20
15.952223
 11
-72.146997
 21
30.952223
  0
LINE
  8
型材断面
  6
CONTINUOUS
 10
-76.421998
 20
11.677223
 11
-76.421998
 21
30.952223
  0
LINE
  8
型材断面
  6
CONTINUOUS
 10
-75.378765
 20
12.720455
 11
-75.378765
 21
30.952223
  0
LINE
  8
型材断面
  6
CONTINUOUS
 10
-75.025212
 20
13.07401
 11
-75.025212
 21
30.952223
  0
LINE
  8
型材断面
  6
CONTINUOUS
 10
-74.035263
 20
14.06396
 11
-74.035263
 21
30.952223
  0
LINE
  8
型材断面
  6
CONTINUOUS
 10
-74.318105
 20
13.781118
 11
-74.318105
 21
30.952223
  0
LINE
  8
型材断面
  6
DASHDOT
 10
-72.146997
 20
15.952223
 11
-57.146997
 21
15.952223
  0
LINE
  8
型材断面
  6
CONTINUOUS
 10
-76.421998
 20
11.677223
 11
-57.146997
 21
11.677223
  0
LINE
  8
型材断面
  6
CONTINUOUS
 10
-75.378765
 20
12.720455
 11
-57.146997
 21
12.720455
  0
LINE
  8
型材断面
  6
CONTINUOUS
 10
-75.025212
 20
13.07401
 11
-57.146997
 21
13.07401
  0
LINE
  8
型材断面
  6
CONTINUOUS
 10
-74.318105
 20
13.781118
 11
-57.146997
 21
13.781118
  0
LINE
  8
型材断面
  6
CONTINUOUS
 10
-74.035263
 20
14.06396
 11
-57.146997
 21
14.06396
  0
LINE
  8
型材断面
  6
CONTINUOUS
 10
-57.146997
 20
26.702223
 11
-61.396997
 21
26.702223
  0
LINE
  8
型材断面
  6
CONTINUOUS
 10
-61.396997
 20
30.952223
 11
-61.396997
 21
26.702223
  0
LINE
  8
型材断面
  6
CONTINUOUS
 10
-61.396997
 20
26.702223
 11
-57.146997
 21
30.952223
  0
LINE
  8
型材断面
  6
CONTINUOUS
 10
-73.964552
 20
16.57029
 11
-61.396997
 21
29.137843
  0
LINE
  8
型材断面
  6
CONTINUOUS
 10
-73.964552
 20
14.488222
 11
-61.396997
 21
27.055775
  0
LINE
  8
型材断面
  6
CONTINUOUS
 10
-73.610998
 20
14.13467
 11
-61.043445
 21
26.702223
  0
LINE
  8
型材断面
  6
CONTINUOUS
 10
-71.528932
 20
14.13467
 11
-58.961377
 21
26.702223
  0
LINE
  8
型材断面
  6
DASHDOT
 10
-72.146997
 20
15.952223
 11
-57.146997
 21
30.952223
  0
LINE
  8
型材断面
  6
CONTINUOUS
 10
-37.871997
 20
11.677223
 11
-45.021997
 21
18.827223
  0
LINE
  8
型材断面
  6
CONTINUOUS
 10
-42.765065
 20
14.13467
 11
-40.329445
 21
14.13467
  0
LINE
  8
型材断面
  6
CONTINUOUS
 10
-40.329445
 20
16.57029
 11
-40.329445
 21
14.13467
  0
LINE
  8
型材断面
  6
DASHDOT
 10
-42.146997
 20
15.952223
 11
-42.146997
 21
30.952223
  0
LINE
  8
型材断面
  6
CONTINUOUS
 10
-37.871997
 20
11.677223
 11
-37.871997
 21
30.952223
  0
LINE
  8
型材断面
  6
CONTINUOUS
 10
-38.91523
 20
12.720455
 11
-38.91523
 21
30.952223
  0
LINE
  8
型材断面
  6
CONTINUOUS
 10
-39.268785
 20
13.07401
 11
-39.268785
 21
30.952223
  0
LINE
  8
型材断面
  6
CONTINUOUS
 10
-40.258735
 20
14.06396
 11
-40.258735
 21
30.952223
  0
LINE
  8
型材断面
  6
CONTINUOUS
 10
-39.975893
 20
13.781118
 11
-39.975893
 21
30.952223
  0
LINE
  8
型材断面
  6
DASHDOT
 10
-42.146997
 20
15.952223
 11
-57.146997
 21
15.952223
  0
LINE
  8
型材断面
  6
CONTINUOUS
 10
-37.871997
 20
11.677223
 11
-57.146997
 21
11.677223
  0
LINE
  8
型材断面
  6
CONTINUOUS
 10
-38.91523
 20
12.720455
 11
-57.146997
 21
12.720455
  0
LINE
  8
型材断面
  6
CONTINUOUS
 10
-39.268785
 20
13.07401
 11
-57.146997
 21
13.07401
  0
LINE
  8
型材断面
  6
CONTINUOUS
 10
-39.975893
 20
13.781118
 11
-57.146997
 21
13.781118
  0
LINE
  8
型材断面
  6
CONTINUOUS
 10
-40.258735
 20
14.06396
 11
-57.146997
 21
14.06396
  0
LINE
  8
型材断面
  6
CONTINUOUS
 10
-57.146997
 20
26.702223
 11
-52.896997
 21
26.702223
  0
LINE
  8
型材断面
  6
CONTINUOUS
 10
-52.896997
 20
30.952223
 11
-52.896997
 21
26.702223
  0
LINE
  8
型材断面
  6
CONTINUOUS
 10
-52.896997
 20
26.702223
 11
-57.146997
 21
30.952223
  0
LINE
  8
型材断面
  6
CONTINUOUS
 10
-40.329445
 20
16.57029
 11
-52.896997
 21
29.137843
  0
LINE
  8
型材断面
  6
CONTINUOUS
 10
-40.329445
 20
14.488222
 11
-52.896997
 21
27.055775
  0
LINE
  8
型材断面
  6
CONTINUOUS
 10
-40.682997
 20
14.13467
 11
-53.250552
 21
26.702223
  0
LINE
  8
型材断面
  6
CONTINUOUS
 10
-42.765065
 20
14.13467
 11
-55.332618
 21
26.702223
  0
LINE
  8
型材断面
  6
DASHDOT
 10
-42.146997
 20
15.952223
 11
-57.146997
 21
30.952223
  0
LINE
  8
型材断面
  6
CONTINUOUS
 62
    47
 10
-76.421998
 20
-62.66373
 11
-76.421998
 21
-63.232107
  0
LINE
  8
型材断面
  6
CONTINUOUS
 62
    47
 10
-75.746997
 20
-63.932107
 11
-76.421998
 21
-63.932107
  0
LINE
  8
型材断面
  6
CONTINUOUS
 62
    47
 10
-76.421998
 20
-63.932107
 11
-76.421998
 21
-63.232107
  0
LINE
  8
型材断面
  6
CONTINUOUS
 62
    47
 10
-75.096998
 20
-63.232107
 11
-76.421998
 21
-63.232107
  0
LINE
  8
型材断面
  6
CONTINUOUS
 62
    47
 10
-75.746997
 20
-63.932107
 11
-75.746997
 21
-64.432107
  0
LINE
  8
型材断面
  6
CONTINUOUS
 10
-75.671998
 20
-64.432107
 11
-75.746997
 21
-64.432107
  0
LINE
  8
型材断面
  6
CONTINUOUS
 62
    47
 10
-74.318105
 20
-60.559835
 11
-75.378765
 21
-61.620497
  0
LINE
  8
型材断面
  6
CONTINUOUS
 10
-73.787775
 20
-60.029505
 11
-71.06933
 21
-60.029505
  0
LINE
  8
型材断面
  6
CONTINUOUS
 10
-76.421998
 20
-63.232107
 11
-57.146997
 21
-63.232107
  0
LINE
  8
型材断面
  6
CONTINUOUS
 10
-75.746997
 20
-64.432107
 11
-57.146997
 21
-64.432107
  0
LINE
  8
型材断面
  6
CONTINUOUS
 10
-75.025212
 20
-61.266943
 11
-57.146997
 21
-61.266943
  0
LINE
  8
型材断面
  6
CONTINUOUS
 10
-74.318105
 20
-60.559835
 11
-57.146997
 21
-60.559835
  0
LINE
  8
型材断面
  6
CONTINUOUS
 10
-75.378765
 20
-61.620497
 11
-57.146997
 21
-61.620497
  0
LINE
  8
型材断面
  6
CONTINUOUS
 10
-76.421998
 20
-62.66373
 11
-57.146997
 21
-62.66373
  0
LINE
  8
型材断面
  6
CONTINUOUS
 10
-75.746997
 20
-63.932107
 11
-57.146997
 21
-63.932107
  0
LINE
  8
型材断面
  6
CONTINUOUS
 62
    47
 10
-37.871997
 20
-62.66373
 11
-37.871997
 21
-63.232107
  0
LINE
  8
型材断面
  6
CONTINUOUS
 62
    47
 10
-38.546997
 20
-63.932107
 11
-37.871997
 21
-63.932107
  0
LINE
  8
型材断面
  6
CONTINUOUS
 62
    47
 10
-37.871997
 20
-63.932107
 11
-37.871997
 21
-63.232107
  0
LINE
  8
型材断面
  6
CONTINUOUS
 62
    47
 10
-39.197
 20
-63.232107
 11
-37.871997
 21
-63.232107
  0
LINE
  8
型材断面
  6
CONTINUOUS
 62
    47
 10
-38.546997
 20
-63.932107
 11
-38.546997
 21
-64.432107
  0
LINE
  8
型材断面
  6
CONTINUOUS
 10
-38.621997
 20
-64.432107
 11
-38.546997
 21
-64.432107
  0
LINE
  8
型材断面
  6
CONTINUOUS
 62
    47
 10
-39.975893
 20
-60.559835
 11
-38.91523
 21
-61.620497
  0
LINE
  8
型材断面
  6
CONTINUOUS
 10
-40.506222
 20
-60.029505
 11
-43.224665
 21
-60.029505
  0
LINE
  8
型材断面
  6
CONTINUOUS
 62
    47
 10
-37.871997
 20
-62.66373
 11
-57.146997
 21
-43.38873
  0
LINE
  8
型材断面
  6
CONTINUOUS
 10
-37.871997
 20
-63.232107
 11
-57.146997
 21
-63.232107
  0
LINE
  8
型材断面
  6
CONTINUOUS
 10
-38.546997
 20
-64.432107
 11
-57.146997
 21
-64.432107
  0
LINE
  8
型材断面
  6
CONTINUOUS
 10
-39.268785
 20
-61.266943
 11
-57.146997
 21
-61.266943
  0
LINE
  8
型材断面
  6
CONTINUOUS
 10
-39.975893
 20
-60.559835
 11
-57.146997
 21
-60.559835
  0
LINE
  8
型材断面
  6
CONTINUOUS
 10
-38.91523
 20
-61.620497
 11
-57.146997
 21
-61.620497
  0
LINE
  8
型材断面
  6
CONTINUOUS
 10
-37.871997
 20
-62.66373
 11
-57.146997
 21
-62.66373
  0
LINE
  8
型材断面
  6
CONTINUOUS
 10
-38.546997
 20
-63.932107
 11
-57.146997
 21
-63.932107
  0
LINE
  8
型材断面
  6
DASHDOT
 10
-42.146997
 20
15.952223
 11
-42.146997
 21
-70.657107
  0
LINE
  8
型材断面
  6
DASHDOT
 10
-72.146997
 20
15.952223
 11
-72.146997
 21
-70.657107
  0
LINE
  8
型材断面
  6
DASHDOT
 10
-57.146997
 20
30.952223
 11
-57.146997
 21
-70.657107
  0
LINE
  8
型材断面
  6
CONTINUOUS
 62
    47
 10
-76.421998
 20
-62.66373
 11
-57.146997
 21
-43.38873
  0
LINE
  8
型材断面
  6
CONTINUOUS
 10
-71.352175
 20
-60.029505
 11
-58.908415
 21
-47.585747
  0
LINE
  8
型材断面
  6
CONTINUOUS
 10
-71.06933
 20
-60.029505
 11
-58.625572
 21
-47.585747
  0
LINE
  8
型材断面
  6
CONTINUOUS
 10
-42.941823
 20
-60.029505
 11
-55.38558
 21
-47.585747
  0
LINE
  8
型材断面
  6
CONTINUOUS
 10
-43.224665
 20
-60.029505
 11
-55.668425
 21
-47.585747
  0
LINE
  8
型材断面
  6
CONTINUOUS
 10
-52.896997
 20
-47.532765
 11
-57.146997
 21
-47.532765
  0
LINE
  8
型材断面
  6
CONTINUOUS
 10
-61.396995
 20
-47.532765
 11
-57.146997
 21
-47.532765
  0
LINE
  8
型材断面
  6
CONTINUOUS
 10
-61.344013
 20
-47.585747
 11
-57.146997
 21
-47.585747
  0
LINE
  8
型材断面
  6
CONTINUOUS
 10
-57.146997
 20
-43.282765
 11
-52.896997
 21
-47.532765
  0
LINE
  8
型材断面
  6
CONTINUOUS
 10
-57.146997
 20
-43.282765
 11
-61.396995
 21
-47.532765
  0
LINE
  8
型材断面
  6
CONTINUOUS
 10
-52.949982
 20
-47.585747
 11
-57.146997
 21
-47.585747
  0
LINE
  8
型材断面
  6
CONTINUOUS
 10
-61.396995
 20
-47.532765
 11
-61.344013
 21
-47.585747
  0
LINE
  8
型材断面
  6
CONTINUOUS
 10
-52.949982
 20
-47.585747
 11
-52.896997
 21
-47.532765
  0
LINE
  8
型材断面
  6
CONTINUOUS
 10
-80.17087
 20
30.952223
 11
-84.05663
 21
28.708777
  0
LINE
  8
型材断面
  6
CONTINUOUS
 10
-80.17087
 20
30.952223
 11
-84.05663
 21
33.195667
  0
LINE
  8
型材断面
  6
CONTINUOUS
 10
-84.05663
 20
33.195667
 11
-84.05663
 21
28.708777
  0
LINE
  8
型材断面
  6
CONTINUOUS
 10
-34.12312
 20
30.952223
 11
-30.23736
 21
28.708777
  0
LINE
  8
型材断面
  6
CONTINUOUS
 10
-34.12312
 20
30.952223
 11
-30.23736
 21
33.195667
  0
LINE
  8
型材断面
  6
CONTINUOUS
 10
-30.23736
 20
33.195667
 11
-30.23736
 21
28.708777
  0
LINE
  8
型材断面
  6
CONTINUOUS
 10
-57.146997
 20
53.976095
 11
-59.390442
 21
57.861855
  0
LINE
  8
型材断面
  6
CONTINUOUS
 10
-57.146997
 20
53.976095
 11
-54.903553
 21
57.861855
  0
LINE
  8
型材断面
  6
CONTINUOUS
 10
-54.903553
 20
57.861855
 11
-59.390442
 21
57.861855
  0
LINE
  8
型材断面
  6
CONTINUOUS
 10
-57.146997
 20
7.928345
 11
-59.390442
 21
4.042585
  0
LINE
  8
型材断面
  6
CONTINUOUS
 10
-57.146997
 20
7.928345
 11
-54.903553
 21
4.042585
  0
LINE
  8
型材断面
  6
CONTINUOUS
 10
-54.903553
 20
4.042585
 11
-59.390442
 21
4.042585
  0
LINE
  8
型材断面
  6
DOT
 10
-46.483478
 20
15.952223
 11
-46.483478
 21
45.952225
  0
LINE
  8
型材断面
  6
DOT
 10
-44.483478
 20
15.952223
 11
-44.483478
 21
45.952225
  0
LINE
  8
型材断面
  6
CONTINUOUS
 10
-19.60687
 20
9.23261
 11
-21.850315
 21
5.34685
  0
LINE
  8
型材断面
  6
CONTINUOUS
 10
-19.60687
 20
9.23261
 11
-17.363425
 21
5.34685
  0
LINE
  8
型材断面
  6
CONTINUOUS
 10
-17.363425
 20
5.34685
 11
-21.850315
 21
5.34685
  0
LINE
  8
型材断面
  6
CONTINUOUS
 10
-28.64075
 20
3.938957
 11
24.01593
 21
3.938957
  0
LINE
  8
型材断面
  6
CONTINUOUS
 10
-28.64075
 20
-2.546225
 11
24.01593
 21
-2.546225
  0
LINE
  8
型材断面
  6
CONTINUOUS
 10
99.83635
 20
-56.921342
 11
123.767973
 21
-56.921342
  0
LINE
  8
ガラス
  6
CONTINUOUS
 10
-55.259292
 20
44.34119
 11
-59.131927
 21
40.468555
  0
LINE
  8
ガラス
  6
CONTINUOUS
 10
-56.139615
 20
42.742833
 11
-57.53357
 21
41.348877
  0
LINE
  8
ガラス
  6
CONTINUOUS
 10
-56.85765
 20
43.460867
 11
-58.251605
 21
42.066913
  0
LINE
  8
ガラス
  6
CONTINUOUS
 10
-55.259292
 20
20.255723
 11
-59.131927
 21
16.383087
  0
LINE
  8
ガラス
  6
CONTINUOUS
 10
-56.139615
 20
18.657365
 11
-57.53357
 21
17.26341
  0
LINE
  8
ガラス
  6
CONTINUOUS
 10
-56.85765
 20
19.3754
 11
-58.251605
 21
17.981445
  0
LINE
  8
ガラス
  6
CONTINUOUS
 10
-42.799155
 20
32.907718
 11
-46.67179
 21
29.035082
  0
LINE
  8
ガラス
  6
CONTINUOUS
 10
-43.679478
 20
31.30936
 11
-45.073433
 21
29.915405
  0
LINE
  8
ガラス
  6
CONTINUOUS
 10
-44.397512
 20
32.027395
 11
-45.791467
 21
30.63344
  0
LINE
  8
ガラス
  6
CONTINUOUS
 10
-67.427992
 20
32.907718
 11
-71.300627
 21
29.035082
  0
LINE
  8
ガラス
  6
CONTINUOUS
 10
-68.308315
 20
31.30936
 11
-69.70227
 21
29.915405
  0
LINE
  8
ガラス
  6
CONTINUOUS
 10
-69.02635
 20
32.027395
 11
-70.420305
 21
30.63344
  0
LINE
  8
ガラス
  6
CONTINUOUS
 10
-55.169967
 20
-53.401617
 11
-59.042602
 21
-57.274252
  0
LINE
  8
ガラス
  6
CONTINUOUS
 10
-56.05029
 20
-54.999975
 11
-57.444245
 21
-56.39393
  0
LINE
  8
ガラス
  6
CONTINUOUS
 10
-56.768325
 20
-54.28194
 11
-58.16228
 21
-55.675895
  0
TEXT
  7
TextStyle03
  8
文字
  6
CONTINUOUS
 10
-15.325
 20
5.675
  1
は排水穴位置を示す
 40
3.0
 72
     5
 11
14.675
 21
5.675
  0
TEXT
  7
TextStyle03
  8
文字
  6
CONTINUOUS
 10
-20.925
 20
-1.15
  1
アンカー数量　４ヶ所
 40
3.0
 72
     5
 11
12.45
 21
-1.15
  0
TEXT
  7
TextStyle03
  8
文字
  6
CONTINUOUS
 10
-78.55
 20
72.35
  1
アンカーピッチ
 40
3.0
 72
     5
 11
-55.3
 21
72.35
  0
TEXT
  7
TextStyle03
  8
文字
  6
CONTINUOUS
 10
76.45
 20
93.175
  1
ＮＳコード：ＮＳ４ＣＫＳ
 40
5.0
 72
     5
 11
143.325
 21
93.175
  0
TEXT
  7
TextStyle03
  8
文字
  6
CONTINUOUS
 10
103.425
 20
-55.7
  1
ガラス寸法
 40
3.0
 72
     5
 11
119.925
 21
-55.7
  0
TEXT
  7
TextStyle03
  8
文字
  6
CONTINUOUS
 10
134.0
 20
-75.25
  1
×４枚
 40
3.0
 72
     5
 11
143.75
 21
-75.25
  0
TEXT
  7
TextStyle03
  8
文字
  6
CONTINUOUS
 10
76.575
 20
121.1
  1
シリーズ：ＳＴＦ４Ｋ
 40
5.0
 72
     5
 11
132.2
 21
121.1
  0
TEXT
  7
TextStyle03
  8
文字
  6
CONTINUOUS
 10
76.575
 20
115.475
  1
　　　　　四角錘（固定）600×600タイプ
 40
5.0
 72
     5
 11
182.825
 21
115.475
  0
TEXT
  7
TextStyle03
  8
文字
  6
CONTINUOUS
 10
76.575
 20
109.85
  1
　　　　　シングルガラス仕様
 40
5.0
 72
     5
 11
154.7
 21
109.85
  0
TEXT
  7
TextStyle03
  8
文字
  6
CONTINUOUS
 10
76.575
 20
104.225
  1
図面名　：外観姿図
 40
5.0
 72
     5
 11
126.575
 21
104.225
  0
TEXT
  7
TextStyle03
  8
文字
  6
CONTINUOUS
 10
76.575
 20
98.6
  1
　　　　　　
 40
5.0
 72
     5
 11
109.7
 21
98.6
  0
INSERT
  2
*DIM_0002
  8
寸法
  6
CONTINUOUS
 10
0.0
 20
0.0
  0
INSERT
  2
*DIM_0003
  8
寸法
  6
CONTINUOUS
 10
0.0
 20
0.0
  0
INSERT
  2
*DIM_0004
  8
寸法
  6
CONTINUOUS
 10
0.0
 20
0.0
  0
INSERT
  2
*DIM_0005
  8
寸法
  6
CONTINUOUS
 10
0.0
 20
0.0
  0
INSERT
  2
*DIM_0006
  8
寸法
  6
CONTINUOUS
 10
0.0
 20
0.0
  0
INSERT
  2
*DIM_0007
  8
寸法
  6
CONTINUOUS
 10
0.0
 20
0.0
  0
INSERT
  2
*DIM_0008
  8
寸法
  6
CONTINUOUS
 10
0.0
 20
0.0
  0
INSERT
  2
*DIM_0009
  8
寸法
  6
CONTINUOUS
 10
0.0
 20
0.0
  0
INSERT
  2
*DIM_0010
  8
寸法
  6
CONTINUOUS
 10
0.0
 20
0.0
  0
INSERT
  2
*DIM_0011
  8
寸法
  6
CONTINUOUS
 10
0.0
 20
0.0
  0
LINE
  8
曲げ物
  6
CONTINUOUS
 10
149.378162
 20
-77.399633
 11
118.243162
 21
-77.399633
  0
LINE
  8
曲げ物
  6
CONTINUOUS
 10
118.243162
 20
-77.399633
 11
133.810663
 21
-55.383955
  0
LINE
  8
曲げ物
  6
CONTINUOUS
 10
149.378162
 20
-77.399633
 11
133.810663
 21
-55.383955
  0
ENDSEC
  0
EOF
