  0
SECTION
  2
HEADER
  9
$EXTMIN
 10
-210.0
 20
-148.5
  9
$EXTMAX
 10
210.0
 20
148.5
  9
$PDMODE
 70
    32
  9
$PDSIZE
 40
1.5
  9
$LTSCALE
 40
10.0
  0
ENDSEC
  0
SECTION
  2
TABLES
  0
TABLE
  2
LTYPE
 70
    15
  0
LTYPE
  2
CONTINUOUS
 70
    64
  3
実線
 72
    65
 73
     0
 40
0.0
  0
LTYPE
  2
DASHED
 70
    64
  3
破線A
 72
    65
 73
     2
 40
0.6
 49
0.4
 49
-0.2
  0
LTYPE
  2
DASHEDX2
 70
    64
  3
破線B
 72
    65
 73
     2
 40
1.3
 49
0.9
 49
-0.4
  0
LTYPE
  2
DASHDOT
 70
    64
  3
１点鎖線A
 72
    65
 73
     4
 40
0.5375
 49
0.375
 49
-0.05
 49
0.0625
 49
-0.05
  0
LTYPE
  2
DASHDOTX2
 70
    64
  3
１点鎖線B
 72
    65
 73
     4
 40
1.075
 49
0.75
 49
-0.1
 49
0.125
 49
-0.1
  0
LTYPE
  2
DIVIDE2
 70
    64
  3
２点鎖線A
 72
    65
 73
     6
 40
0.5125
 49
0.3
 49
-0.0375
 49
0.05
 49
-0.0375
 49
0.05
 49
-0.0375
  0
LTYPE
  2
DIVIDE
 70
    64
  3
２点鎖線B
 72
    65
 73
     6
 40
1.05
 49
0.55
 49
-0.1
 49
0.1
 49
-0.1
 49
0.1
 49
-0.1
  0
LTYPE
  2
DOT
 70
    64
  3
点線A
 72
    65
 73
     2
 40
0.1125
 49
0.0625
 49
-0.05
  0
LTYPE
  2
DOTX2
 70
    64
  3
点線B
 72
    65
 73
     2
 40
0.275
 49
0.15
 49
-0.125
  0
LTYPE
  2
CONTINUOUS
 70
    64
  3
実線
 72
    65
 73
     0
 40
0.0
  0
LTYPE
  2
CONTINUOUS
 70
    64
  3
実線
 72
    65
 73
     0
 40
0.0
  0
LTYPE
  2
CONTINUOUS
 70
    64
  3
実線
 72
    65
 73
     0
 40
0.0
  0
LTYPE
  2
CONTINUOUS
 70
    64
  3
実線
 72
    65
 73
     0
 40
0.0
  0
LTYPE
  2
CONTINUOUS
 70
    64
  3
実線
 72
    65
 73
     0
 40
0.0
  0
LTYPE
  2
CONTINUOUS
 70
    64
  3
実線
 72
    65
 73
     0
 40
0.0
  0
ENDTAB
  0
TABLE
  2
LAYER
 70
    34
  0
LAYER
  2
通り芯
 70
     0
 62
    15
  6
CONTINUOUS
  0
LAYER
  2
補助線
 70
     0
 62
    16
  6
DOT
  0
LAYER
  2
躯体
 70
     0
 62
    31
  6
CONTINUOUS
  0
LAYER
  2
型材
 70
     0
 62
    32
  6
CONTINUOUS
  0
LAYER
  2
型材断面
 70
     0
 62
    47
  6
CONTINUOUS
  0
LAYER
  2
ガラス
 70
     0
 62
    48
  6
CONTINUOUS
  0
LAYER
  2
ゴム等
 70
     0
 62
    63
  6
CONTINUOUS
  0
LAYER
  2
ボルト／ビス
 70
     0
 62
    64
  6
CONTINUOUS
  0
LAYER
  2
文字
 70
     0
 62
    79
  6
CONTINUOUS
  0
LAYER
  2
寸法
 70
     0
 62
    80
  6
CONTINUOUS
  0
LAYER
  2
ﾊｯﾁﾝｸﾞ
 70
     0
 62
    95
  6
CONTINUOUS
  0
LAYER
  2
別途部材
 70
     0
 62
    96
  6
CONTINUOUS
  0
LAYER
  2
曲げ物
 70
     0
 62
   111
  6
CONTINUOUS
  0
LAYER
  2
鉄骨等
 70
     0
 62
   112
  6
CONTINUOUS
  0
LAYER
  2
St
 70
     0
 62
   127
  6
CONTINUOUS
  0
LAYER
  2
その他部品等
 70
     0
 62
   128
  6
CONTINUOUS
  0
LAYER
  2
ｶﾞｽｹｯﾄ
 70
     0
 62
   143
  6
CONTINUOUS
  0
LAYER
  2
ｽｹｯﾁ
 70
     0
 62
    14
  6
CONTINUOUS
  0
LAYER
  2
0
 70
     0
 62
    17
  6
CONTINUOUS
  0
LAYER
  2
1
 70
     0
 62
    30
  6
CONTINUOUS
  0
LAYER
  2
4
 70
     0
 62
    33
  6
CONTINUOUS
  0
LAYER
  2
ﾚｲﾔ3
 70
     0
 62
    46
  6
CONTINUOUS
  0
LAYER
  2
外形線
 70
     0
 62
    49
  6
CONTINUOUS
  0
LAYER
  2
部品
 70
     0
 62
    14
  6
CONTINUOUS
  0
LAYER
  2
サッシ芯
 70
     0
 62
    17
  6
DASHDOTX2
  0
LAYER
  2
寸法線
 70
     0
 62
    62
  6
CONTINUOUS
  0
LAYER
  2
姿図外形線
 70
     0
 62
    65
  6
CONTINUOUS
  0
LAYER
  2
姿補助線
 70
     0
 62
    30
  6
CONTINUOUS
  0
LAYER
  2
透視線
 70
     0
 62
    78
  6
DOT
  0
LAYER
  2
用紙
 70
     0
 62
    81
  6
CONTINUOUS
  0
LAYER
  2
実線図枠
 70
     0
 62
    94
  6
CONTINUOUS
  0
LAYER
  2
補助図枠
 70
     0
 62
    97
  6
CONTINUOUS
  0
LAYER
  2
建具記号
 70
     0
 62
   110
  6
CONTINUOUS
  0
LAYER
  2
補助文字
 70
     0
 62
   113
  6
CONTINUOUS
  0
ENDTAB
  0
TABLE
  2
STYLE
 70
    10
  0
STYLE
  2
STANDARD
 70
     0
 40
1.0
 41
1.0
 42
1.0
 50
0.0
 71
     0
  3
TXT
  4
BIGFONT
  0
STYLE
  2
TATE
 70
     4
 40
1.0
 41
1.0
 42
1.0
 50
0.0
 71
     0
  3
TXT
  4
BIGFONT
  0
STYLE
  2
TextStyle03
 70
     0
 40
1.0
 41
1.0
 42
1.0
 50
0.0
 71
     0
  3
MONOTXT
  4
BIGFONT
  0
STYLE
  2
TextStyle04
 70
     0
 40
1.0
 41
1.0
 42
1.0
 50
0.0
 71
     0
  3
MONOTXT
  4
BIGFONT
  0
STYLE
  2
TextStyle05
 70
     0
 40
1.0
 41
1.0
 42
1.0
 50
0.0
 71
     0
  3
MONOTXT
  4
BIGFONT
  0
STYLE
  2
TextStyle06
 70
     0
 40
1.0
 41
1.0
 42
1.0
 50
0.0
 71
     0
  3
MONOTXT
  4
BIGFONT
  0
STYLE
  2
TextStyle07
 70
     0
 40
1.0
 41
1.0
 42
1.0
 50
0.0
 71
     0
  3
MONOTXT
  4
BIGFONT
  0
STYLE
  2
TextStyle08
 70
     0
 40
1.0
 41
1.0
 42
1.0
 50
0.0
 71
     0
  3
MONOTXT
  4
BIGFONT
  0
STYLE
  2
TextStyle09
 70
     0
 40
1.0
 41
1.0
 42
1.0
 50
0.0
 71
     0
  3
MONOTXT
  4
BIGFONT
  0
STYLE
  2
TextStyle10
 70
     0
 40
1.0
 41
1.0
 42
1.0
 50
0.0
 71
     0
  3
MONOTXT
  4
BIGFONT
  0
ENDTAB
  0
ENDSEC
  0
SECTION
  2
BLOCKS
  0
BLOCK
  2
*GRP_0001
 70
    65
 10
0.0
 20
0.0
  0
LINE
  8
型材断面
  6
CONTINUOUS
 10
195.0
 20
133.5
 11
195.0
 21
-133.5
  0
LINE
  8
型材断面
  6
CONTINUOUS
 10
195.0
 20
-133.5
 11
-185.0
 21
-133.5
  0
LINE
  8
型材断面
  6
CONTINUOUS
 10
-185.0
 20
-133.5
 11
-185.0
 21
133.5
  0
LINE
  8
型材断面
  6
CONTINUOUS
 10
195.0
 20
133.5
 11
-185.0
 21
133.5
  0
LINE
  8
型材断面
  6
CONTINUOUS
 10
145.0
 20
-133.5
 11
145.0
 21
-118.5
  0
LINE
  8
型材断面
  6
CONTINUOUS
 10
195.0
 20
-118.5
 11
145.0
 21
-118.5
  0
ENDBLK
  0
BLOCK
  2
*DIM_0002
 70
    65
 10
0.0
 20
0.0
  0
LINE
  8
寸法
  6
BYBLOCK
 62
     0
 10
-72.638972
 20
-43.679912
 11
-72.638972
 21
-33.830735
  0
LINE
  8
寸法
  6
BYBLOCK
 62
     0
 10
-64.138975
 20
-43.679912
 11
-64.138975
 21
-33.830735
  0
LINE
  8
寸法
  6
BYBLOCK
 62
     0
 10
-72.638972
 20
-33.830735
 11
-64.138975
 21
-33.830735
  0
POINT
  8
寸法
 62
     0
 10
-72.638972
 20
-33.830735
  0
POINT
  8
寸法
 62
     0
 10
-64.138975
 20
-33.830735
  0
TEXT
  7
TextStyle03
  8
寸法
  6
CONTINUOUS
 62
     0
 10
-70.8125
 20
-33.5
  1
170
 40
3.0
 72
     5
 11
-65.9375
 21
-33.5
  0
ENDBLK
  0
BLOCK
  2
*DIM_0003
 70
    65
 10
0.0
 20
0.0
  0
LINE
  8
寸法
  6
BYBLOCK
 62
     0
 10
-57.350505
 20
-40.429912
 11
-58.294783
 21
-40.429912
  0
LINE
  8
寸法
  6
BYBLOCK
 62
     0
 10
-63.138975
 20
-44.679912
 11
-58.294783
 21
-44.679912
  0
LINE
  8
寸法
  6
BYBLOCK
 62
     0
 10
-58.294783
 20
-40.429912
 11
-58.294783
 21
-44.679912
  0
POINT
  8
寸法
 62
     0
 10
-58.294783
 20
-40.429912
  0
POINT
  8
寸法
 62
     0
 10
-58.294783
 20
-44.679912
  0
TEXT
  7
TextStyle03
  8
寸法
  6
CONTINUOUS
 62
     0
 10
-58.65
 20
-44.19375
  1
85
 40
3.0
 50
90.0
 72
     5
 11
-58.65
 21
-41.00625
  0
ENDBLK
  0
BLOCK
  2
*DIM_0004
 70
    65
 10
0.0
 20
0.0
  0
LINE
  8
寸法
  6
BYBLOCK
 62
     0
 10
-67.388975
 20
-40.429912
 11
-23.760088
 21
-40.429912
  0
LINE
  8
寸法
  6
BYBLOCK
 62
     0
 10
-23.760088
 20
-67.310877
 11
-23.760088
 21
-40.429912
  0
POINT
  8
寸法
 62
     0
 10
-23.760088
 20
-67.310877
  0
POINT
  8
寸法
 62
     0
 10
-23.760088
 20
-40.429912
  0
TEXT
  7
TextStyle03
  8
寸法
  6
CONTINUOUS
 62
     0
 10
-24.15
 20
-58.025
  1
537.6
 40
3.0
 50
90.0
 72
     5
 11
-24.15
 21
-49.775
  0
ENDBLK
  0
BLOCK
  2
*DIM_0005
 70
    65
 10
0.0
 20
0.0
  0
LINE
  8
寸法
  6
BYBLOCK
 62
     0
 10
-90.888975
 20
-25.265823
 11
-90.888975
 21
-25.76433
  0
LINE
  8
寸法
  6
BYBLOCK
 62
     0
 10
-45.888975
 20
-25.432985
 11
-45.888975
 21
-25.76433
  0
LINE
  8
寸法
  6
BYBLOCK
 62
     0
 10
-90.888975
 20
-25.76433
 11
-45.888975
 21
-25.76433
  0
POINT
  8
寸法
 62
     0
 10
-90.888975
 20
-25.76433
  0
POINT
  8
寸法
 62
     0
 10
-45.888975
 20
-25.76433
  0
TEXT
  7
TextStyle03
  8
寸法
  6
CONTINUOUS
 62
     0
 10
-79.275
 20
-25.425
  1
呼称寸法　900
 40
3.0
 72
     5
 11
-57.525
 21
-25.425
  0
ENDBLK
  0
BLOCK
  2
*DIM_0006
 70
    65
 10
0.0
 20
0.0
  0
LINE
  8
寸法
  6
BYBLOCK
 62
     0
 10
-41.613975
 20
-66.310877
 11
-41.613975
 21
-25.76433
  0
LINE
  8
寸法
  6
BYBLOCK
 62
     0
 10
-45.888975
 20
-25.76433
 11
-41.613975
 21
-25.76433
  0
POINT
  8
寸法
 62
     0
 10
-41.613975
 20
-25.76433
  0
TEXT
  7
TextStyle03
  8
寸法
  6
CONTINUOUS
 62
     0
 10
-40.30625
 20
-25.425
  1
85.5
 40
3.0
 72
     5
 11
-33.74375
 21
-25.425
  0
ENDBLK
  0
BLOCK
  2
*DIM_0007
 70
    65
 10
0.0
 20
0.0
  0
LINE
  8
寸法
  6
BYBLOCK
 62
     0
 10
-95.163975
 20
-66.310877
 11
-95.163975
 21
-25.76433
  0
LINE
  8
寸法
  6
BYBLOCK
 62
     0
 10
-90.888975
 20
-25.76433
 11
-95.163975
 21
-25.76433
  0
POINT
  8
寸法
 62
     0
 10
-90.888975
 20
-25.76433
  0
POINT
  8
寸法
 62
     0
 10
-95.163975
 20
-25.76433
  0
TEXT
  7
TextStyle03
  8
寸法
  6
CONTINUOUS
 62
     0
 10
-103.08125
 20
-25.425
  1
85.5
 40
3.0
 72
     5
 11
-96.51875
 21
-25.425
  0
ENDBLK
  0
BLOCK
  2
*DIM_0008
 70
    65
 10
0.0
 20
0.0
  0
LINE
  8
寸法
  6
BYBLOCK
 62
     0
 10
-40.613975
 20
-67.310877
 11
-23.760088
 21
-67.310877
  0
LINE
  8
寸法
  6
BYBLOCK
 62
     0
 10
-40.613975
 20
-68.579255
 11
-23.760088
 21
-68.579255
  0
LINE
  8
寸法
  6
BYBLOCK
 62
     0
 10
-23.760088
 20
-67.310877
 11
-23.760088
 21
-68.579255
  0
POINT
  8
寸法
 62
     0
 10
-23.760088
 20
-67.310877
  0
POINT
  8
寸法
 62
     0
 10
-23.760088
 20
-68.579255
  0
TEXT
  7
TextStyle03
  8
寸法
  6
CONTINUOUS
 62
     0
 10
-20.775
 20
-71.23125
  1
25.5
 40
3.0
 50
90.0
 72
     5
 11
-20.775
 21
-64.66875
  0
ENDBLK
  0
BLOCK
  2
*DIM_0009
 70
    65
 10
0.0
 20
0.0
  0
LINE
  8
寸法
  6
BYBLOCK
 62
     0
 10
-83.388975
 20
57.305075
 11
-83.388975
 21
75.24409
  0
LINE
  8
寸法
  6
BYBLOCK
 62
     0
 10
-53.388975
 20
57.305075
 11
-53.388975
 21
75.24409
  0
LINE
  8
寸法
  6
BYBLOCK
 62
     0
 10
-83.388975
 20
75.24409
 11
-53.388975
 21
75.24409
  0
POINT
  8
寸法
 62
     0
 10
-83.388975
 20
75.24409
  0
POINT
  8
寸法
 62
     0
 10
-53.388975
 20
75.24409
  0
TEXT
  7
TextStyle03
  8
寸法
  6
CONTINUOUS
 62
     0
 10
-70.8625
 20
75.6
  1
600
 40
3.0
 72
     5
 11
-65.9875
 21
75.6
  0
ENDBLK
  0
BLOCK
  2
*DIM_0010
 70
    65
 10
0.0
 20
0.0
  0
LINE
  8
寸法
  6
BYBLOCK
 62
     0
 10
-91.888975
 20
56.305075
 11
-114.797217
 21
56.305075
  0
LINE
  8
寸法
  6
BYBLOCK
 62
     0
 10
-91.888975
 20
33.805075
 11
-114.797217
 21
33.805075
  0
LINE
  8
寸法
  6
BYBLOCK
 62
     0
 10
-114.797217
 20
56.305075
 11
-114.797217
 21
33.805075
  0
POINT
  8
寸法
 62
     0
 10
-114.797217
 20
56.305075
  0
POINT
  8
寸法
 62
     0
 10
-114.797217
 20
33.805075
  0
TEXT
  7
TextStyle03
  8
寸法
  6
CONTINUOUS
 62
     0
 10
-115.2
 20
42.5875
  1
450
 40
3.0
 50
90.0
 72
     5
 11
-115.2
 21
47.4625
  0
ENDBLK
  0
BLOCK
  2
*DIM_0011
 70
    65
 10
0.0
 20
0.0
  0
LINE
  8
寸法
  6
BYBLOCK
 62
     0
 10
-91.888975
 20
11.305075
 11
-114.797217
 21
11.305075
  0
LINE
  8
寸法
  6
BYBLOCK
 62
     0
 10
-114.797217
 20
33.805075
 11
-114.797217
 21
11.305075
  0
POINT
  8
寸法
 62
     0
 10
-114.797217
 20
11.305075
  0
TEXT
  7
TextStyle03
  8
寸法
  6
CONTINUOUS
 62
     0
 10
-115.2
 20
20.0875
  1
450
 40
3.0
 50
90.0
 72
     5
 11
-115.2
 21
24.9625
  0
ENDBLK
  0
BLOCK
  2
*DIM_0012
 70
    65
 10
0.0
 20
0.0
  0
LINE
  8
寸法
  6
BYBLOCK
 62
     0
 10
103.243162
 20
-80.399633
 11
103.243162
 21
-95.637392
  0
LINE
  8
寸法
  6
BYBLOCK
 62
     0
 10
149.378162
 20
-80.399633
 11
149.378162
 21
-95.637392
  0
LINE
  8
寸法
  6
BYBLOCK
 62
     0
 10
103.243162
 20
-95.637392
 11
149.378162
 21
-95.637392
  0
POINT
  8
寸法
 62
     0
 10
103.243162
 20
-95.637392
  0
POINT
  8
寸法
 62
     0
 10
149.378162
 20
-95.637392
  0
TEXT
  7
TextStyle03
  8
寸法
  6
CONTINUOUS
 62
     0
 10
122.175
 20
-95.275
  1
922.7
 40
3.0
 72
     5
 11
130.425
 21
-95.275
  0
ENDBLK
  0
BLOCK
  2
*DIM_0013
 70
    65
 10
0.0
 20
0.0
  0
LINE
  8
寸法
  6
BYBLOCK
 62
     0
 10
152.378162
 20
-77.399633
 11
164.951238
 21
-77.399633
  0
LINE
  8
寸法
  6
BYBLOCK
 62
     0
 10
129.310663
 20
-44.777398
 11
164.951238
 21
-44.777398
  0
LINE
  8
寸法
  6
BYBLOCK
 62
     0
 10
164.951238
 20
-77.399633
 11
164.951238
 21
-44.777398
  0
POINT
  8
寸法
 62
     0
 10
164.951238
 20
-77.399633
  0
POINT
  8
寸法
 62
     0
 10
164.951238
 20
-44.777398
  0
TEXT
  7
TextStyle03
  8
寸法
  6
CONTINUOUS
 62
     0
 10
164.575
 20
-65.225
  1
652.4
 40
3.0
 50
90.0
 72
     5
 11
164.575
 21
-56.975
  0
ENDBLK
  0
ENDSEC
  0
SECTION
  2
ENTITIES
  0
POLYLINE
  8
通り芯
  6
CONTINUOUS
 66
     1
 70
     1
  0
VERTEX
  8
通り芯
 10
-210.0
 20
-148.5
  0
VERTEX
  8
通り芯
 10
210.0
 20
-148.5
  0
VERTEX
  8
通り芯
 10
210.0
 20
148.5
  0
VERTEX
  8
通り芯
 10
-210.0
 20
148.5
  0
SEQEND
  0
INSERT
  2
*GRP_0001
  8
型材断面
  6
CONTINUOUS
 10
0.0
 20
0.0
  0
LINE
  8
型材断面
  6
CONTINUOUS
 10
-41.613975
 20
7.030075
 11
-48.763975
 21
14.180075
  0
LINE
  8
型材断面
  6
CONTINUOUS
 10
-46.507042
 20
9.487522
 11
-44.071422
 21
9.487522
  0
LINE
  8
型材断面
  6
CONTINUOUS
 10
-44.071422
 20
11.923142
 11
-44.071422
 21
9.487522
  0
LINE
  8
型材断面
  6
DASHDOT
 10
-45.888975
 20
11.305075
 11
-45.888975
 21
26.305075
  0
LINE
  8
型材断面
  6
CONTINUOUS
 62
    47
 10
-41.613975
 20
-67.310877
 11
-41.613975
 21
-67.879255
  0
LINE
  8
型材断面
  6
CONTINUOUS
 62
    47
 10
-42.288975
 20
-68.579255
 11
-41.613975
 21
-68.579255
  0
LINE
  8
型材断面
  6
CONTINUOUS
 62
    47
 10
-41.613975
 20
-68.579255
 11
-41.613975
 21
-67.879255
  0
LINE
  8
型材断面
  6
CONTINUOUS
 62
    47
 10
-42.938977
 20
-67.879255
 11
-41.613975
 21
-67.879255
  0
LINE
  8
型材断面
  6
CONTINUOUS
 62
    47
 10
-42.288975
 20
-68.579255
 11
-42.288975
 21
-69.079255
  0
LINE
  8
型材断面
  6
CONTINUOUS
 10
-42.363975
 20
-69.079255
 11
-42.288975
 21
-69.079255
  0
LINE
  8
型材断面
  6
CONTINUOUS
 62
    47
 10
-43.71787
 20
-65.206982
 11
-42.657208
 21
-66.267645
  0
LINE
  8
型材断面
  6
CONTINUOUS
 10
-44.2482
 20
-64.676653
 11
-46.966643
 21
-64.676653
  0
LINE
  8
型材断面
  6
CONTINUOUS
 10
-23.348848
 20
4.585462
 11
-25.592292
 21
0.699703
  0
LINE
  8
型材断面
  6
CONTINUOUS
 10
-23.348848
 20
4.585462
 11
-21.105403
 21
0.699703
  0
LINE
  8
型材断面
  6
CONTINUOUS
 10
-21.105403
 20
0.699703
 11
-25.592292
 21
0.699703
  0
LINE
  8
型材断面
  6
CONTINUOUS
 10
-32.382727
 20
-0.70819
 11
20.273953
 21
-0.70819
  0
LINE
  8
型材断面
  6
CONTINUOUS
 62
    47
 10
-41.613975
 20
-67.310877
 11
-68.388975
 21
-40.535877
  0
LINE
  8
型材断面
  6
CONTINUOUS
 10
-64.138975
 20
-44.679912
 11
-68.388975
 21
-44.679912
  0
LINE
  8
型材断面
  6
CONTINUOUS
 10
-72.638972
 20
-44.679912
 11
-68.388975
 21
-44.679912
  0
LINE
  8
型材断面
  6
CONTINUOUS
 10
-72.58599
 20
-44.732895
 11
-68.388975
 21
-44.732895
  0
LINE
  8
型材断面
  6
CONTINUOUS
 10
-68.388975
 20
-40.429912
 11
-64.138975
 21
-44.679912
  0
LINE
  8
型材断面
  6
CONTINUOUS
 10
-68.388975
 20
-40.429912
 11
-72.638972
 21
-44.679912
  0
LINE
  8
型材断面
  6
CONTINUOUS
 10
-64.19196
 20
-44.732895
 11
-68.388975
 21
-44.732895
  0
LINE
  8
型材断面
  6
CONTINUOUS
 10
-72.638972
 20
-44.679912
 11
-72.58599
 21
-44.732895
  0
LINE
  8
型材断面
  6
CONTINUOUS
 10
-64.19196
 20
-44.732895
 11
-64.138975
 21
-44.679912
  0
LINE
  8
型材断面
  6
CONTINUOUS
 10
-46.6838
 20
-64.676653
 11
-66.68054
 21
-44.679912
  0
LINE
  8
型材断面
  6
CONTINUOUS
 10
-46.966643
 20
-64.676653
 11
-66.963388
 21
-44.679912
  0
LINE
  8
型材断面
  6
CONTINUOUS
 10
-43.71787
 20
-65.206982
 11
-68.388975
 21
-65.206982
  0
LINE
  8
型材断面
  6
CONTINUOUS
 10
-43.010762
 20
-65.91409
 11
-68.388975
 21
-65.91409
  0
LINE
  8
型材断面
  6
CONTINUOUS
 10
-42.657208
 20
-66.267645
 11
-68.388975
 21
-66.267645
  0
LINE
  8
型材断面
  6
CONTINUOUS
 10
-42.288975
 20
-69.079255
 11
-68.388975
 21
-69.079255
  0
LINE
  8
型材断面
  6
CONTINUOUS
 10
-42.288975
 20
-68.579255
 11
-68.388975
 21
-68.579255
  0
LINE
  8
型材断面
  6
CONTINUOUS
 10
-41.613975
 20
-67.879255
 11
-68.388975
 21
-67.879255
  0
LINE
  8
型材断面
  6
CONTINUOUS
 10
-41.613975
 20
-67.310877
 11
-68.388975
 21
-67.310877
  0
LINE
  8
型材断面
  6
CONTINUOUS
 62
    47
 10
-95.163975
 20
-67.310877
 11
-95.163975
 21
-67.879255
  0
LINE
  8
型材断面
  6
CONTINUOUS
 62
    47
 10
-94.488975
 20
-68.579255
 11
-95.163975
 21
-68.579255
  0
LINE
  8
型材断面
  6
CONTINUOUS
 62
    47
 10
-95.163975
 20
-68.579255
 11
-95.163975
 21
-67.879255
  0
LINE
  8
型材断面
  6
CONTINUOUS
 62
    47
 10
-93.838972
 20
-67.879255
 11
-95.163975
 21
-67.879255
  0
LINE
  8
型材断面
  6
CONTINUOUS
 62
    47
 10
-94.488975
 20
-68.579255
 11
-94.488975
 21
-69.079255
  0
LINE
  8
型材断面
  6
CONTINUOUS
 10
-94.413975
 20
-69.079255
 11
-94.488975
 21
-69.079255
  0
LINE
  8
型材断面
  6
CONTINUOUS
 62
    47
 10
-93.06008
 20
-65.206982
 11
-94.120742
 21
-66.267645
  0
LINE
  8
型材断面
  6
CONTINUOUS
 10
-92.52975
 20
-64.676653
 11
-89.811308
 21
-64.676653
  0
LINE
  8
型材断面
  6
CONTINUOUS
 62
    47
 10
-95.163975
 20
-67.310877
 11
-68.388975
 21
-40.535877
  0
LINE
  8
型材断面
  6
CONTINUOUS
 10
-72.638975
 20
-44.679912
 11
-68.388975
 21
-44.679912
  0
LINE
  8
型材断面
  6
CONTINUOUS
 10
-72.58599
 20
-44.732895
 11
-68.388975
 21
-44.732895
  0
LINE
  8
型材断面
  6
CONTINUOUS
 10
-72.58599
 20
-44.732895
 11
-72.638975
 21
-44.679912
  0
LINE
  8
型材断面
  6
CONTINUOUS
 10
-90.09415
 20
-64.676653
 11
-70.09741
 21
-44.679912
  0
LINE
  8
型材断面
  6
CONTINUOUS
 10
-89.811308
 20
-64.676653
 11
-69.814563
 21
-44.679912
  0
LINE
  8
型材断面
  6
CONTINUOUS
 10
-93.06008
 20
-65.206982
 11
-68.388975
 21
-65.206982
  0
LINE
  8
型材断面
  6
CONTINUOUS
 10
-93.767188
 20
-65.91409
 11
-68.388975
 21
-65.91409
  0
LINE
  8
型材断面
  6
CONTINUOUS
 10
-94.120742
 20
-66.267645
 11
-68.388975
 21
-66.267645
  0
LINE
  8
型材断面
  6
CONTINUOUS
 10
-94.488975
 20
-69.079255
 11
-68.388975
 21
-69.079255
  0
LINE
  8
型材断面
  6
CONTINUOUS
 10
-94.488975
 20
-68.579255
 11
-68.388975
 21
-68.579255
  0
LINE
  8
型材断面
  6
CONTINUOUS
 10
-95.163975
 20
-67.879255
 11
-68.388975
 21
-67.879255
  0
LINE
  8
型材断面
  6
CONTINUOUS
 10
-95.163975
 20
-67.310877
 11
-68.388975
 21
-67.310877
  0
LINE
  8
型材断面
  6
DASHDOT
 10
-45.888975
 20
11.305075
 11
-90.888975
 21
11.305075
  0
LINE
  8
型材断面
  6
DASHDOT
 10
-45.888975
 20
-75.304255
 11
-45.888975
 21
56.305075
  0
LINE
  8
型材断面
  6
DASHDOT
 10
-45.888975
 20
33.805075
 11
-90.888975
 21
33.805075
  0
LINE
  8
型材断面
  6
DASHDOT
 10
-45.888975
 20
56.305075
 11
-90.888975
 21
56.305075
  0
LINE
  8
型材断面
  6
DASHDOT
 10
-90.888975
 20
-75.304255
 11
-90.888975
 21
56.305075
  0
LINE
  8
型材断面
  6
DASHDOT
 10
-68.388975
 20
-75.304255
 11
-68.388975
 21
56.305075
  0
LINE
  8
型材断面
  6
CONTINUOUS
 10
-68.388975
 20
29.555075
 11
-64.138975
 21
29.555075
  0
LINE
  8
型材断面
  6
CONTINUOUS
 10
-64.138975
 20
33.805075
 11
-64.138975
 21
29.555075
  0
LINE
  8
型材断面
  6
CONTINUOUS
 10
-64.138975
 20
29.555075
 11
-68.388975
 21
33.805075
  0
LINE
  8
型材断面
  6
CONTINUOUS
 10
-46.507042
 20
9.487522
 11
-66.574595
 21
29.555075
  0
LINE
  8
型材断面
  6
CONTINUOUS
 10
-44.424975
 20
9.487522
 11
-64.492533
 21
29.555075
  0
LINE
  8
型材断面
  6
CONTINUOUS
 10
-44.071422
 20
11.923142
 11
-64.138975
 21
31.990695
  0
LINE
  8
型材断面
  6
CONTINUOUS
 10
-44.071422
 20
9.841075
 11
-64.138975
 21
29.908627
  0
LINE
  8
型材断面
  6
DASHDOT
 10
-45.888975
 20
11.305075
 11
-68.388975
 21
33.805075
  0
LINE
  8
型材断面
  6
CONTINUOUS
 10
-43.71787
 20
9.13397
 11
-68.388975
 21
9.13397
  0
LINE
  8
型材断面
  6
CONTINUOUS
 10
-44.000713
 20
9.416813
 11
-68.388975
 21
9.416813
  0
LINE
  8
型材断面
  6
CONTINUOUS
 10
-43.010762
 20
8.426863
 11
-68.388975
 21
8.426863
  0
LINE
  8
型材断面
  6
CONTINUOUS
 10
-42.657208
 20
8.073308
 11
-68.388975
 21
8.073308
  0
LINE
  8
型材断面
  6
CONTINUOUS
 10
-41.613975
 20
7.030075
 11
-68.388975
 21
7.030075
  0
LINE
  8
型材断面
  6
CONTINUOUS
 10
-44.000713
 20
9.416813
 11
-44.000713
 21
33.805075
  0
LINE
  8
型材断面
  6
CONTINUOUS
 10
-43.71787
 20
9.13397
 11
-43.71787
 21
33.805075
  0
LINE
  8
型材断面
  6
CONTINUOUS
 10
-43.010762
 20
8.426863
 11
-43.010762
 21
33.805075
  0
LINE
  8
型材断面
  6
CONTINUOUS
 10
-42.657208
 20
8.073308
 11
-42.657208
 21
33.805075
  0
LINE
  8
型材断面
  6
CONTINUOUS
 10
-41.613975
 20
7.030075
 11
-41.613975
 21
33.805075
  0
LINE
  8
型材断面
  6
CONTINUOUS
 10
-41.613975
 20
60.580075
 11
-48.763975
 21
53.430075
  0
LINE
  8
型材断面
  6
CONTINUOUS
 10
-46.507042
 20
58.122628
 11
-44.071422
 21
58.122628
  0
LINE
  8
型材断面
  6
CONTINUOUS
 10
-44.071422
 20
55.687008
 11
-44.071422
 21
58.122628
  0
LINE
  8
型材断面
  6
DASHDOT
 10
-45.888975
 20
56.305075
 11
-45.888975
 21
41.305075
  0
LINE
  8
型材断面
  6
CONTINUOUS
 10
-68.388975
 20
38.055075
 11
-64.138975
 21
38.055075
  0
LINE
  8
型材断面
  6
CONTINUOUS
 10
-64.138975
 20
33.805075
 11
-64.138975
 21
38.055075
  0
LINE
  8
型材断面
  6
CONTINUOUS
 10
-64.138975
 20
38.055075
 11
-68.388975
 21
33.805075
  0
LINE
  8
型材断面
  6
CONTINUOUS
 10
-46.507042
 20
58.122628
 11
-66.574595
 21
38.055075
  0
LINE
  8
型材断面
  6
CONTINUOUS
 10
-44.424975
 20
58.122628
 11
-64.492533
 21
38.055075
  0
LINE
  8
型材断面
  6
CONTINUOUS
 10
-44.071422
 20
55.687008
 11
-64.138975
 21
35.619455
  0
LINE
  8
型材断面
  6
CONTINUOUS
 10
-44.071422
 20
57.769075
 11
-64.138975
 21
37.701522
  0
LINE
  8
型材断面
  6
DASHDOT
 10
-45.888975
 20
56.305075
 11
-68.388975
 21
33.805075
  0
LINE
  8
型材断面
  6
CONTINUOUS
 10
-43.71787
 20
58.47618
 11
-68.388975
 21
58.47618
  0
LINE
  8
型材断面
  6
CONTINUOUS
 10
-44.000713
 20
58.193338
 11
-68.388975
 21
58.193338
  0
LINE
  8
型材断面
  6
CONTINUOUS
 10
-43.010762
 20
59.183288
 11
-68.388975
 21
59.183288
  0
LINE
  8
型材断面
  6
CONTINUOUS
 10
-42.657208
 20
59.536843
 11
-68.388975
 21
59.536843
  0
LINE
  8
型材断面
  6
CONTINUOUS
 10
-41.613975
 20
60.580075
 11
-68.388975
 21
60.580075
  0
LINE
  8
型材断面
  6
CONTINUOUS
 10
-44.000713
 20
58.193338
 11
-44.000713
 21
33.805075
  0
LINE
  8
型材断面
  6
CONTINUOUS
 10
-43.71787
 20
58.47618
 11
-43.71787
 21
33.805075
  0
LINE
  8
型材断面
  6
CONTINUOUS
 10
-43.010762
 20
59.183288
 11
-43.010762
 21
33.805075
  0
LINE
  8
型材断面
  6
CONTINUOUS
 10
-42.657208
 20
59.536843
 11
-42.657208
 21
33.805075
  0
LINE
  8
型材断面
  6
CONTINUOUS
 10
-41.613975
 20
60.580075
 11
-41.613975
 21
33.805075
  0
LINE
  8
型材断面
  6
CONTINUOUS
 10
-95.163975
 20
60.580075
 11
-88.013975
 21
53.430075
  0
LINE
  8
型材断面
  6
CONTINUOUS
 10
-90.270907
 20
58.122628
 11
-92.706527
 21
58.122628
  0
LINE
  8
型材断面
  6
CONTINUOUS
 10
-92.706527
 20
55.687008
 11
-92.706527
 21
58.122628
  0
LINE
  8
型材断面
  6
DASHDOT
 10
-90.888975
 20
56.305075
 11
-90.888975
 21
41.305075
  0
LINE
  8
型材断面
  6
CONTINUOUS
 10
-68.388975
 20
38.055075
 11
-72.638975
 21
38.055075
  0
LINE
  8
型材断面
  6
CONTINUOUS
 10
-72.638975
 20
33.805075
 11
-72.638975
 21
38.055075
  0
LINE
  8
型材断面
  6
CONTINUOUS
 10
-72.638975
 20
38.055075
 11
-68.388975
 21
33.805075
  0
LINE
  8
型材断面
  6
CONTINUOUS
 10
-90.270907
 20
58.122628
 11
-70.203355
 21
38.055075
  0
LINE
  8
型材断面
  6
CONTINUOUS
 10
-92.352975
 20
58.122628
 11
-72.285418
 21
38.055075
  0
LINE
  8
型材断面
  6
CONTINUOUS
 10
-92.706527
 20
55.687008
 11
-72.638975
 21
35.619455
  0
LINE
  8
型材断面
  6
CONTINUOUS
 10
-92.706527
 20
57.769075
 11
-72.638975
 21
37.701522
  0
LINE
  8
型材断面
  6
DASHDOT
 10
-90.888975
 20
56.305075
 11
-68.388975
 21
33.805075
  0
LINE
  8
型材断面
  6
CONTINUOUS
 10
-93.06008
 20
58.47618
 11
-68.388975
 21
58.47618
  0
LINE
  8
型材断面
  6
CONTINUOUS
 10
-92.777237
 20
58.193338
 11
-68.388975
 21
58.193338
  0
LINE
  8
型材断面
  6
CONTINUOUS
 10
-93.767188
 20
59.183288
 11
-68.388975
 21
59.183288
  0
LINE
  8
型材断面
  6
CONTINUOUS
 10
-94.120742
 20
59.536843
 11
-68.388975
 21
59.536843
  0
LINE
  8
型材断面
  6
CONTINUOUS
 10
-95.163975
 20
60.580075
 11
-68.388975
 21
60.580075
  0
LINE
  8
型材断面
  6
CONTINUOUS
 10
-92.777237
 20
58.193338
 11
-92.777237
 21
33.805075
  0
LINE
  8
型材断面
  6
CONTINUOUS
 10
-93.06008
 20
58.47618
 11
-93.06008
 21
33.805075
  0
LINE
  8
型材断面
  6
CONTINUOUS
 10
-93.767188
 20
59.183288
 11
-93.767188
 21
33.805075
  0
LINE
  8
型材断面
  6
CONTINUOUS
 10
-94.120742
 20
59.536843
 11
-94.120742
 21
33.805075
  0
LINE
  8
型材断面
  6
CONTINUOUS
 10
-95.163975
 20
60.580075
 11
-95.163975
 21
33.805075
  0
LINE
  8
型材断面
  6
CONTINUOUS
 10
-95.163975
 20
7.030075
 11
-88.013975
 21
14.180075
  0
LINE
  8
型材断面
  6
CONTINUOUS
 10
-90.270907
 20
9.487522
 11
-92.706527
 21
9.487522
  0
LINE
  8
型材断面
  6
CONTINUOUS
 10
-92.706527
 20
11.923142
 11
-92.706527
 21
9.487522
  0
LINE
  8
型材断面
  6
DASHDOT
 10
-90.888975
 20
11.305075
 11
-90.888975
 21
26.305075
  0
LINE
  8
型材断面
  6
CONTINUOUS
 10
-68.388975
 20
29.555075
 11
-72.638975
 21
29.555075
  0
LINE
  8
型材断面
  6
CONTINUOUS
 10
-72.638975
 20
33.805075
 11
-72.638975
 21
29.555075
  0
LINE
  8
型材断面
  6
CONTINUOUS
 10
-72.638975
 20
29.555075
 11
-68.388975
 21
33.805075
  0
LINE
  8
型材断面
  6
CONTINUOUS
 10
-90.270907
 20
9.487522
 11
-70.203355
 21
29.555075
  0
LINE
  8
型材断面
  6
CONTINUOUS
 10
-92.352975
 20
9.487522
 11
-72.285418
 21
29.555075
  0
LINE
  8
型材断面
  6
CONTINUOUS
 10
-92.706527
 20
11.923142
 11
-72.638975
 21
31.990695
  0
LINE
  8
型材断面
  6
CONTINUOUS
 10
-92.706527
 20
9.841075
 11
-72.638975
 21
29.908627
  0
LINE
  8
型材断面
  6
DASHDOT
 10
-90.888975
 20
11.305075
 11
-68.388975
 21
33.805075
  0
LINE
  8
型材断面
  6
CONTINUOUS
 10
-93.06008
 20
9.13397
 11
-68.388975
 21
9.13397
  0
LINE
  8
型材断面
  6
CONTINUOUS
 10
-92.777237
 20
9.416813
 11
-68.388975
 21
9.416813
  0
LINE
  8
型材断面
  6
CONTINUOUS
 10
-93.767188
 20
8.426863
 11
-68.388975
 21
8.426863
  0
LINE
  8
型材断面
  6
CONTINUOUS
 10
-94.120742
 20
8.073308
 11
-68.388975
 21
8.073308
  0
LINE
  8
型材断面
  6
CONTINUOUS
 10
-95.163975
 20
7.030075
 11
-68.388975
 21
7.030075
  0
LINE
  8
型材断面
  6
CONTINUOUS
 10
-92.777237
 20
9.416813
 11
-92.777237
 21
33.805075
  0
LINE
  8
型材断面
  6
CONTINUOUS
 10
-93.06008
 20
9.13397
 11
-93.06008
 21
33.805075
  0
LINE
  8
型材断面
  6
CONTINUOUS
 10
-93.767188
 20
8.426863
 11
-93.767188
 21
33.805075
  0
LINE
  8
型材断面
  6
CONTINUOUS
 10
-94.120742
 20
8.073308
 11
-94.120742
 21
33.805075
  0
LINE
  8
型材断面
  6
CONTINUOUS
 10
-95.163975
 20
7.030075
 11
-95.163975
 21
33.805075
  0
LINE
  8
型材断面
  6
DOT
 10
-49.99122
 20
56.305075
 11
-49.99122
 21
11.305075
  0
LINE
  8
型材断面
  6
DOT
 10
-47.99122
 20
56.305075
 11
-47.99122
 21
11.305075
  0
LINE
  8
型材断面
  6
CONTINUOUS
 10
-68.388975
 20
64.32895
 11
-70.63242
 21
68.21471
  0
LINE
  8
型材断面
  6
CONTINUOUS
 10
-68.388975
 20
64.32895
 11
-66.14553
 21
68.21471
  0
LINE
  8
型材断面
  6
CONTINUOUS
 10
-66.14553
 20
68.21471
 11
-70.63242
 21
68.21471
  0
LINE
  8
型材断面
  6
CONTINUOUS
 10
-68.388975
 20
3.2812
 11
-70.63242
 21
-0.60456
  0
LINE
  8
型材断面
  6
CONTINUOUS
 10
-68.388975
 20
3.2812
 11
-66.14553
 21
-0.60456
  0
LINE
  8
型材断面
  6
CONTINUOUS
 10
-66.14553
 20
-0.60456
 11
-70.63242
 21
-0.60456
  0
LINE
  8
型材断面
  6
CONTINUOUS
 10
-37.8651
 20
33.805075
 11
-33.97934
 21
36.04852
  0
LINE
  8
型材断面
  6
CONTINUOUS
 10
-37.8651
 20
33.805075
 11
-33.97934
 21
31.56163
  0
LINE
  8
型材断面
  6
CONTINUOUS
 10
-33.97934
 20
31.56163
 11
-33.97934
 21
36.04852
  0
LINE
  8
型材断面
  6
CONTINUOUS
 10
-98.91285
 20
33.805075
 11
-102.79861
 21
36.04852
  0
LINE
  8
型材断面
  6
CONTINUOUS
 10
-98.91285
 20
33.805075
 11
-102.79861
 21
31.56163
  0
LINE
  8
型材断面
  6
CONTINUOUS
 10
-102.79861
 20
31.56163
 11
-102.79861
 21
36.04852
  0
LINE
  8
型材断面
  6
CONTINUOUS
 10
-32.382727
 20
-7.046642
 11
20.273953
 21
-7.046642
  0
LINE
  8
型材断面
  6
CONTINUOUS
 10
88.269398
 20
-48.146413
 11
112.20102
 21
-48.146413
  0
LINE
  8
ガラス
  6
CONTINUOUS
 10
-66.481965
 20
-55.035473
 11
-70.3546
 21
-58.908108
  0
LINE
  8
ガラス
  6
CONTINUOUS
 10
-67.362288
 20
-56.63383
 11
-68.756243
 21
-58.027785
  0
LINE
  8
ガラス
  6
CONTINUOUS
 10
-68.080322
 20
-55.915795
 11
-69.474277
 21
-57.30975
  0
LINE
  8
ガラス
  6
CONTINUOUS
 10
-66.391708
 20
20.318943
 11
-70.264343
 21
16.446307
  0
LINE
  8
ガラス
  6
CONTINUOUS
 10
-67.27203
 20
18.720585
 11
-68.665985
 21
17.32663
  0
LINE
  8
ガラス
  6
CONTINUOUS
 10
-67.990065
 20
19.43862
 11
-69.38402
 21
18.044665
  0
LINE
  8
ガラス
  6
CONTINUOUS
 10
-50.335632
 20
35.730747
 11
-54.208267
 21
31.858113
  0
LINE
  8
ガラス
  6
CONTINUOUS
 10
-51.215955
 20
34.13239
 11
-52.60991
 21
32.738435
  0
LINE
  8
ガラス
  6
CONTINUOUS
 10
-51.93399
 20
34.850425
 11
-53.327945
 21
33.45647
  0
LINE
  8
ガラス
  6
CONTINUOUS
 10
-82.57973
 20
35.730747
 11
-86.452365
 21
31.858113
  0
LINE
  8
ガラス
  6
CONTINUOUS
 10
-83.460052
 20
34.13239
 11
-84.854007
 21
32.738435
  0
LINE
  8
ガラス
  6
CONTINUOUS
 10
-84.178088
 20
34.850425
 11
-85.572043
 21
33.45647
  0
LINE
  8
ガラス
  6
CONTINUOUS
 10
-66.391708
 20
52.492728
 11
-70.264343
 21
48.620092
  0
LINE
  8
ガラス
  6
CONTINUOUS
 10
-67.27203
 20
50.89437
 11
-68.665985
 21
49.500415
  0
LINE
  8
ガラス
  6
CONTINUOUS
 10
-67.990065
 20
51.612405
 11
-69.38402
 21
50.21845
  0
TEXT
  7
TextStyle03
  8
文字
  6
CONTINUOUS
 10
-19.05
 20
1.025
  1
は排水穴位置を示す
 40
3.0
 72
     5
 11
10.95
 21
1.025
  0
TEXT
  7
TextStyle03
  8
文字
  6
CONTINUOUS
 10
-24.65
 20
-5.65
  1
アンカー数量　６ヶ所
 40
3.0
 72
     5
 11
8.725
 21
-5.65
  0
TEXT
  7
TextStyle03
  8
文字
  6
CONTINUOUS
 10
-97.3
 20
79.5
  1
アンカーピッチ
 40
3.0
 72
     5
 11
-74.05
 21
79.5
  0
TEXT
  7
TextStyle03
  8
文字
  6
CONTINUOUS
 10
-120.95
 20
1.4
  1
アンカーピッチ
 40
3.0
 50
90.0
 72
     5
 11
-120.95
 21
24.65
  0
TEXT
  7
TextStyle03
  8
文字
  6
CONTINUOUS
 10
75.925
 20
93.175
  1
ＮＳコード：ＮＳ４ＣＫＳ
 40
5.0
 72
     5
 11
142.8
 21
93.175
  0
TEXT
  7
TextStyle03
  8
文字
  6
CONTINUOUS
 10
134.0
 20
-75.25
  1
×４枚
 40
3.0
 72
     5
 11
143.75
 21
-75.25
  0
TEXT
  7
TextStyle03
  8
文字
  6
CONTINUOUS
 10
91.875
 20
-46.95
  1
ガラス寸法
 40
3.0
 72
     5
 11
108.375
 21
-46.95
  0
TEXT
  7
TextStyle03
  8
文字
  6
CONTINUOUS
 10
76.575
 20
118.825
  1
シリーズ：ＳＴＦ４Ｋ
 40
5.0
 72
     5
 11
132.2
 21
118.825
  0
TEXT
  7
TextStyle03
  8
文字
  6
CONTINUOUS
 10
76.575
 20
113.2
  1
　　　　　四角錘（固定）900×900タイプ
 40
5.0
 72
     5
 11
182.825
 21
113.2
  0
TEXT
  7
TextStyle03
  8
文字
  6
CONTINUOUS
 10
76.575
 20
107.575
  1
　　　　　シングルガラス仕様
 40
5.0
 72
     5
 11
154.7
 21
107.575
  0
TEXT
  7
TextStyle03
  8
文字
  6
CONTINUOUS
 10
76.575
 20
101.95
  1
図面名　：外観姿図
 40
5.0
 72
     5
 11
126.575
 21
101.95
  0
TEXT
  7
TextStyle03
  8
文字
  6
CONTINUOUS
 10
76.575
 20
96.325
  1
　　　　　　
 40
5.0
 72
     5
 11
109.7
 21
96.325
  0
INSERT
  2
*DIM_0002
  8
寸法
  6
CONTINUOUS
 10
0.0
 20
0.0
  0
INSERT
  2
*DIM_0003
  8
寸法
  6
CONTINUOUS
 10
0.0
 20
0.0
  0
INSERT
  2
*DIM_0004
  8
寸法
  6
CONTINUOUS
 10
0.0
 20
0.0
  0
INSERT
  2
*DIM_0005
  8
寸法
  6
CONTINUOUS
 10
0.0
 20
0.0
  0
INSERT
  2
*DIM_0006
  8
寸法
  6
CONTINUOUS
 10
0.0
 20
0.0
  0
INSERT
  2
*DIM_0007
  8
寸法
  6
CONTINUOUS
 10
0.0
 20
0.0
  0
INSERT
  2
*DIM_0008
  8
寸法
  6
CONTINUOUS
 10
0.0
 20
0.0
  0
INSERT
  2
*DIM_0009
  8
寸法
  6
CONTINUOUS
 10
0.0
 20
0.0
  0
INSERT
  2
*DIM_0010
  8
寸法
  6
CONTINUOUS
 10
0.0
 20
0.0
  0
INSERT
  2
*DIM_0011
  8
寸法
  6
CONTINUOUS
 10
0.0
 20
0.0
  0
CIRCLE
  8
寸法
  6
CONTINUOUS
 10
-109.907333
 20
33.805075
 40
1.73792
  0
INSERT
  2
*DIM_0012
  8
寸法
  6
CONTINUOUS
 10
0.0
 20
0.0
  0
INSERT
  2
*DIM_0013
  8
寸法
  6
CONTINUOUS
 10
0.0
 20
0.0
  0
LINE
  8
曲げ物
  6
CONTINUOUS
 10
149.378162
 20
-77.399633
 11
103.243162
 21
-77.399633
  0
LINE
  8
曲げ物
  6
CONTINUOUS
 10
103.243162
 20
-77.399633
 11
126.310663
 21
-44.777398
  0
LINE
  8
曲げ物
  6
CONTINUOUS
 10
149.378162
 20
-77.399633
 11
126.310663
 21
-44.777398
  0
ENDSEC
  0
EOF
