  0
SECTION
  2
HEADER
  9
$EXTMIN
 10
-210.0
 20
-148.5
  9
$EXTMAX
 10
210.0
 20
148.5
  9
$PDMODE
 70
    32
  9
$PDSIZE
 40
1.5
  9
$LTSCALE
 40
10.0
  0
ENDSEC
  0
SECTION
  2
TABLES
  0
TABLE
  2
LTYPE
 70
    15
  0
LTYPE
  2
CONTINUOUS
 70
    64
  3
実線
 72
    65
 73
     0
 40
0.0
  0
LTYPE
  2
DASHED
 70
    64
  3
破線A
 72
    65
 73
     2
 40
0.6
 49
0.4
 49
-0.2
  0
LTYPE
  2
DASHEDX2
 70
    64
  3
破線B
 72
    65
 73
     2
 40
1.3
 49
0.9
 49
-0.4
  0
LTYPE
  2
DASHDOT
 70
    64
  3
１点鎖線A
 72
    65
 73
     4
 40
0.5375
 49
0.375
 49
-0.05
 49
0.0625
 49
-0.05
  0
LTYPE
  2
DASHDOTX2
 70
    64
  3
１点鎖線B
 72
    65
 73
     4
 40
1.075
 49
0.75
 49
-0.1
 49
0.125
 49
-0.1
  0
LTYPE
  2
DIVIDE2
 70
    64
  3
２点鎖線A
 72
    65
 73
     6
 40
0.5125
 49
0.3
 49
-0.0375
 49
0.05
 49
-0.0375
 49
0.05
 49
-0.0375
  0
LTYPE
  2
DIVIDE
 70
    64
  3
２点鎖線B
 72
    65
 73
     6
 40
1.05
 49
0.55
 49
-0.1
 49
0.1
 49
-0.1
 49
0.1
 49
-0.1
  0
LTYPE
  2
DOT
 70
    64
  3
点線A
 72
    65
 73
     2
 40
0.1125
 49
0.0625
 49
-0.05
  0
LTYPE
  2
DOTX2
 70
    64
  3
点線B
 72
    65
 73
     2
 40
0.275
 49
0.15
 49
-0.125
  0
LTYPE
  2
CONTINUOUS
 70
    64
  3
実線
 72
    65
 73
     0
 40
0.0
  0
LTYPE
  2
CONTINUOUS
 70
    64
  3
実線
 72
    65
 73
     0
 40
0.0
  0
LTYPE
  2
CONTINUOUS
 70
    64
  3
実線
 72
    65
 73
     0
 40
0.0
  0
LTYPE
  2
CONTINUOUS
 70
    64
  3
実線
 72
    65
 73
     0
 40
0.0
  0
LTYPE
  2
CONTINUOUS
 70
    64
  3
実線
 72
    65
 73
     0
 40
0.0
  0
LTYPE
  2
CONTINUOUS
 70
    64
  3
実線
 72
    65
 73
     0
 40
0.0
  0
ENDTAB
  0
TABLE
  2
LAYER
 70
    34
  0
LAYER
  2
通り芯
 70
     0
 62
    15
  6
CONTINUOUS
  0
LAYER
  2
補助線
 70
     0
 62
    16
  6
DOT
  0
LAYER
  2
躯体
 70
     0
 62
    31
  6
CONTINUOUS
  0
LAYER
  2
型材
 70
     0
 62
    32
  6
CONTINUOUS
  0
LAYER
  2
型材断面
 70
     0
 62
    47
  6
CONTINUOUS
  0
LAYER
  2
ガラス
 70
     0
 62
    48
  6
CONTINUOUS
  0
LAYER
  2
ゴム等
 70
     0
 62
    63
  6
CONTINUOUS
  0
LAYER
  2
ボルト／ビス
 70
     0
 62
    64
  6
CONTINUOUS
  0
LAYER
  2
文字
 70
     0
 62
    79
  6
CONTINUOUS
  0
LAYER
  2
寸法
 70
     0
 62
    80
  6
CONTINUOUS
  0
LAYER
  2
ﾊｯﾁﾝｸﾞ
 70
     0
 62
    95
  6
CONTINUOUS
  0
LAYER
  2
別途部材
 70
     0
 62
    96
  6
CONTINUOUS
  0
LAYER
  2
曲げ物
 70
     0
 62
   111
  6
CONTINUOUS
  0
LAYER
  2
鉄骨等
 70
     0
 62
   112
  6
CONTINUOUS
  0
LAYER
  2
St
 70
     0
 62
   127
  6
CONTINUOUS
  0
LAYER
  2
その他部品等
 70
     0
 62
   128
  6
CONTINUOUS
  0
LAYER
  2
ｶﾞｽｹｯﾄ
 70
     0
 62
   143
  6
CONTINUOUS
  0
LAYER
  2
ｽｹｯﾁ
 70
     0
 62
    14
  6
CONTINUOUS
  0
LAYER
  2
0
 70
     0
 62
    17
  6
CONTINUOUS
  0
LAYER
  2
1
 70
     0
 62
    30
  6
CONTINUOUS
  0
LAYER
  2
4
 70
     0
 62
    33
  6
CONTINUOUS
  0
LAYER
  2
ﾚｲﾔ3
 70
     0
 62
    46
  6
CONTINUOUS
  0
LAYER
  2
外形線
 70
     0
 62
    49
  6
CONTINUOUS
  0
LAYER
  2
部品
 70
     0
 62
    14
  6
CONTINUOUS
  0
LAYER
  2
サッシ芯
 70
     0
 62
    17
  6
DASHDOTX2
  0
LAYER
  2
寸法線
 70
     0
 62
    62
  6
CONTINUOUS
  0
LAYER
  2
姿図外形線
 70
     0
 62
    65
  6
CONTINUOUS
  0
LAYER
  2
姿補助線
 70
     0
 62
    30
  6
CONTINUOUS
  0
LAYER
  2
透視線
 70
     0
 62
    78
  6
DOT
  0
LAYER
  2
用紙
 70
     0
 62
    81
  6
CONTINUOUS
  0
LAYER
  2
実線図枠
 70
     0
 62
    94
  6
CONTINUOUS
  0
LAYER
  2
補助図枠
 70
     0
 62
    97
  6
CONTINUOUS
  0
LAYER
  2
建具記号
 70
     0
 62
   110
  6
CONTINUOUS
  0
LAYER
  2
補助文字
 70
     0
 62
   113
  6
CONTINUOUS
  0
ENDTAB
  0
TABLE
  2
STYLE
 70
    10
  0
STYLE
  2
STANDARD
 70
     0
 40
1.0
 41
1.0
 42
1.0
 50
0.0
 71
     0
  3
TXT
  4
BIGFONT
  0
STYLE
  2
TATE
 70
     4
 40
1.0
 41
1.0
 42
1.0
 50
0.0
 71
     0
  3
TXT
  4
BIGFONT
  0
STYLE
  2
TextStyle03
 70
     0
 40
1.0
 41
1.0
 42
1.0
 50
0.0
 71
     0
  3
MONOTXT
  4
BIGFONT
  0
STYLE
  2
TextStyle04
 70
     0
 40
1.0
 41
1.0
 42
1.0
 50
0.0
 71
     0
  3
MONOTXT
  4
BIGFONT
  0
STYLE
  2
TextStyle05
 70
     0
 40
1.0
 41
1.0
 42
1.0
 50
0.0
 71
     0
  3
MONOTXT
  4
BIGFONT
  0
STYLE
  2
TextStyle06
 70
     0
 40
1.0
 41
1.0
 42
1.0
 50
0.0
 71
     0
  3
MONOTXT
  4
BIGFONT
  0
STYLE
  2
TextStyle07
 70
     0
 40
1.0
 41
1.0
 42
1.0
 50
0.0
 71
     0
  3
MONOTXT
  4
BIGFONT
  0
STYLE
  2
TextStyle08
 70
     0
 40
1.0
 41
1.0
 42
1.0
 50
0.0
 71
     0
  3
MONOTXT
  4
BIGFONT
  0
STYLE
  2
TextStyle09
 70
     0
 40
1.0
 41
1.0
 42
1.0
 50
0.0
 71
     0
  3
MONOTXT
  4
BIGFONT
  0
STYLE
  2
TextStyle10
 70
     0
 40
1.0
 41
1.0
 42
1.0
 50
0.0
 71
     0
  3
MONOTXT
  4
BIGFONT
  0
ENDTAB
  0
ENDSEC
  0
SECTION
  2
BLOCKS
  0
BLOCK
  2
*HAT_0001
 70
    65
 10
0.0
 20
0.0
  0
LINE
  8
型材断面
 10
-8.0
 20
-19.075
 11
-4.95
 21
-16.05
  0
LINE
  8
型材断面
 10
-9.4
 20
-19.075
 11
-5.675
 21
-15.325
  0
LINE
  8
型材断面
 10
-10.825
 20
-19.075
 11
-9.3
 21
-17.575
  0
LINE
  8
型材断面
 10
-12.225
 20
-19.075
 11
-10.725
 21
-17.575
  0
LINE
  8
型材断面
 10
-16.625
 20
-22.075
 11
-15.4
 21
-20.825
  0
LINE
  8
型材断面
 10
-13.625
 20
-19.075
 11
-12.125
 21
-17.575
  0
LINE
  8
型材断面
 10
-16.9
 20
-20.925
 11
-15.4
 21
-19.425
  0
LINE
  8
型材断面
 10
-15.05
 20
-19.075
 11
-13.55
 21
-17.575
  0
LINE
  8
型材断面
 10
-16.9
 20
-19.5
 11
-14.95
 21
-17.575
  0
LINE
  8
型材断面
 10
-16.9
 20
-18.1
 11
-16.375
 21
-17.575
  0
ENDBLK
  0
BLOCK
  2
*HAT_0002
 70
    65
 10
0.0
 20
0.0
  0
LINE
  8
ゴム等
 10
3.85
 20
-7.7
 11
3.825
 21
-7.325
  0
LINE
  8
ゴム等
 10
2.825
 20
-8.725
 11
2.825
 21
-6.35
  0
LINE
  8
ゴム等
 10
1.825
 20
-8.175
 11
1.825
 21
-5.35
  0
LINE
  8
ゴム等
 10
0.825
 20
-8.6
 11
0.825
 21
-4.35
  0
LINE
  8
ゴム等
 10
-0.15
 20
-9.575
 11
-0.15
 21
-5.35
  0
LINE
  8
ゴム等
 10
-1.15
 20
-10.6
 11
-1.15
 21
-6.35
  0
LINE
  8
ゴム等
 10
-2.15
 20
-11.25
 11
-2.15
 21
-7.325
  0
LINE
  8
ゴム等
 10
-3.15
 20
-10.25
 11
-3.15
 21
-8.35
  0
ENDBLK
  0
BLOCK
  2
*HAT_0003
 70
    65
 10
0.0
 20
0.0
  0
LINE
  8
ゴム等
 10
-11.35
 20
-17.6
 11
-10.675
 21
-16.925
  0
LINE
  8
ゴム等
 10
-12.775
 20
-17.6
 11
-11.375
 21
-16.225
  0
LINE
  8
ゴム等
 10
-14.175
 20
-17.6
 11
-12.075
 21
-15.5
  0
LINE
  8
ゴム等
 10
-15.575
 20
-17.6
 11
-12.8
 21
-14.8
  0
LINE
  8
ゴム等
 10
-18.5
 20
-19.1
 11
-17.375
 21
-17.975
  0
LINE
  8
ゴム等
 10
-17.0
 20
-17.6
 11
-13.5
 21
-14.1
  0
LINE
  8
ゴム等
 10
-19.9
 20
-19.1
 11
-14.2
 21
-13.4
  0
LINE
  8
ゴム等
 10
-21.325
 20
-19.1
 11
-14.9
 21
-12.675
  0
LINE
  8
ゴム等
 10
-22.725
 20
-19.1
 11
-15.625
 21
-11.975
  0
LINE
  8
ゴム等
 10
-24.15
 20
-19.1
 11
-16.325
 21
-11.275
  0
LINE
  8
ゴム等
 10
-25.55
 20
-19.1
 11
-17.025
 21
-10.575
  0
LINE
  8
ゴム等
 10
-26.975
 20
-19.1
 11
-17.725
 21
-9.85
  0
LINE
  8
ゴム等
 10
-28.375
 20
-19.1
 11
-18.45
 21
-9.15
  0
LINE
  8
ゴム等
 10
-29.8
 20
-19.1
 11
-19.15
 21
-8.45
  0
LINE
  8
ゴム等
 10
-31.2
 20
-19.1
 11
-19.85
 21
-7.75
  0
LINE
  8
ゴム等
 10
-32.625
 20
-19.1
 11
-20.55
 21
-7.025
  0
LINE
  8
ゴム等
 10
-34.025
 20
-19.1
 11
-21.275
 21
-6.325
  0
LINE
  8
ゴム等
 10
-35.45
 20
-19.1
 11
-21.975
 21
-5.625
  0
LINE
  8
ゴム等
 10
-36.85
 20
-19.1
 11
-22.675
 21
-4.925
  0
LINE
  8
ゴム等
 10
-37.65
 20
-18.475
 11
-23.375
 21
-4.2
  0
LINE
  8
ゴム等
 10
-37.65
 20
-17.05
 11
-24.1
 21
-3.5
  0
LINE
  8
ゴム等
 10
-37.65
 20
-15.65
 11
-24.8
 21
-2.8
  0
LINE
  8
ゴム等
 10
-37.65
 20
-14.225
 11
-25.5
 21
-2.1
  0
ENDBLK
  0
BLOCK
  2
*HAT_0004
 70
    65
 10
0.0
 20
0.0
  0
LINE
  8
その他部品等
 10
-47.225
 20
-12.9
 11
-40.15
 21
-5.825
  0
LINE
  8
その他部品等
 10
-48.625
 20
-11.5
 11
-41.55
 21
-4.425
  0
LINE
  8
その他部品等
 10
-49.45
 20
-9.575
 11
-45.8
 21
-13.225
  0
LINE
  8
その他部品等
 10
-48.025
 20
-8.175
 11
-44.4
 21
-11.8
  0
LINE
  8
その他部品等
 10
-46.625
 20
-6.75
 11
-42.975
 21
-10.4
  0
LINE
  8
その他部品等
 10
-45.2
 20
-5.35
 11
-41.575
 21
-8.975
  0
LINE
  8
その他部品等
 10
-43.8
 20
-3.925
 11
-40.15
 21
-7.575
  0
ENDBLK
  0
BLOCK
  2
*HAT_0005
 70
    65
 10
0.0
 20
0.0
  0
LINE
  8
その他部品等
 10
-18.575
 20
2.525
 11
-4.35
 21
16.775
  0
LINE
  8
その他部品等
 10
-19.275
 20
3.25
 11
-5.75
 21
16.775
  0
LINE
  8
その他部品等
 10
-19.975
 20
3.975
 11
-7.175
 21
16.775
  0
LINE
  8
その他部品等
 10
-20.675
 20
4.675
 11
-8.575
 21
16.775
  0
LINE
  8
その他部品等
 10
-21.35
 20
5.4
 11
-9.5
 21
17.275
  0
LINE
  8
その他部品等
 10
-22.05
 20
6.1
 11
-10.2
 21
17.975
  0
LINE
  8
その他部品等
 10
-17.975
 20
11.6
 11
-10.9
 21
18.675
  0
LINE
  8
その他部品等
 10
-18.675
 20
12.3
 11
-11.6
 21
19.375
  0
LINE
  8
その他部品等
 10
-19.4
 20
13.025
 11
-12.325
 21
20.1
  0
LINE
  8
その他部品等
 10
-20.1
 20
13.725
 11
-13.025
 21
20.8
  0
LINE
  8
その他部品等
 10
-20.8
 20
14.425
 11
-13.725
 21
21.5
  0
LINE
  8
その他部品等
 10
-21.5
 20
15.125
 11
-14.425
 21
22.2
  0
LINE
  8
その他部品等
 10
-22.225
 20
15.85
 11
-15.15
 21
22.9
  0
LINE
  8
その他部品等
 10
-22.925
 20
16.55
 11
-15.85
 21
23.625
  0
LINE
  8
その他部品等
 10
-21.75
 20
6.85
 11
-17.5
 21
2.6
  0
LINE
  8
その他部品等
 10
-21.05
 20
7.55
 11
-16.8
 21
3.3
  0
LINE
  8
その他部品等
 10
-20.35
 20
8.25
 11
-16.1
 21
4.025
  0
LINE
  8
その他部品等
 10
-19.625
 20
8.975
 11
-15.4
 21
4.725
  0
LINE
  8
その他部品等
 10
-18.925
 20
9.675
 11
-14.675
 21
5.425
  0
LINE
  8
その他部品等
 10
-18.225
 20
10.375
 11
-13.975
 21
6.125
  0
LINE
  8
その他部品等
 10
-17.525
 20
11.075
 11
-13.275
 21
6.85
  0
LINE
  8
その他部品等
 10
-22.475
 20
17.45
 11
-12.575
 21
7.55
  0
LINE
  8
その他部品等
 10
-21.75
 20
18.15
 11
-11.85
 21
8.25
  0
LINE
  8
その他部品等
 10
-21.05
 20
18.85
 11
-11.15
 21
8.95
  0
LINE
  8
その他部品等
 10
-20.35
 20
19.55
 11
-10.45
 21
9.65
  0
LINE
  8
その他部品等
 10
-19.65
 20
20.275
 11
-9.75
 21
10.375
  0
LINE
  8
その他部品等
 10
-18.95
 20
20.975
 11
-9.05
 21
11.075
  0
LINE
  8
その他部品等
 10
-18.225
 20
21.675
 11
-8.325
 21
11.775
  0
LINE
  8
その他部品等
 10
-17.525
 20
22.375
 11
-7.625
 21
12.475
  0
LINE
  8
その他部品等
 10
-16.825
 20
23.1
 11
-6.925
 21
13.2
  0
LINE
  8
その他部品等
 10
-16.125
 20
23.8
 11
-6.225
 21
13.9
  0
LINE
  8
その他部品等
 10
-7.675
 20
16.775
 11
-5.5
 21
14.6
  0
LINE
  8
その他部品等
 10
-6.25
 20
16.775
 11
-4.8
 21
15.3
  0
LINE
  8
その他部品等
 10
-4.85
 20
16.775
 11
-4.1
 21
16.025
  0
LINE
  8
その他部品等
 10
-3.425
 20
16.775
 11
-3.4
 21
16.725
  0
ENDBLK
  0
BLOCK
  2
*GRP_0001
 70
    65
 10
0.0
 20
0.0
  0
LINE
  8
型材断面
  6
CONTINUOUS
 10
195.0
 20
133.5
 11
195.0
 21
-133.5
  0
LINE
  8
型材断面
  6
CONTINUOUS
 10
195.0
 20
-133.5
 11
-185.0
 21
-133.5
  0
LINE
  8
型材断面
  6
CONTINUOUS
 10
-185.0
 20
-133.5
 11
-185.0
 21
133.5
  0
LINE
  8
型材断面
  6
CONTINUOUS
 10
195.0
 20
133.5
 11
-185.0
 21
133.5
  0
LINE
  8
型材断面
  6
CONTINUOUS
 10
145.0
 20
-133.5
 11
145.0
 21
-118.5
  0
LINE
  8
型材断面
  6
CONTINUOUS
 10
195.0
 20
-118.5
 11
145.0
 21
-118.5
  0
ENDBLK
  0
BLOCK
  2
*DIM_0002
 70
    65
 10
0.0
 20
0.0
  0
LINE
  8
寸法
  6
BYBLOCK
 62
     0
 10
-55.98838
 20
-15.527787
 11
-55.98838
 21
36.85366
  0
LINE
  8
寸法
  6
BYBLOCK
 62
     0
 10
29.51162
 20
36.85366
 11
-55.98838
 21
36.85366
  0
POINT
  8
寸法
 62
     0
 10
29.51162
 20
36.85366
  0
POINT
  8
寸法
 62
     0
 10
-55.98838
 20
36.85366
  0
TEXT
  7
TextStyle03
  8
寸法
  6
CONTINUOUS
 62
     0
 10
-17.0875
 20
37.225
  1
85.5
 40
3.5
 72
     5
 11
-9.4125
 21
37.225
  0
ENDBLK
  0
BLOCK
  2
*DIM_0003
 70
    65
 10
0.0
 20
0.0
  0
LINE
  8
寸法
  6
BYBLOCK
 62
     0
 10
-57.98838
 20
-57.037485
 11
-115.054673
 21
-57.037485
  0
LINE
  8
寸法
  6
BYBLOCK
 62
     0
 10
-25.10291
 20
16.771935
 11
-115.054673
 21
16.771935
  0
LINE
  8
寸法
  6
BYBLOCK
 62
     0
 10
-115.054673
 20
-57.037485
 11
-115.054673
 21
16.771935
  0
POINT
  8
寸法
 62
     0
 10
-115.054673
 20
-57.037485
  0
POINT
  8
寸法
 62
     0
 10
-115.054673
 20
16.771935
  0
TEXT
  7
TextStyle03
  8
寸法
  6
CONTINUOUS
 62
     0
 10
-115.45
 20
-23.9875
  1
73.8
 40
3.5
 50
90.0
 72
     5
 11
-115.45
 21
-16.3125
  0
ENDBLK
  0
BLOCK
  2
*DIM_0004
 70
    65
 10
0.0
 20
0.0
  0
LINE
  8
寸法
  6
BYBLOCK
 62
     0
 10
-108.816122
 20
-57.037485
 11
-107.077802
 21
-57.037485
  0
LINE
  8
寸法
  6
BYBLOCK
 62
     0
 10
-57.98838
 20
-16.113543
 11
-107.077802
 21
-16.113543
  0
LINE
  8
寸法
  6
BYBLOCK
 62
     0
 10
-107.077802
 20
-57.037485
 11
-107.077802
 21
-16.113543
  0
POINT
  8
寸法
 62
     0
 10
-107.077802
 20
-57.037485
  0
POINT
  8
寸法
 62
     0
 10
-107.077802
 20
-16.113543
  0
TEXT
  7
TextStyle03
  8
寸法
  6
CONTINUOUS
 62
     0
 10
-107.475
 20
-40.4375
  1
40.9
 40
3.5
 50
90.0
 72
     5
 11
-107.475
 21
-32.7625
  0
ENDBLK
  0
BLOCK
  2
*DIM_0005
 70
    65
 10
0.0
 20
0.0
  0
LINE
  8
寸法
  6
BYBLOCK
 62
     0
 10
-27.10291
 20
16.771935
 11
-107.077802
 21
16.771935
  0
LINE
  8
寸法
  6
BYBLOCK
 62
     0
 10
-107.077802
 20
-16.113543
 11
-107.077802
 21
16.771935
  0
POINT
  8
寸法
 62
     0
 10
-107.077802
 20
16.771935
  0
TEXT
  7
TextStyle03
  8
寸法
  6
CONTINUOUS
 62
     0
 10
-107.475
 20
-3.5125
  1
32.9
 40
3.5
 50
90.0
 72
     5
 11
-107.475
 21
4.1625
  0
ENDBLK
  0
BLOCK
  2
*DIM_0006
 70
    65
 10
0.0
 20
0.0
  0
LINE
  8
寸法
  6
BYBLOCK
 62
     0
 10
-55.98838
 20
29.574978
 11
-55.98838
 21
30.0705
  0
LINE
  8
寸法
  6
BYBLOCK
 62
     0
 10
87.01162
 20
-3.537485
 11
87.01162
 21
30.0705
  0
LINE
  8
寸法
  6
BYBLOCK
 62
     0
 10
-55.98838
 20
30.0705
 11
87.01162
 21
30.0705
  0
POINT
  8
寸法
 62
     0
 10
-55.98838
 20
30.0705
  0
POINT
  8
寸法
 62
     0
 10
87.01162
 20
30.0705
  0
TEXT
  7
TextStyle03
  8
寸法
  6
CONTINUOUS
 62
     0
 10
12.65
 20
30.425
  1
143
 40
3.5
 72
     5
 11
18.35
 21
30.425
  0
ENDBLK
  0
BLOCK
  2
*DIM_0007
 70
    65
 10
0.0
 20
0.0
  0
LINE
  8
寸法
  6
BYBLOCK
 62
     0
 10
29.51162
 20
23.121535
 11
29.51162
 21
23.579478
  0
LINE
  8
寸法
  6
BYBLOCK
 62
     0
 10
87.01162
 20
23.121535
 11
87.01162
 21
23.579478
  0
LINE
  8
寸法
  6
BYBLOCK
 62
     0
 10
29.51162
 20
23.579478
 11
87.01162
 21
23.579478
  0
POINT
  8
寸法
 62
     0
 10
29.51162
 20
23.579478
  0
POINT
  8
寸法
 62
     0
 10
87.01162
 20
23.579478
  0
TEXT
  7
TextStyle03
  8
寸法
  6
CONTINUOUS
 62
     0
 10
54.4125
 20
23.95
  1
57.5
 40
3.5
 72
     5
 11
62.0875
 21
23.95
  0
ENDBLK
  0
BLOCK
  2
*GRP_0008
 70
    65
 10
0.0
 20
0.0
  0
LINE
  8
通り芯
  6
CONTINUOUS
 10
-53.38835
 20
-41.537482
 11
-53.38835
 21
-40.037482
  0
ARC
  8
通り芯
  6
CONTINUOUS
 10
-42.488349
 20
-41.537483
 40
1.5
 50
45.0
 51
90.0
  0
ARC
  8
通り芯
  6
CONTINUOUS
 10
-40.367029
 20
-41.537483
 40
1.5
 50
225.0
 51
270.0
  0
LINE
  8
通り芯
  6
CONTINUOUS
 10
-42.48835
 20
-41.537482
 11
-40.98835
 21
-43.037482
  0
LINE
  8
通り芯
  6
CONTINUOUS
 10
-40.36703
 20
-41.537482
 11
-41.86703
 21
-40.037482
  0
LINE
  8
型材断面
  6
CONTINUOUS
 62
    15
 10
-29.48835
 20
-41.537482
 11
-29.48835
 21
-43.037482
  0
LINE
  8
型材断面
  6
CONTINUOUS
 62
    15
 10
-53.38835
 20
-41.537482
 11
-42.48835
 21
-41.537482
  0
LINE
  8
型材断面
  6
CONTINUOUS
 62
    15
 10
-29.48835
 20
-41.537482
 11
-40.36703
 21
-41.537482
  0
LINE
  8
型材断面
  6
CONTINUOUS
 62
    15
 10
-29.48835
 20
-43.037482
 11
-40.98835
 21
-43.037482
  0
LINE
  8
型材断面
  6
CONTINUOUS
 62
    15
 10
-53.38835
 20
-40.037482
 11
-41.86703
 21
-40.037482
  0
ENDBLK
  0
BLOCK
  2
*GRP_0009
 70
    65
 10
0.0
 20
0.0
  0
LINE
  8
型材断面
  6
CONTINUOUS
 10
-16.88838
 20
-22.037485
 11
-15.38838
 21
-22.037485
  0
LINE
  8
型材断面
  6
CONTINUOUS
 62
    47
 10
-8.197655
 20
-17.537485
 11
-4.283445
 21
-13.623275
  0
LINE
  8
型材断面
  6
CONTINUOUS
 62
    47
 10
-5.808568
 20
-15.148398
 11
-4.747908
 21
-16.209058
  0
LINE
  8
型材断面
  6
CONTINUOUS
 62
    47
 10
-8.197655
 20
-17.537485
 11
1.504422
 21
-7.835408
  0
LINE
  8
型材断面
  6
CONTINUOUS
 62
    47
 10
-7.576335
 20
-19.037485
 11
2.565083
 21
-8.896068
  0
LINE
  8
型材断面
  6
CONTINUOUS
 10
1.504422
 20
-7.835408
 11
2.565083
 21
-8.896068
  0
ARC
  8
型材断面
  6
CONTINUOUS
 10
-15.388375
 20
-19.037488
 40
1.5
 50
90.0
 51
180.0
  0
LINE
  8
型材断面
  6
CONTINUOUS
 10
-16.88838
 20
-29.537485
 11
-16.88838
 21
-17.537485
  0
LINE
  8
型材断面
  6
CONTINUOUS
 62
    47
 10
-8.197655
 20
-17.537485
 11
-16.88838
 21
-17.537485
  0
LINE
  8
型材断面
  6
CONTINUOUS
 62
    47
 10
-15.38838
 20
-29.537485
 11
-15.38838
 21
-19.037485
  0
LINE
  8
型材断面
  6
CONTINUOUS
 10
-16.88838
 20
-29.537485
 11
-15.38838
 21
-29.537485
  0
LINE
  8
型材断面
  6
CONTINUOUS
 62
    47
 10
-7.576335
 20
-19.037485
 11
-15.38838
 21
-19.037485
  0
INSERT
  2
*HAT_0001
  8
型材断面
 10
0.0
 20
0.0
  0
LINE
  8
型材断面
  6
CONTINUOUS
 10
-16.88838
 20
-27.537485
 11
-15.38838
 21
-27.537485
  0
LINE
  8
型材断面
  6
CONTINUOUS
 10
-16.88838
 20
-19.537485
 11
-15.38838
 21
-19.537485
  0
LINE
  8
型材断面
  6
CONTINUOUS
 10
-16.51338
 20
-19.537485
 11
-16.51338
 21
-27.537485
  0
LINE
  8
型材断面
  6
CONTINUOUS
 10
-16.13838
 20
-19.537485
 11
-16.13838
 21
-27.537485
  0
LINE
  8
型材断面
  6
CONTINUOUS
 10
-15.76338
 20
-19.537485
 11
-15.76338
 21
-27.537485
  0
ENDBLK
  0
BLOCK
  2
*GRP_0010
 70
    65
 10
0.0
 20
0.0
  0
LINE
  8
ゴム等
  6
CONTINUOUS
 62
    63
 10
2.565083
 20
-8.896068
 11
1.504422
 21
-7.835408
  0
LINE
  8
ゴム等
  6
CONTINUOUS
 62
    63
 10
3.979295
 20
-7.481855
 11
0.797315
 21
-4.299875
  0
LINE
  8
ゴム等
  6
CONTINUOUS
 62
    63
 10
-4.152433
 20
-9.24962
 11
-2.031113
 21
-11.370943
  0
LINE
  8
ゴム等
  6
CONTINUOUS
 62
    63
 10
0.797315
 20
-4.299875
 11
-4.152433
 21
-9.24962
  0
LINE
  8
ゴム等
  6
CONTINUOUS
 62
    63
 10
3.979295
 20
-7.481855
 11
2.565083
 21
-8.896068
  0
LINE
  8
ゴム等
  6
CONTINUOUS
 62
    63
 10
1.504422
 20
-7.835408
 11
-2.031113
 21
-11.370943
  0
INSERT
  2
*HAT_0002
  8
ゴム等
 10
0.0
 20
0.0
  0
ENDBLK
  0
BLOCK
  2
*GRP_0011
 70
    65
 10
0.0
 20
0.0
  0
LINE
  8
型材断面
  6
CONTINUOUS
 10
-26.38838
 20
-19.037482
 11
-26.38838
 21
-20.537482
  0
LINE
  8
型材断面
  6
CONTINUOUS
 10
-18.38838
 20
-19.412482
 11
-26.38838
 21
-19.412482
  0
LINE
  8
型材断面
  6
CONTINUOUS
 10
-18.38838
 20
-19.787482
 11
-26.38838
 21
-19.787482
  0
LINE
  8
型材断面
  6
CONTINUOUS
 10
-18.38838
 20
-20.162482
 11
-26.38838
 21
-20.162482
  0
LINE
  8
型材断面
  6
CONTINUOUS
 10
-18.38838
 20
-19.037482
 11
-18.38838
 21
-32.537482
  0
ARC
  8
型材断面
  6
CONTINUOUS
 10
-18.388377
 20
-20.537482
 40
1.5
 50
0.0
 51
90.0
  0
ARC
  8
型材断面
  6
CONTINUOUS
 10
-18.388377
 20
-31.037482
 40
1.5
 50
-90.0
 51
0.0
  0
LINE
  8
型材断面
  6
CONTINUOUS
 10
-16.88838
 20
-32.537482
 11
-16.88838
 21
-19.037482
  0
LINE
  8
型材断面
  6
CONTINUOUS
 10
-18.38838
 20
-31.037482
 11
-24.88838
 21
-31.037482
  0
LINE
  8
型材断面
  6
CONTINUOUS
 10
-18.38838
 20
-31.412482
 11
-24.88838
 21
-31.412482
  0
LINE
  8
型材断面
  6
CONTINUOUS
 10
-18.38838
 20
-31.787482
 11
-24.88838
 21
-31.787482
  0
LINE
  8
型材断面
  6
CONTINUOUS
 10
-18.38838
 20
-32.162482
 11
-24.88838
 21
-32.162482
  0
LINE
  8
型材断面
  6
CONTINUOUS
 10
-16.88838
 20
-32.537482
 11
-24.88838
 21
-32.537482
  0
LINE
  8
型材断面
  6
CONTINUOUS
 10
-24.88838
 20
-32.537482
 11
-24.88838
 21
-31.037482
  0
LINE
  8
型材断面
  6
CONTINUOUS
 10
-33.709502
 20
-10.098147
 11
-42.648842
 21
-19.037482
  0
ARC
  8
型材断面
  6
CONTINUOUS
 10
-42.648835
 20
-19.037482
 40
1.5
 50
134.999994
 51
270.0
  0
LINE
  8
型材断面
  6
CONTINUOUS
 10
-40.780573
 20
-15.047895
 11
-39.719913
 21
-16.108555
  0
LINE
  8
型材断面
  6
CONTINUOUS
 10
-37.952142
 20
-12.219467
 11
-36.891482
 21
-13.280127
  0
LINE
  8
型材断面
  6
CONTINUOUS
 10
-37.686978
 20
-12.484633
 11
-40.515408
 21
-15.31306
  0
LINE
  8
型材断面
  6
CONTINUOUS
 10
-37.421813
 20
-12.749798
 11
-40.250242
 21
-15.578225
  0
LINE
  8
型材断面
  6
CONTINUOUS
 10
-37.156647
 20
-13.014963
 11
-39.985077
 21
-15.84339
  0
LINE
  8
型材断面
  6
CONTINUOUS
 10
-34.770162
 20
-9.037488
 11
-33.709502
 21
-10.098147
  0
LINE
  8
型材断面
  6
CONTINUOUS
 10
-18.38838
 20
-20.537482
 11
-46.270158
 21
-20.537482
  0
LINE
  8
型材断面
  6
CONTINUOUS
 10
-16.88838
 20
-19.037482
 11
-42.648842
 21
-19.037482
  0
LINE
  8
型材断面
  6
CONTINUOUS
 62
    47
 10
-34.77016
 20
-9.037485
 11
-46.270158
 21
-20.537482
  0
ENDBLK
  0
BLOCK
  2
*GRP_0012
 70
    65
 10
0.0
 20
0.0
  0
LINE
  8
ゴム等
  6
CONTINUOUS
 10
-37.648842
 20
-14.037488
 11
-37.648842
 21
-19.037485
  0
LINE
  8
ゴム等
  6
CONTINUOUS
 10
-17.38838
 20
-17.537485
 11
-17.38838
 21
-19.037485
  0
LINE
  8
ゴム等
  6
CONTINUOUS
 10
-37.648842
 20
-14.037488
 11
-25.577765
 21
-1.966415
  0
LINE
  8
ゴム等
  6
CONTINUOUS
 10
-25.577765
 20
-1.966415
 11
-10.006695
 21
-17.537485
  0
LINE
  8
ゴム等
  6
CONTINUOUS
 10
-17.38838
 20
-17.537485
 11
-10.006695
 21
-17.537485
  0
LINE
  8
ゴム等
  6
CONTINUOUS
 10
-37.648842
 20
-19.037485
 11
-17.38838
 21
-19.037485
  0
INSERT
  2
*HAT_0003
  8
ゴム等
 10
0.0
 20
0.0
  0
ENDBLK
  0
BLOCK
  2
*GRP_0013
 70
    65
 10
0.0
 20
0.0
  0
LINE
  8
通り芯
  6
CONTINUOUS
 10
-42.98838
 20
-41.537485
 11
-42.98838
 21
-32.537482
  0
LINE
  8
通り芯
  6
CONTINUOUS
 10
-54.48838
 20
-32.537482
 11
-42.98838
 21
-32.537482
  0
LINE
  8
通り芯
  6
CONTINUOUS
 10
-52.98838
 20
-32.537482
 11
-52.98838
 21
-41.537482
  0
LINE
  8
通り芯
  6
DOT
 10
-44.48838
 20
-41.537485
 11
-44.48838
 21
-32.537482
  0
POINT
  8
通り芯
 10
-51.410778
 20
-33.952578
  0
POINT
  8
通り芯
 10
-50.742123
 20
-36.460037
  0
POINT
  8
通り芯
 10
-48.011775
 20
-34.955562
  0
POINT
  8
通り芯
 10
-46.95307
 20
-37.74163
  0
POINT
  8
通り芯
 10
-49.627695
 20
-38.744615
  0
POINT
  8
通り芯
 10
-51.187892
 20
-40.63914
  0
POINT
  8
通り芯
 10
-46.841627
 20
-40.750583
  0
POINT
  8
通り芯
 10
-45.560038
 20
-35.624218
  0
POINT
  8
通り芯
 10
-45.950085
 20
-33.785412
  0
ENDBLK
  0
BLOCK
  2
*GRP_0014
 70
    65
 10
0.0
 20
0.0
  0
LINE
  8
ボルト／ビス
  6
CONTINUOUS
 10
26.66629
 20
-25.687485
 11
27.917215
 21
-25.232187
  0
ARC
  8
ボルト／ビス
  6
CONTINUOUS
 10
26.040828
 20
-21.593318
 40
4.09417
 50
242.722034
 51
270.0
  0
LINE
  8
ボルト／ビス
  6
CONTINUOUS
 10
14.15703
 20
-25.687485
 11
12.906105
 21
-25.232187
  0
ARC
  8
ボルト／ビス
  6
CONTINUOUS
 10
14.782493
 20
-21.593318
 40
4.09417
 50
270.0
 51
297.277966
  0
ARC
  8
ボルト／ビス
  6
CONTINUOUS
 10
20.411661
 20
-9.993755
 40
15.693732
 50
256.165046
 51
283.834954
  0
LINE
  8
ボルト／ビス
  6
CONTINUOUS
 10
27.917215
 20
-20.537485
 11
27.917215
 21
-25.232187
  0
LINE
  8
ボルト／ビス
  6
CONTINUOUS
 10
12.906105
 20
-20.537485
 11
12.906105
 21
-25.232187
  0
LINE
  8
ボルト／ビス
  6
CONTINUOUS
 10
14.15703
 20
-25.687485
 11
26.66629
 21
-25.687485
  0
LINE
  8
ボルト／ビス
  6
CONTINUOUS
 10
16.658883
 20
-25.232187
 11
16.658883
 21
-20.537485
  0
LINE
  8
ボルト／ビス
  6
CONTINUOUS
 10
24.164437
 20
-25.232187
 11
24.164437
 21
-20.537485
  0
LINE
  8
ボルト／ビス
  6
CONTINUOUS
 10
16.41166
 20
-6.737485
 11
17.21166
 21
-5.537485
  0
LINE
  8
ボルト／ビス
  6
CONTINUOUS
 10
24.41166
 20
-6.737485
 11
23.61166
 21
-5.537485
  0
LINE
  8
ボルト／ビス
  6
CONTINUOUS
 10
17.21166
 20
-5.537485
 11
23.61166
 21
-5.537485
  0
LINE
  8
ボルト／ビス
  6
CONTINUOUS
 10
16.41166
 20
-6.737485
 11
24.41166
 21
-6.737485
  0
LINE
  8
ボルト／ビス
  6
CONTINUOUS
 10
20.41166
 20
-30.687485
 11
20.41166
 21
-0.537485
  0
LINE
  8
ボルト／ビス
  6
CONTINUOUS
 10
12.906105
 20
-20.537485
 11
27.917215
 21
-20.537485
  0
LINE
  8
ボルト／ビス
  6
CONTINUOUS
 10
23.61166
 20
-5.537485
 11
23.61166
 21
-20.537485
  0
LINE
  8
ボルト／ビス
  6
CONTINUOUS
 10
24.41166
 20
-6.737485
 11
24.41166
 21
-20.537485
  0
LINE
  8
ボルト／ビス
  6
CONTINUOUS
 10
16.41166
 20
-6.737485
 11
16.41166
 21
-20.537485
  0
LINE
  8
ボルト／ビス
  6
CONTINUOUS
 10
17.21166
 20
-5.537485
 11
17.21166
 21
-20.537485
  0
ENDBLK
  0
BLOCK
  2
*GRP_0015
 70
    65
 10
0.0
 20
0.0
  0
LINE
  8
ボルト／ビス
  6
CONTINUOUS
 10
14.15703
 20
-7.08748
 11
12.906105
 21
-7.542778
  0
ARC
  8
ボルト／ビス
  6
CONTINUOUS
 10
14.782492
 20
-11.181649
 40
4.09417
 50
62.722034
 51
90.0
  0
LINE
  8
ボルト／ビス
  6
CONTINUOUS
 10
26.66629
 20
-7.08748
 11
27.917215
 21
-7.542778
  0
ARC
  8
ボルト／ビス
  6
CONTINUOUS
 10
26.040827
 20
-11.181649
 40
4.09417
 50
90.0
 51
117.277966
  0
ARC
  8
ボルト／ビス
  6
CONTINUOUS
 10
20.41166
 20
-22.781212
 40
15.693732
 50
76.165046
 51
103.834954
  0
LINE
  8
ボルト／ビス
  6
CONTINUOUS
 10
12.906105
 20
-12.23748
 11
12.906105
 21
-7.542778
  0
LINE
  8
ボルト／ビス
  6
CONTINUOUS
 10
27.917215
 20
-12.23748
 11
27.917215
 21
-7.542778
  0
LINE
  8
ボルト／ビス
  6
CONTINUOUS
 10
26.66629
 20
-7.08748
 11
14.15703
 21
-7.08748
  0
LINE
  8
ボルト／ビス
  6
CONTINUOUS
 10
24.164437
 20
-7.542778
 11
24.164437
 21
-12.23748
  0
LINE
  8
ボルト／ビス
  6
CONTINUOUS
 10
16.658883
 20
-7.542778
 11
16.658883
 21
-12.23748
  0
LINE
  8
ボルト／ビス
  6
CONTINUOUS
 10
27.917215
 20
-12.23748
 11
12.906105
 21
-12.23748
  0
LINE
  8
ボルト／ビス
  6
CONTINUOUS
 10
11.66166
 20
-14.03748
 11
11.66166
 21
-15.03748
  0
LINE
  8
ボルト／ビス
  6
CONTINUOUS
 10
29.16166
 20
-14.03748
 11
29.16166
 21
-15.03748
  0
LINE
  8
ボルト／ビス
  6
CONTINUOUS
 10
11.66166
 20
-14.03748
 11
29.16166
 21
-14.03748
  0
LINE
  8
ボルト／ビス
  6
CONTINUOUS
 10
11.66166
 20
-15.03748
 11
29.16166
 21
-15.03748
  0
LINE
  8
ボルト／ビス
  6
CONTINUOUS
 10
20.41166
 20
-12.23748
 11
20.41166
 21
-14.03748
  0
LINE
  8
ボルト／ビス
  6
CONTINUOUS
 10
28.31166
 20
-12.23748
 11
28.31166
 21
-14.03748
  0
LINE
  8
ボルト／ビス
  6
CONTINUOUS
 10
12.51166
 20
-12.23748
 11
12.51166
 21
-14.03748
  0
LINE
  8
ボルト／ビス
  6
CONTINUOUS
 10
28.31166
 20
-12.23748
 11
12.51166
 21
-12.23748
  0
ENDBLK
  0
BLOCK
  2
*GRP_0016
 70
    65
 10
0.0
 20
0.0
  0
LINE
  8
ボルト／ビス
  6
CONTINUOUS
 10
-37.952138
 20
-10.09815
 11
-38.758145
 21
-9.42183
  0
ARC
  8
ボルト／ビス
  6
CONTINUOUS
 10
-39.850885
 20
-10.724107
 40
1.7
 50
49.999982
 51
134.999993
  0
LINE
  8
ボルト／ビス
  6
CONTINUOUS
 10
-41.052965
 20
-9.522023
 11
-42.265488
 21
-10.734545
  0
LINE
  8
ボルト／ビス
  6
CONTINUOUS
 10
-42.901885
 20
-15.047897
 11
-43.578205
 21
-14.24189
  0
ARC
  8
ボルト／ビス
  6
CONTINUOUS
 10
-42.275932
 20
-13.149153
 40
1.7
 50
134.999993
 51
220.000004
  0
LINE
  8
ボルト／ビス
  6
CONTINUOUS
 10
-43.478013
 20
-11.94707
 11
-42.265488
 21
-10.734545
  0
LINE
  8
ボルト／ビス
  6
CONTINUOUS
 10
-40.29864
 20
-9.312035
 11
-40.469873
 21
-9.1408
  0
LINE
  8
ボルト／ビス
  6
CONTINUOUS
 10
-41.038667
 20
-10.971418
 11
-41.533643
 21
-11.466392
  0
LINE
  8
ボルト／ビス
  6
CONTINUOUS
 10
-41.215502
 20
-10.228898
 11
-40.29864
 21
-9.312035
  0
LINE
  8
ボルト／ビス
  6
CONTINUOUS
 10
-41.038667
 20
-10.971418
 11
-41.215502
 21
-10.794582
  0
ARC
  8
ボルト／ビス
  6
CONTINUOUS
 10
-40.932661
 20
-10.511743
 40
0.4
 50
134.999993
 51
224.999993
  0
LINE
  8
ボルト／ビス
  6
CONTINUOUS
 10
-43.688
 20
-12.701395
 11
-43.859235
 21
-12.53016
  0
LINE
  8
ボルト／ビス
  6
CONTINUOUS
 10
-42.028618
 20
-11.961367
 11
-41.533643
 21
-11.466392
  0
LINE
  8
ボルト／ビス
  6
CONTINUOUS
 10
-42.771137
 20
-11.784533
 11
-43.688
 21
-12.701395
  0
LINE
  8
ボルト／ビス
  6
CONTINUOUS
 10
-42.028618
 20
-11.961367
 11
-42.205452
 21
-11.784533
  0
ARC
  8
ボルト／ビス
  6
CONTINUOUS
 10
-42.488296
 20
-12.067377
 40
0.4
 50
44.999993
 51
134.999993
  0
LINE
  8
ボルト／ビス
  6
CONTINUOUS
 10
-37.952138
 20
-10.09815
 11
-42.901885
 21
-15.047897
  0
LINE
  8
ボルト／ビス
  6
CONTINUOUS
 10
-43.65947
 20
-9.340565
 11
-33.178817
 21
-19.82122
  0
LINE
  8
ボルト／ビス
  6
CONTINUOUS
 10
-35.12371
 20
-15.047897
 11
-35.12371
 21
-15.755005
  0
LINE
  8
ボルト／ビス
  6
CONTINUOUS
 10
-37.952138
 20
-17.876325
 11
-37.24503
 21
-17.876325
  0
LINE
  8
ボルト／ビス
  6
CONTINUOUS
 10
-35.12371
 20
-15.047897
 11
-37.952138
 21
-17.876325
  0
LINE
  8
ボルト／ビス
  6
CONTINUOUS
 10
-35.12371
 20
-15.755005
 11
-37.24503
 21
-17.876325
  0
LINE
  8
ボルト／ビス
  6
CONTINUOUS
 10
-39.36635
 20
-11.512365
 11
-35.12371
 21
-15.755005
  0
LINE
  8
ボルト／ビス
  6
CONTINUOUS
 10
-41.487673
 20
-13.633685
 11
-37.24503
 21
-17.876325
  0
LINE
  8
ボルト／ビス
  6
CONTINUOUS
 10
-41.841225
 20
-13.987237
 11
-37.952138
 21
-17.876325
  0
LINE
  8
ボルト／ビス
  6
CONTINUOUS
 10
-39.012798
 20
-11.15881
 11
-35.12371
 21
-15.047897
  0
ENDBLK
  0
BLOCK
  2
*GRP_0017
 70
    65
 10
0.0
 20
0.0
  0
LINE
  8
St
  6
CONTINUOUS
 10
36.11162
 20
-20.537485
 11
36.11162
 21
-50.537485
  0
LINE
  8
St
  6
CONTINUOUS
 62
   127
 10
-13.88838
 20
-20.537485
 11
-13.88838
 21
-50.537485
  0
LINE
  8
St
  6
CONTINUOUS
 62
   127
 10
-0.28484
 20
-20.537485
 11
-3.28484
 21
-23.537485
  0
LINE
  8
St
  6
CONTINUOUS
 62
   127
 10
1.129368
 20
-20.537485
 11
-1.870633
 21
-23.537485
  0
LINE
  8
St
  6
CONTINUOUS
 62
   127
 10
-13.88838
 20
-50.537485
 11
36.11162
 21
-50.537485
  0
LINE
  8
St
  6
CONTINUOUS
 62
   127
 10
-13.88838
 20
-20.537485
 11
36.11162
 21
-20.537485
  0
LINE
  8
St
  6
CONTINUOUS
 62
   127
 10
-13.88838
 20
-23.537485
 11
36.11162
 21
-23.537485
  0
LINE
  8
St
  6
CONTINUOUS
 62
   127
 10
28.309672
 20
-20.537485
 11
25.309672
 21
-23.537485
  0
LINE
  8
St
  6
CONTINUOUS
 62
   127
 10
29.72388
 20
-20.537485
 11
26.72388
 21
-23.537485
  0
ENDBLK
  0
BLOCK
  2
*GRP_0018
 70
    65
 10
0.0
 20
0.0
  0
POLYLINE
  8
寸法
  6
BYBLOCK
 62
     0
 66
     1
  0
VERTEX
  8
寸法
 10
-31.853277
 20
-4.14385
  0
VERTEX
  8
寸法
 10
-29.255202
 20
-5.64385
  0
VERTEX
  8
寸法
 10
-30.755202
 20
-3.045775
  0
SEQEND
  0
POLYLINE
  8
寸法
  6
BYBLOCK
 62
     0
 66
     1
  0
VERTEX
  8
寸法
 10
-29.255202
 20
-5.64385
  0
VERTEX
  8
寸法
 10
-42.969808
 20
8.070755
  0
VERTEX
  8
寸法
 10
-62.636888
 20
8.070755
  0
SEQEND
  0
ENDBLK
  0
BLOCK
  2
*GRP_0019
 70
    65
 10
0.0
 20
0.0
  0
POLYLINE
  8
寸法
  6
BYBLOCK
 62
     0
 66
     1
  0
VERTEX
  8
寸法
 10
3.325
 20
-2.751925
  0
VERTEX
  8
寸法
 10
1.825
 20
-5.35
  0
VERTEX
  8
寸法
 10
4.423075
 20
-3.85
  0
SEQEND
  0
POLYLINE
  8
寸法
  6
BYBLOCK
 62
     0
 66
     1
  0
VERTEX
  8
寸法
 10
1.825
 20
-5.35
  0
VERTEX
  8
寸法
 10
12.801008
 20
5.626008
  0
VERTEX
  8
寸法
 10
18.378855
 20
5.626008
  0
SEQEND
  0
ENDBLK
  0
BLOCK
  2
*GRP_0020
 70
    65
 10
0.0
 20
0.0
  0
POLYLINE
  8
寸法
  6
BYBLOCK
 62
     0
 66
     1
  0
VERTEX
  8
寸法
 10
4.198905
 20
-47.425108
  0
VERTEX
  8
寸法
 10
1.600828
 20
-45.925108
  0
VERTEX
  8
寸法
 10
3.100828
 20
-48.523185
  0
SEQEND
  0
POLYLINE
  8
寸法
  6
BYBLOCK
 62
     0
 66
     1
  0
VERTEX
  8
寸法
 10
1.600828
 20
-45.925108
  0
VERTEX
  8
寸法
 10
17.754682
 20
-62.078963
  0
VERTEX
  8
寸法
 10
28.992147
 20
-62.078963
  0
SEQEND
  0
ENDBLK
  0
BLOCK
  2
*GRP_0021
 70
    65
 10
0.0
 20
0.0
  0
LINE
  8
型材断面
  6
CONTINUOUS
 62
    47
 10
16.41166
 20
-19.037485
 11
16.41166
 21
-20.537485
  0
LINE
  8
型材断面
  6
CONTINUOUS
 62
    47
 10
24.41166
 20
-19.037485
 11
24.41166
 21
-20.537485
  0
LINE
  8
型材断面
  6
CONTINUOUS
 62
    47
 10
24.41166
 20
-19.412485
 11
16.41166
 21
-19.412485
  0
LINE
  8
型材断面
  6
CONTINUOUS
 62
    47
 10
24.41166
 20
-20.162485
 11
16.41166
 21
-20.162485
  0
LINE
  8
型材断面
  6
CONTINUOUS
 62
    47
 10
24.41166
 20
-19.787485
 11
16.41166
 21
-19.787485
  0
LINE
  8
型材断面
  6
DASHDOT
 62
    47
 10
20.41166
 20
-23.14984
 11
20.41166
 21
-16.64901
  0
LINE
  8
型材断面
  6
CONTINUOUS
 62
    47
 10
-54.48838
 20
-44.537485
 11
-54.48838
 21
-55.537485
  0
ARC
  8
型材断面
  6
CONTINUOUS
 62
    47
 10
-27.988346
 20
-34.037489
 40
1.5
 50
90.0
 51
180.0
  0
ARC
  8
型材断面
  6
CONTINUOUS
 62
    47
 10
-29.488346
 20
-43.037489
 40
1.5
 50
-90.0
 51
0.0
  0
ARC
  8
型材断面
  6
CONTINUOUS
 62
    47
 10
-54.488376
 20
-44.537489
 40
1.5
 50
90.0
 51
180.0
  0
ARC
  8
型材断面
  6
CONTINUOUS
 62
    47
 10
-54.488376
 20
-55.537489
 40
1.5
 50
180.0
 51
270.0
  0
ARC
  8
型材断面
  6
CONTINUOUS
 62
    47
 10
-42.488376
 20
-57.037489
 40
1.5
 50
0.0
 51
90.0
  0
LINE
  8
型材断面
  6
CONTINUOUS
 62
    47
 10
-42.48838
 20
-57.037485
 11
-55.98838
 21
-57.037485
  0
LINE
  8
型材断面
  6
CONTINUOUS
 62
    47
 10
-54.48838
 20
-55.537485
 11
-40.98838
 21
-55.537485
  0
LINE
  8
型材断面
  6
CONTINUOUS
 62
    47
 10
-27.98835
 20
-34.037485
 11
-27.98835
 21
-44.537485
  0
LINE
  8
型材断面
  6
CONTINUOUS
 62
    47
 10
-54.48838
 20
-44.537485
 11
-27.98835
 21
-44.537485
  0
LINE
  8
型材断面
  6
CONTINUOUS
 62
    47
 10
-29.48835
 20
-43.037485
 11
-29.48835
 21
-32.537485
  0
LINE
  8
型材断面
  6
CONTINUOUS
 62
    47
 10
-29.48835
 20
-32.537485
 11
-15.38838
 21
-32.537485
  0
ARC
  8
型材断面
  6
CONTINUOUS
 62
    47
 10
-13.888377
 20
-20.537488
 40
1.5
 50
90.0
 51
180.0
  0
ARC
  8
型材断面
  6
CONTINUOUS
 62
    47
 10
-15.388377
 20
-32.537488
 40
1.5
 50
-90.0
 51
0.0
  0
LINE
  8
型材断面
  6
CONTINUOUS
 62
    47
 10
-55.98838
 20
-57.037485
 11
-55.98838
 21
-43.037485
  0
LINE
  8
型材断面
  6
CONTINUOUS
 62
    47
 10
-29.48835
 20
-43.037485
 11
-55.98838
 21
-43.037485
  0
LINE
  8
型材断面
  6
CONTINUOUS
 62
    47
 10
-27.98835
 20
-34.037485
 11
-13.88838
 21
-34.037485
  0
LINE
  8
型材断面
  6
CONTINUOUS
 62
    47
 10
-13.88838
 20
-20.537485
 11
-13.88838
 21
-34.037485
  0
LINE
  8
型材断面
  6
CONTINUOUS
 62
    47
 10
-15.38838
 20
-32.537485
 11
-15.38838
 21
-19.037485
  0
LINE
  8
型材断面
  6
CONTINUOUS
 62
    47
 10
-15.38838
 20
-19.037485
 11
85.51162
 21
-19.037485
  0
ARC
  8
型材断面
  6
CONTINUOUS
 62
    47
 10
85.511623
 20
-19.037486
 40
1.5
 50
-90.0
 51
0.0
  0
LINE
  8
型材断面
  6
CONTINUOUS
 62
    47
 10
-13.88838
 20
-20.537485
 11
87.01162
 21
-20.537485
  0
LINE
  8
型材断面
  6
CONTINUOUS
 62
    47
 10
-40.98838
 20
-55.537485
 11
-40.98838
 21
-67.037485
  0
LINE
  8
型材断面
  6
CONTINUOUS
 62
    47
 10
-42.48838
 20
-57.037485
 11
-42.48838
 21
-67.037485
  0
LINE
  8
型材断面
  6
CONTINUOUS
 10
-40.98838
 20
-67.037485
 11
-42.48838
 21
-67.037485
  0
LINE
  8
型材断面
  6
CONTINUOUS
 62
    47
 10
87.01162
 20
-20.537485
 11
87.01162
 21
-0.537485
  0
LINE
  8
型材断面
  6
CONTINUOUS
 10
87.01162
 20
-0.537485
 11
85.51162
 21
-0.537485
  0
LINE
  8
型材断面
  6
CONTINUOUS
 62
    47
 10
85.51162
 20
-19.037485
 11
85.51162
 21
-0.537485
  0
ENDBLK
  0
BLOCK
  2
*DIM_0022
 70
    65
 10
0.0
 20
0.0
  0
LINE
  8
寸法
  6
BYBLOCK
 62
     0
 10
88.01162
 20
-20.537485
 11
117.744383
 21
-20.537485
  0
LINE
  8
寸法
  6
BYBLOCK
 62
     0
 10
88.01162
 20
-0.537485
 11
117.744383
 21
-0.537485
  0
LINE
  8
寸法
  6
BYBLOCK
 62
     0
 10
117.744383
 20
-20.537485
 11
117.744383
 21
-0.537485
  0
POINT
  8
寸法
 62
     0
 10
117.744383
 20
-20.537485
  0
POINT
  8
寸法
 62
     0
 10
117.744383
 20
-0.537485
  0
TEXT
  7
TextStyle03
  8
寸法
  6
CONTINUOUS
 62
     0
 10
117.35
 20
-12.4125
  1
20
 40
3.5
 50
90.0
 72
     5
 11
117.35
 21
-8.6875
  0
ENDBLK
  0
BLOCK
  2
*DIM_0023
 70
    65
 10
0.0
 20
0.0
  0
LINE
  8
寸法
  6
BYBLOCK
 62
     0
 10
-55.98838
 20
-58.037485
 11
-55.98838
 21
-87.592105
  0
LINE
  8
寸法
  6
BYBLOCK
 62
     0
 10
-42.48838
 20
-68.037485
 11
-42.48838
 21
-87.592105
  0
LINE
  8
寸法
  6
BYBLOCK
 62
     0
 10
-55.98838
 20
-87.592105
 11
-42.48838
 21
-87.592105
  0
POINT
  8
寸法
 62
     0
 10
-55.98838
 20
-87.592105
  0
POINT
  8
寸法
 62
     0
 10
-42.48838
 20
-87.592105
  0
TEXT
  7
TextStyle03
  8
寸法
  6
CONTINUOUS
 62
     0
 10
-52.53125
 20
-87.225
  1
13.5
 40
3.0
 72
     5
 11
-45.96875
 21
-87.225
  0
ENDBLK
  0
BLOCK
  2
*DIM_0024
 70
    65
 10
0.0
 20
0.0
  0
LINE
  8
寸法
  6
BYBLOCK
 62
     0
 10
87.01162
 20
-21.537485
 11
87.01162
 21
-87.592105
  0
LINE
  8
寸法
  6
BYBLOCK
 62
     0
 10
-42.48838
 20
-87.592105
 11
87.01162
 21
-87.592105
  0
POINT
  8
寸法
 62
     0
 10
87.01162
 20
-87.592105
  0
TEXT
  7
TextStyle03
  8
寸法
  6
CONTINUOUS
 62
     0
 10
18.125
 20
-87.225
  1
129.5
 40
3.0
 72
     5
 11
26.375
 21
-87.225
  0
ENDBLK
  0
BLOCK
  2
*DIM_0025
 70
    65
 10
0.0
 20
0.0
  0
LINE
  8
寸法
  6
BYBLOCK
 62
     0
 10
-43.48838
 20
-67.037485
 11
-115.054673
 21
-67.037485
  0
LINE
  8
寸法
  6
BYBLOCK
 62
     0
 10
-115.054673
 20
-57.037485
 11
-115.054673
 21
-67.037485
  0
POINT
  8
寸法
 62
     0
 10
-115.054673
 20
-57.037485
  0
POINT
  8
寸法
 62
     0
 10
-115.054673
 20
-67.037485
  0
TEXT
  7
TextStyle03
  8
寸法
  6
CONTINUOUS
 62
     0
 10
-115.45
 20
-63.64375
  1
10
 40
3.0
 50
90.0
 72
     5
 11
-115.45
 21
-60.45625
  0
ENDBLK
  0
BLOCK
  2
*GRP_0026
 70
    65
 10
0.0
 20
0.0
  0
POLYLINE
  8
ガラス
  6
CONTINUOUS
 66
     1
 70
     4
  0
VERTEX
  8
ガラス
 10
-24.55
 20
-24.05
 70
     8
  0
VERTEX
  8
ガラス
 10
-24.525
 20
-23.975
 70
     8
  0
VERTEX
  8
ガラス
 10
-24.475
 20
-23.875
 70
     8
  0
VERTEX
  8
ガラス
 10
-24.45
 20
-23.8
 70
     8
  0
VERTEX
  8
ガラス
 10
-24.4
 20
-23.725
 70
     8
  0
VERTEX
  8
ガラス
 10
-24.375
 20
-23.625
 70
     8
  0
VERTEX
  8
ガラス
 10
-24.325
 20
-23.55
 70
     8
  0
VERTEX
  8
ガラス
 10
-24.3
 20
-23.475
 70
     8
  0
VERTEX
  8
ガラス
 10
-24.25
 20
-23.375
 70
     8
  0
VERTEX
  8
ガラス
 10
-24.2
 20
-23.3
 70
     8
  0
VERTEX
  8
ガラス
 10
-24.175
 20
-23.225
 70
     8
  0
VERTEX
  8
ガラス
 10
-24.125
 20
-23.15
 70
     8
  0
VERTEX
  8
ガラス
 10
-24.075
 20
-23.075
 70
     8
  0
VERTEX
  8
ガラス
 10
-24.025
 20
-23.0
 70
     8
  0
VERTEX
  8
ガラス
 10
-23.975
 20
-22.925
 70
     8
  0
VERTEX
  8
ガラス
 10
-23.925
 20
-22.85
 70
     8
  0
VERTEX
  8
ガラス
 10
-23.875
 20
-22.775
 70
     8
  0
VERTEX
  8
ガラス
 10
-23.825
 20
-22.725
 70
     8
  0
VERTEX
  8
ガラス
 10
-23.775
 20
-22.65
 70
     8
  0
VERTEX
  8
ガラス
 10
-23.725
 20
-22.6
 70
     8
  0
VERTEX
  8
ガラス
 10
-23.65
 20
-22.55
 70
     8
  0
VERTEX
  8
ガラス
 10
-23.6
 20
-22.5
 70
     8
  0
VERTEX
  8
ガラス
 10
-23.525
 20
-22.45
 70
     8
  0
VERTEX
  8
ガラス
 10
-23.45
 20
-22.4
 70
     8
  0
VERTEX
  8
ガラス
 10
-23.375
 20
-22.35
 70
     8
  0
VERTEX
  8
ガラス
 10
-23.3
 20
-22.325
 70
     8
  0
VERTEX
  8
ガラス
 10
-23.225
 20
-22.275
 70
     8
  0
VERTEX
  8
ガラス
 10
-23.15
 20
-22.25
 70
     8
  0
VERTEX
  8
ガラス
 10
-23.075
 20
-22.2
 70
     8
  0
VERTEX
  8
ガラス
 10
-23.0
 20
-22.175
 70
     8
  0
VERTEX
  8
ガラス
 10
-22.9
 20
-22.15
 70
     8
  0
VERTEX
  8
ガラス
 10
-22.825
 20
-22.125
 70
     8
  0
VERTEX
  8
ガラス
 10
-22.75
 20
-22.1
 70
     8
  0
VERTEX
  8
ガラス
 10
-22.65
 20
-22.075
 70
     8
  0
VERTEX
  8
ガラス
 10
-22.575
 20
-22.05
 70
     8
  0
VERTEX
  8
ガラス
 10
-22.475
 20
-22.025
 70
     8
  0
VERTEX
  8
ガラス
 10
-22.375
 20
-22.0
 70
     8
  0
VERTEX
  8
ガラス
 10
-22.3
 20
-22.0
 70
     8
  0
VERTEX
  8
ガラス
 10
-22.2
 20
-21.975
 70
     8
  0
VERTEX
  8
ガラス
 10
-22.125
 20
-21.95
 70
     8
  0
VERTEX
  8
ガラス
 10
-22.025
 20
-21.925
 70
     8
  0
SEQEND
  0
POLYLINE
  8
ガラス
  6
CONTINUOUS
 66
     1
 70
     4
  0
VERTEX
  8
ガラス
 10
-22.025
 20
-21.925
 70
     8
  0
VERTEX
  8
ガラス
 10
-22.05
 20
-21.975
 70
     8
  0
VERTEX
  8
ガラス
 10
-22.075
 20
-22.05
 70
     8
  0
VERTEX
  8
ガラス
 10
-22.1
 20
-22.1
 70
     8
  0
VERTEX
  8
ガラス
 10
-22.125
 20
-22.15
 70
     8
  0
VERTEX
  8
ガラス
 10
-22.15
 20
-22.225
 70
     8
  0
VERTEX
  8
ガラス
 10
-22.175
 20
-22.275
 70
     8
  0
VERTEX
  8
ガラス
 10
-22.2
 20
-22.325
 70
     8
  0
VERTEX
  8
ガラス
 10
-22.225
 20
-22.375
 70
     8
  0
VERTEX
  8
ガラス
 10
-22.225
 20
-22.45
 70
     8
  0
VERTEX
  8
ガラス
 10
-22.25
 20
-22.5
 70
     8
  0
VERTEX
  8
ガラス
 10
-22.275
 20
-22.55
 70
     8
  0
VERTEX
  8
ガラス
 10
-22.3
 20
-22.625
 70
     8
  0
VERTEX
  8
ガラス
 10
-22.325
 20
-22.675
 70
     8
  0
VERTEX
  8
ガラス
 10
-22.35
 20
-22.725
 70
     8
  0
VERTEX
  8
ガラス
 10
-22.35
 20
-22.775
 70
     8
  0
VERTEX
  8
ガラス
 10
-22.375
 20
-22.85
 70
     8
  0
VERTEX
  8
ガラス
 10
-22.4
 20
-22.9
 70
     8
  0
VERTEX
  8
ガラス
 10
-22.425
 20
-22.95
 70
     8
  0
VERTEX
  8
ガラス
 10
-22.425
 20
-23.025
 70
     8
  0
VERTEX
  8
ガラス
 10
-22.45
 20
-23.075
 70
     8
  0
VERTEX
  8
ガラス
 10
-22.475
 20
-23.15
 70
     8
  0
VERTEX
  8
ガラス
 10
-22.475
 20
-23.2
 70
     8
  0
VERTEX
  8
ガラス
 10
-22.5
 20
-23.25
 70
     8
  0
VERTEX
  8
ガラス
 10
-22.5
 20
-23.325
 70
     8
  0
VERTEX
  8
ガラス
 10
-22.525
 20
-23.375
 70
     8
  0
VERTEX
  8
ガラス
 10
-22.525
 20
-23.425
 70
     8
  0
VERTEX
  8
ガラス
 10
-22.55
 20
-23.5
 70
     8
  0
VERTEX
  8
ガラス
 10
-22.55
 20
-23.55
 70
     8
  0
VERTEX
  8
ガラス
 10
-22.575
 20
-23.625
 70
     8
  0
VERTEX
  8
ガラス
 10
-22.575
 20
-23.675
 70
     8
  0
VERTEX
  8
ガラス
 10
-22.575
 20
-23.75
 70
     8
  0
VERTEX
  8
ガラス
 10
-22.6
 20
-23.8
 70
     8
  0
VERTEX
  8
ガラス
 10
-22.6
 20
-23.85
 70
     8
  0
VERTEX
  8
ガラス
 10
-22.6
 20
-23.925
 70
     8
  0
VERTEX
  8
ガラス
 10
-22.625
 20
-23.975
 70
     8
  0
VERTEX
  8
ガラス
 10
-22.625
 20
-24.05
 70
     8
  0
VERTEX
  8
ガラス
 10
-22.625
 20
-24.1
 70
     8
  0
VERTEX
  8
ガラス
 10
-22.65
 20
-24.175
 70
     8
  0
VERTEX
  8
ガラス
 10
-22.65
 20
-24.225
 70
     8
  0
VERTEX
  8
ガラス
 10
-22.65
 20
-24.3
 70
     8
  0
SEQEND
  0
ARC
  8
ガラス
  6
CONTINUOUS
 10
-23.588679
 20
-24.160872
 40
0.955135
 50
173.117443
 51
353.117443
  0
ENDBLK
  0
BLOCK
  2
*GRP_0027
 70
    65
 10
0.0
 20
0.0
  0
POLYLINE
  8
ガラス
  6
CONTINUOUS
 66
     1
 70
     4
  0
VERTEX
  8
ガラス
 10
-33.45
 20
-34.65
 70
     8
  0
VERTEX
  8
ガラス
 10
-33.425
 20
-34.575
 70
     8
  0
VERTEX
  8
ガラス
 10
-33.375
 20
-34.475
 70
     8
  0
VERTEX
  8
ガラス
 10
-33.35
 20
-34.4
 70
     8
  0
VERTEX
  8
ガラス
 10
-33.3
 20
-34.3
 70
     8
  0
VERTEX
  8
ガラス
 10
-33.275
 20
-34.225
 70
     8
  0
VERTEX
  8
ガラス
 10
-33.225
 20
-34.15
 70
     8
  0
VERTEX
  8
ガラス
 10
-33.2
 20
-34.05
 70
     8
  0
VERTEX
  8
ガラス
 10
-33.15
 20
-33.975
 70
     8
  0
VERTEX
  8
ガラス
 10
-33.125
 20
-33.9
 70
     8
  0
VERTEX
  8
ガラス
 10
-33.075
 20
-33.825
 70
     8
  0
VERTEX
  8
ガラス
 10
-33.025
 20
-33.75
 70
     8
  0
VERTEX
  8
ガラス
 10
-32.975
 20
-33.675
 70
     8
  0
VERTEX
  8
ガラス
 10
-32.95
 20
-33.6
 70
     8
  0
VERTEX
  8
ガラス
 10
-32.9
 20
-33.525
 70
     8
  0
VERTEX
  8
ガラス
 10
-32.85
 20
-33.45
 70
     8
  0
VERTEX
  8
ガラス
 10
-32.8
 20
-33.375
 70
     8
  0
VERTEX
  8
ガラス
 10
-32.725
 20
-33.325
 70
     8
  0
VERTEX
  8
ガラス
 10
-32.675
 20
-33.25
 70
     8
  0
VERTEX
  8
ガラス
 10
-32.625
 20
-33.2
 70
     8
  0
VERTEX
  8
ガラス
 10
-32.55
 20
-33.15
 70
     8
  0
VERTEX
  8
ガラス
 10
-32.5
 20
-33.1
 70
     8
  0
VERTEX
  8
ガラス
 10
-32.425
 20
-33.05
 70
     8
  0
VERTEX
  8
ガラス
 10
-32.35
 20
-33.0
 70
     8
  0
VERTEX
  8
ガラス
 10
-32.3
 20
-32.95
 70
     8
  0
VERTEX
  8
ガラス
 10
-32.225
 20
-32.925
 70
     8
  0
VERTEX
  8
ガラス
 10
-32.15
 20
-32.875
 70
     8
  0
VERTEX
  8
ガラス
 10
-32.05
 20
-32.85
 70
     8
  0
VERTEX
  8
ガラス
 10
-31.975
 20
-32.8
 70
     8
  0
VERTEX
  8
ガラス
 10
-31.9
 20
-32.775
 70
     8
  0
VERTEX
  8
ガラス
 10
-31.825
 20
-32.75
 70
     8
  0
VERTEX
  8
ガラス
 10
-31.725
 20
-32.725
 70
     8
  0
VERTEX
  8
ガラス
 10
-31.65
 20
-32.7
 70
     8
  0
VERTEX
  8
ガラス
 10
-31.55
 20
-32.675
 70
     8
  0
VERTEX
  8
ガラス
 10
-31.475
 20
-32.65
 70
     8
  0
VERTEX
  8
ガラス
 10
-31.375
 20
-32.625
 70
     8
  0
VERTEX
  8
ガラス
 10
-31.3
 20
-32.6
 70
     8
  0
VERTEX
  8
ガラス
 10
-31.2
 20
-32.575
 70
     8
  0
VERTEX
  8
ガラス
 10
-31.1
 20
-32.575
 70
     8
  0
VERTEX
  8
ガラス
 10
-31.025
 20
-32.55
 70
     8
  0
VERTEX
  8
ガラス
 10
-30.925
 20
-32.525
 70
     8
  0
SEQEND
  0
POLYLINE
  8
ガラス
  6
CONTINUOUS
 66
     1
 70
     4
  0
VERTEX
  8
ガラス
 10
-30.925
 20
-32.525
 70
     8
  0
VERTEX
  8
ガラス
 10
-30.95
 20
-32.575
 70
     8
  0
VERTEX
  8
ガラス
 10
-30.975
 20
-32.65
 70
     8
  0
VERTEX
  8
ガラス
 10
-31.0
 20
-32.7
 70
     8
  0
VERTEX
  8
ガラス
 10
-31.025
 20
-32.75
 70
     8
  0
VERTEX
  8
ガラス
 10
-31.05
 20
-32.8
 70
     8
  0
VERTEX
  8
ガラス
 10
-31.075
 20
-32.875
 70
     8
  0
VERTEX
  8
ガラス
 10
-31.1
 20
-32.925
 70
     8
  0
VERTEX
  8
ガラス
 10
-31.125
 20
-32.975
 70
     8
  0
VERTEX
  8
ガラス
 10
-31.15
 20
-33.05
 70
     8
  0
VERTEX
  8
ガラス
 10
-31.175
 20
-33.1
 70
     8
  0
VERTEX
  8
ガラス
 10
-31.175
 20
-33.15
 70
     8
  0
VERTEX
  8
ガラス
 10
-31.2
 20
-33.2
 70
     8
  0
VERTEX
  8
ガラス
 10
-31.225
 20
-33.275
 70
     8
  0
VERTEX
  8
ガラス
 10
-31.25
 20
-33.325
 70
     8
  0
VERTEX
  8
ガラス
 10
-31.275
 20
-33.375
 70
     8
  0
VERTEX
  8
ガラス
 10
-31.275
 20
-33.45
 70
     8
  0
VERTEX
  8
ガラス
 10
-31.3
 20
-33.5
 70
     8
  0
VERTEX
  8
ガラス
 10
-31.325
 20
-33.55
 70
     8
  0
VERTEX
  8
ガラス
 10
-31.35
 20
-33.625
 70
     8
  0
VERTEX
  8
ガラス
 10
-31.35
 20
-33.675
 70
     8
  0
VERTEX
  8
ガラス
 10
-31.375
 20
-33.725
 70
     8
  0
VERTEX
  8
ガラス
 10
-31.4
 20
-33.8
 70
     8
  0
VERTEX
  8
ガラス
 10
-31.4
 20
-33.85
 70
     8
  0
VERTEX
  8
ガラス
 10
-31.425
 20
-33.925
 70
     8
  0
VERTEX
  8
ガラス
 10
-31.425
 20
-33.975
 70
     8
  0
VERTEX
  8
ガラス
 10
-31.45
 20
-34.025
 70
     8
  0
VERTEX
  8
ガラス
 10
-31.45
 20
-34.1
 70
     8
  0
VERTEX
  8
ガラス
 10
-31.45
 20
-34.15
 70
     8
  0
VERTEX
  8
ガラス
 10
-31.475
 20
-34.225
 70
     8
  0
VERTEX
  8
ガラス
 10
-31.475
 20
-34.275
 70
     8
  0
VERTEX
  8
ガラス
 10
-31.5
 20
-34.325
 70
     8
  0
VERTEX
  8
ガラス
 10
-31.5
 20
-34.4
 70
     8
  0
VERTEX
  8
ガラス
 10
-31.5
 20
-34.45
 70
     8
  0
VERTEX
  8
ガラス
 10
-31.525
 20
-34.525
 70
     8
  0
VERTEX
  8
ガラス
 10
-31.525
 20
-34.575
 70
     8
  0
VERTEX
  8
ガラス
 10
-31.525
 20
-34.65
 70
     8
  0
VERTEX
  8
ガラス
 10
-31.55
 20
-34.7
 70
     8
  0
VERTEX
  8
ガラス
 10
-31.55
 20
-34.775
 70
     8
  0
VERTEX
  8
ガラス
 10
-31.55
 20
-34.825
 70
     8
  0
VERTEX
  8
ガラス
 10
-31.55
 20
-34.875
 70
     8
  0
SEQEND
  0
ARC
  8
ガラス
  6
CONTINUOUS
 10
-32.494632
 20
-34.758094
 40
0.955135
 50
173.117443
 51
353.117443
  0
ENDBLK
  0
BLOCK
  2
*GRP_0028
 70
    65
 10
0.0
 20
0.0
  0
POLYLINE
  8
ガラス
  6
CONTINUOUS
 66
     1
 70
     4
  0
VERTEX
  8
ガラス
 10
-36.775
 20
-40.5
 70
     8
  0
VERTEX
  8
ガラス
 10
-36.675
 20
-40.475
 70
     8
  0
VERTEX
  8
ガラス
 10
-36.575
 20
-40.475
 70
     8
  0
VERTEX
  8
ガラス
 10
-36.5
 20
-40.45
 70
     8
  0
VERTEX
  8
ガラス
 10
-36.4
 20
-40.45
 70
     8
  0
VERTEX
  8
ガラス
 10
-36.3
 20
-40.45
 70
     8
  0
VERTEX
  8
ガラス
 10
-36.225
 20
-40.425
 70
     8
  0
VERTEX
  8
ガラス
 10
-36.125
 20
-40.425
 70
     8
  0
VERTEX
  8
ガラス
 10
-36.025
 20
-40.425
 70
     8
  0
VERTEX
  8
ガラス
 10
-35.95
 20
-40.425
 70
     8
  0
VERTEX
  8
ガラス
 10
-35.85
 20
-40.425
 70
     8
  0
VERTEX
  8
ガラス
 10
-35.775
 20
-40.425
 70
     8
  0
VERTEX
  8
ガラス
 10
-35.675
 20
-40.425
 70
     8
  0
VERTEX
  8
ガラス
 10
-35.6
 20
-40.425
 70
     8
  0
VERTEX
  8
ガラス
 10
-35.5
 20
-40.425
 70
     8
  0
VERTEX
  8
ガラス
 10
-35.425
 20
-40.45
 70
     8
  0
VERTEX
  8
ガラス
 10
-35.325
 20
-40.45
 70
     8
  0
VERTEX
  8
ガラス
 10
-35.25
 20
-40.475
 70
     8
  0
VERTEX
  8
ガラス
 10
-35.175
 20
-40.5
 70
     8
  0
VERTEX
  8
ガラス
 10
-35.1
 20
-40.5
 70
     8
  0
VERTEX
  8
ガラス
 10
-35.0
 20
-40.55
 70
     8
  0
VERTEX
  8
ガラス
 10
-34.925
 20
-40.575
 70
     8
  0
VERTEX
  8
ガラス
 10
-34.85
 20
-40.6
 70
     8
  0
VERTEX
  8
ガラス
 10
-34.775
 20
-40.65
 70
     8
  0
VERTEX
  8
ガラス
 10
-34.725
 20
-40.675
 70
     8
  0
VERTEX
  8
ガラス
 10
-34.65
 20
-40.725
 70
     8
  0
VERTEX
  8
ガラス
 10
-34.575
 20
-40.775
 70
     8
  0
VERTEX
  8
ガラス
 10
-34.5
 20
-40.825
 70
     8
  0
VERTEX
  8
ガラス
 10
-34.425
 20
-40.875
 70
     8
  0
VERTEX
  8
ガラス
 10
-34.375
 20
-40.925
 70
     8
  0
VERTEX
  8
ガラス
 10
-34.3
 20
-41.0
 70
     8
  0
VERTEX
  8
ガラス
 10
-34.25
 20
-41.05
 70
     8
  0
VERTEX
  8
ガラス
 10
-34.175
 20
-41.125
 70
     8
  0
VERTEX
  8
ガラス
 10
-34.1
 20
-41.175
 70
     8
  0
VERTEX
  8
ガラス
 10
-34.05
 20
-41.25
 70
     8
  0
VERTEX
  8
ガラス
 10
-33.975
 20
-41.325
 70
     8
  0
VERTEX
  8
ガラス
 10
-33.925
 20
-41.375
 70
     8
  0
VERTEX
  8
ガラス
 10
-33.875
 20
-41.45
 70
     8
  0
VERTEX
  8
ガラス
 10
-33.8
 20
-41.525
 70
     8
  0
VERTEX
  8
ガラス
 10
-33.75
 20
-41.6
 70
     8
  0
VERTEX
  8
ガラス
 10
-33.675
 20
-41.65
 70
     8
  0
SEQEND
  0
POLYLINE
  8
ガラス
  6
CONTINUOUS
 66
     1
 70
     4
  0
VERTEX
  8
ガラス
 10
-33.675
 20
-41.65
 70
     8
  0
VERTEX
  8
ガラス
 10
-33.75
 20
-41.675
 70
     8
  0
VERTEX
  8
ガラス
 10
-33.8
 20
-41.675
 70
     8
  0
VERTEX
  8
ガラス
 10
-33.875
 20
-41.675
 70
     8
  0
VERTEX
  8
ガラス
 10
-33.925
 20
-41.7
 70
     8
  0
VERTEX
  8
ガラス
 10
-33.975
 20
-41.7
 70
     8
  0
VERTEX
  8
ガラス
 10
-34.05
 20
-41.7
 70
     8
  0
VERTEX
  8
ガラス
 10
-34.1
 20
-41.7
 70
     8
  0
VERTEX
  8
ガラス
 10
-34.175
 20
-41.725
 70
     8
  0
VERTEX
  8
ガラス
 10
-34.225
 20
-41.725
 70
     8
  0
VERTEX
  8
ガラス
 10
-34.3
 20
-41.725
 70
     8
  0
VERTEX
  8
ガラス
 10
-34.35
 20
-41.75
 70
     8
  0
VERTEX
  8
ガラス
 10
-34.4
 20
-41.75
 70
     8
  0
VERTEX
  8
ガラス
 10
-34.475
 20
-41.75
 70
     8
  0
VERTEX
  8
ガラス
 10
-34.525
 20
-41.775
 70
     8
  0
VERTEX
  8
ガラス
 10
-34.6
 20
-41.775
 70
     8
  0
VERTEX
  8
ガラス
 10
-34.65
 20
-41.8
 70
     8
  0
VERTEX
  8
ガラス
 10
-34.725
 20
-41.8
 70
     8
  0
VERTEX
  8
ガラス
 10
-34.775
 20
-41.825
 70
     8
  0
VERTEX
  8
ガラス
 10
-34.825
 20
-41.825
 70
     8
  0
VERTEX
  8
ガラス
 10
-34.9
 20
-41.85
 70
     8
  0
VERTEX
  8
ガラス
 10
-34.95
 20
-41.85
 70
     8
  0
VERTEX
  8
ガラス
 10
-35.0
 20
-41.875
 70
     8
  0
VERTEX
  8
ガラス
 10
-35.075
 20
-41.9
 70
     8
  0
VERTEX
  8
ガラス
 10
-35.125
 20
-41.9
 70
     8
  0
VERTEX
  8
ガラス
 10
-35.175
 20
-41.925
 70
     8
  0
VERTEX
  8
ガラス
 10
-35.25
 20
-41.95
 70
     8
  0
VERTEX
  8
ガラス
 10
-35.3
 20
-41.975
 70
     8
  0
VERTEX
  8
ガラス
 10
-35.35
 20
-42.0
 70
     8
  0
VERTEX
  8
ガラス
 10
-35.425
 20
-42.0
 70
     8
  0
VERTEX
  8
ガラス
 10
-35.475
 20
-42.025
 70
     8
  0
VERTEX
  8
ガラス
 10
-35.525
 20
-42.05
 70
     8
  0
VERTEX
  8
ガラス
 10
-35.6
 20
-42.075
 70
     8
  0
VERTEX
  8
ガラス
 10
-35.65
 20
-42.1
 70
     8
  0
VERTEX
  8
ガラス
 10
-35.7
 20
-42.125
 70
     8
  0
VERTEX
  8
ガラス
 10
-35.75
 20
-42.15
 70
     8
  0
VERTEX
  8
ガラス
 10
-35.825
 20
-42.175
 70
     8
  0
VERTEX
  8
ガラス
 10
-35.875
 20
-42.2
 70
     8
  0
VERTEX
  8
ガラス
 10
-35.925
 20
-42.225
 70
     8
  0
VERTEX
  8
ガラス
 10
-36.0
 20
-42.225
 70
     8
  0
VERTEX
  8
ガラス
 10
-36.05
 20
-42.25
 70
     8
  0
SEQEND
  0
ARC
  8
ガラス
  6
CONTINUOUS
 10
-36.394237
 20
-41.363871
 40
0.955135
 50
112.264588
 51
292.264588
  0
ENDBLK
  0
BLOCK
  2
*GRP_0029
 70
    65
 10
0.0
 20
0.0
  0
POLYLINE
  8
ガラス
  6
CONTINUOUS
 66
     1
 70
     4
  0
VERTEX
  8
ガラス
 10
-51.325
 20
-40.5
 70
     8
  0
VERTEX
  8
ガラス
 10
-51.225
 20
-40.475
 70
     8
  0
VERTEX
  8
ガラス
 10
-51.125
 20
-40.475
 70
     8
  0
VERTEX
  8
ガラス
 10
-51.05
 20
-40.45
 70
     8
  0
VERTEX
  8
ガラス
 10
-50.95
 20
-40.45
 70
     8
  0
VERTEX
  8
ガラス
 10
-50.85
 20
-40.45
 70
     8
  0
VERTEX
  8
ガラス
 10
-50.775
 20
-40.425
 70
     8
  0
VERTEX
  8
ガラス
 10
-50.675
 20
-40.425
 70
     8
  0
VERTEX
  8
ガラス
 10
-50.575
 20
-40.425
 70
     8
  0
VERTEX
  8
ガラス
 10
-50.5
 20
-40.425
 70
     8
  0
VERTEX
  8
ガラス
 10
-50.4
 20
-40.425
 70
     8
  0
VERTEX
  8
ガラス
 10
-50.325
 20
-40.425
 70
     8
  0
VERTEX
  8
ガラス
 10
-50.225
 20
-40.425
 70
     8
  0
VERTEX
  8
ガラス
 10
-50.15
 20
-40.425
 70
     8
  0
VERTEX
  8
ガラス
 10
-50.05
 20
-40.425
 70
     8
  0
VERTEX
  8
ガラス
 10
-49.975
 20
-40.45
 70
     8
  0
VERTEX
  8
ガラス
 10
-49.875
 20
-40.45
 70
     8
  0
VERTEX
  8
ガラス
 10
-49.8
 20
-40.475
 70
     8
  0
VERTEX
  8
ガラス
 10
-49.725
 20
-40.5
 70
     8
  0
VERTEX
  8
ガラス
 10
-49.65
 20
-40.5
 70
     8
  0
VERTEX
  8
ガラス
 10
-49.55
 20
-40.55
 70
     8
  0
VERTEX
  8
ガラス
 10
-49.475
 20
-40.575
 70
     8
  0
VERTEX
  8
ガラス
 10
-49.4
 20
-40.6
 70
     8
  0
VERTEX
  8
ガラス
 10
-49.325
 20
-40.65
 70
     8
  0
VERTEX
  8
ガラス
 10
-49.275
 20
-40.675
 70
     8
  0
VERTEX
  8
ガラス
 10
-49.2
 20
-40.725
 70
     8
  0
VERTEX
  8
ガラス
 10
-49.125
 20
-40.775
 70
     8
  0
VERTEX
  8
ガラス
 10
-49.05
 20
-40.825
 70
     8
  0
VERTEX
  8
ガラス
 10
-48.975
 20
-40.875
 70
     8
  0
VERTEX
  8
ガラス
 10
-48.925
 20
-40.925
 70
     8
  0
VERTEX
  8
ガラス
 10
-48.85
 20
-41.0
 70
     8
  0
VERTEX
  8
ガラス
 10
-48.8
 20
-41.05
 70
     8
  0
VERTEX
  8
ガラス
 10
-48.725
 20
-41.125
 70
     8
  0
VERTEX
  8
ガラス
 10
-48.65
 20
-41.175
 70
     8
  0
VERTEX
  8
ガラス
 10
-48.6
 20
-41.25
 70
     8
  0
VERTEX
  8
ガラス
 10
-48.525
 20
-41.325
 70
     8
  0
VERTEX
  8
ガラス
 10
-48.475
 20
-41.375
 70
     8
  0
VERTEX
  8
ガラス
 10
-48.425
 20
-41.45
 70
     8
  0
VERTEX
  8
ガラス
 10
-48.35
 20
-41.525
 70
     8
  0
VERTEX
  8
ガラス
 10
-48.3
 20
-41.6
 70
     8
  0
VERTEX
  8
ガラス
 10
-48.225
 20
-41.65
 70
     8
  0
SEQEND
  0
POLYLINE
  8
ガラス
  6
CONTINUOUS
 66
     1
 70
     4
  0
VERTEX
  8
ガラス
 10
-48.225
 20
-41.65
 70
     8
  0
VERTEX
  8
ガラス
 10
-48.3
 20
-41.675
 70
     8
  0
VERTEX
  8
ガラス
 10
-48.35
 20
-41.675
 70
     8
  0
VERTEX
  8
ガラス
 10
-48.425
 20
-41.675
 70
     8
  0
VERTEX
  8
ガラス
 10
-48.475
 20
-41.7
 70
     8
  0
VERTEX
  8
ガラス
 10
-48.525
 20
-41.7
 70
     8
  0
VERTEX
  8
ガラス
 10
-48.6
 20
-41.7
 70
     8
  0
VERTEX
  8
ガラス
 10
-48.65
 20
-41.7
 70
     8
  0
VERTEX
  8
ガラス
 10
-48.725
 20
-41.725
 70
     8
  0
VERTEX
  8
ガラス
 10
-48.775
 20
-41.725
 70
     8
  0
VERTEX
  8
ガラス
 10
-48.85
 20
-41.725
 70
     8
  0
VERTEX
  8
ガラス
 10
-48.9
 20
-41.75
 70
     8
  0
VERTEX
  8
ガラス
 10
-48.95
 20
-41.75
 70
     8
  0
VERTEX
  8
ガラス
 10
-49.025
 20
-41.75
 70
     8
  0
VERTEX
  8
ガラス
 10
-49.075
 20
-41.775
 70
     8
  0
VERTEX
  8
ガラス
 10
-49.15
 20
-41.775
 70
     8
  0
VERTEX
  8
ガラス
 10
-49.2
 20
-41.8
 70
     8
  0
VERTEX
  8
ガラス
 10
-49.275
 20
-41.8
 70
     8
  0
VERTEX
  8
ガラス
 10
-49.325
 20
-41.825
 70
     8
  0
VERTEX
  8
ガラス
 10
-49.375
 20
-41.825
 70
     8
  0
VERTEX
  8
ガラス
 10
-49.45
 20
-41.85
 70
     8
  0
VERTEX
  8
ガラス
 10
-49.5
 20
-41.85
 70
     8
  0
VERTEX
  8
ガラス
 10
-49.55
 20
-41.875
 70
     8
  0
VERTEX
  8
ガラス
 10
-49.625
 20
-41.9
 70
     8
  0
VERTEX
  8
ガラス
 10
-49.675
 20
-41.9
 70
     8
  0
VERTEX
  8
ガラス
 10
-49.725
 20
-41.925
 70
     8
  0
VERTEX
  8
ガラス
 10
-49.8
 20
-41.95
 70
     8
  0
VERTEX
  8
ガラス
 10
-49.85
 20
-41.975
 70
     8
  0
VERTEX
  8
ガラス
 10
-49.9
 20
-42.0
 70
     8
  0
VERTEX
  8
ガラス
 10
-49.975
 20
-42.0
 70
     8
  0
VERTEX
  8
ガラス
 10
-50.025
 20
-42.025
 70
     8
  0
VERTEX
  8
ガラス
 10
-50.075
 20
-42.05
 70
     8
  0
VERTEX
  8
ガラス
 10
-50.15
 20
-42.075
 70
     8
  0
VERTEX
  8
ガラス
 10
-50.2
 20
-42.1
 70
     8
  0
VERTEX
  8
ガラス
 10
-50.25
 20
-42.125
 70
     8
  0
VERTEX
  8
ガラス
 10
-50.3
 20
-42.15
 70
     8
  0
VERTEX
  8
ガラス
 10
-50.375
 20
-42.175
 70
     8
  0
VERTEX
  8
ガラス
 10
-50.425
 20
-42.2
 70
     8
  0
VERTEX
  8
ガラス
 10
-50.475
 20
-42.225
 70
     8
  0
VERTEX
  8
ガラス
 10
-50.55
 20
-42.225
 70
     8
  0
VERTEX
  8
ガラス
 10
-50.6
 20
-42.25
 70
     8
  0
SEQEND
  0
ARC
  8
ガラス
  6
CONTINUOUS
 10
-50.944502
 20
-41.363871
 40
0.955135
 50
112.264588
 51
292.264588
  0
ENDBLK
  0
BLOCK
  2
*GRP_0030
 70
    65
 10
0.0
 20
0.0
  0
POLYLINE
  8
ガラス
  6
CONTINUOUS
 66
     1
 70
     4
  0
VERTEX
  8
ガラス
 10
-60.575
 20
-44.675
 70
     8
  0
VERTEX
  8
ガラス
 10
-60.55
 20
-44.575
 70
     8
  0
VERTEX
  8
ガラス
 10
-60.5
 20
-44.5
 70
     8
  0
VERTEX
  8
ガラス
 10
-60.475
 20
-44.4
 70
     8
  0
VERTEX
  8
ガラス
 10
-60.425
 20
-44.325
 70
     8
  0
VERTEX
  8
ガラス
 10
-60.4
 20
-44.25
 70
     8
  0
VERTEX
  8
ガラス
 10
-60.35
 20
-44.15
 70
     8
  0
VERTEX
  8
ガラス
 10
-60.325
 20
-44.075
 70
     8
  0
VERTEX
  8
ガラス
 10
-60.275
 20
-44.0
 70
     8
  0
VERTEX
  8
ガラス
 10
-60.225
 20
-43.9
 70
     8
  0
VERTEX
  8
ガラス
 10
-60.2
 20
-43.825
 70
     8
  0
VERTEX
  8
ガラス
 10
-60.15
 20
-43.75
 70
     8
  0
VERTEX
  8
ガラス
 10
-60.1
 20
-43.675
 70
     8
  0
VERTEX
  8
ガラス
 10
-60.05
 20
-43.6
 70
     8
  0
VERTEX
  8
ガラス
 10
-60.025
 20
-43.525
 70
     8
  0
VERTEX
  8
ガラス
 10
-59.975
 20
-43.45
 70
     8
  0
VERTEX
  8
ガラス
 10
-59.9
 20
-43.4
 70
     8
  0
VERTEX
  8
ガラス
 10
-59.85
 20
-43.325
 70
     8
  0
VERTEX
  8
ガラス
 10
-59.8
 20
-43.275
 70
     8
  0
VERTEX
  8
ガラス
 10
-59.75
 20
-43.2
 70
     8
  0
VERTEX
  8
ガラス
 10
-59.675
 20
-43.15
 70
     8
  0
VERTEX
  8
ガラス
 10
-59.625
 20
-43.1
 70
     8
  0
VERTEX
  8
ガラス
 10
-59.55
 20
-43.05
 70
     8
  0
VERTEX
  8
ガラス
 10
-59.475
 20
-43.0
 70
     8
  0
VERTEX
  8
ガラス
 10
-59.4
 20
-42.975
 70
     8
  0
VERTEX
  8
ガラス
 10
-59.325
 20
-42.925
 70
     8
  0
VERTEX
  8
ガラス
 10
-59.25
 20
-42.875
 70
     8
  0
VERTEX
  8
ガラス
 10
-59.175
 20
-42.85
 70
     8
  0
VERTEX
  8
ガラス
 10
-59.1
 20
-42.825
 70
     8
  0
VERTEX
  8
ガラス
 10
-59.025
 20
-42.775
 70
     8
  0
VERTEX
  8
ガラス
 10
-58.95
 20
-42.75
 70
     8
  0
VERTEX
  8
ガラス
 10
-58.85
 20
-42.725
 70
     8
  0
VERTEX
  8
ガラス
 10
-58.775
 20
-42.7
 70
     8
  0
VERTEX
  8
ガラス
 10
-58.675
 20
-42.675
 70
     8
  0
VERTEX
  8
ガラス
 10
-58.6
 20
-42.65
 70
     8
  0
VERTEX
  8
ガラス
 10
-58.5
 20
-42.625
 70
     8
  0
VERTEX
  8
ガラス
 10
-58.425
 20
-42.625
 70
     8
  0
VERTEX
  8
ガラス
 10
-58.325
 20
-42.6
 70
     8
  0
VERTEX
  8
ガラス
 10
-58.225
 20
-42.575
 70
     8
  0
VERTEX
  8
ガラス
 10
-58.15
 20
-42.55
 70
     8
  0
VERTEX
  8
ガラス
 10
-58.05
 20
-42.525
 70
     8
  0
SEQEND
  0
POLYLINE
  8
ガラス
  6
CONTINUOUS
 66
     1
 70
     4
  0
VERTEX
  8
ガラス
 10
-58.05
 20
-42.525
 70
     8
  0
VERTEX
  8
ガラス
 10
-58.075
 20
-42.6
 70
     8
  0
VERTEX
  8
ガラス
 10
-58.1
 20
-42.65
 70
     8
  0
VERTEX
  8
ガラス
 10
-58.125
 20
-42.7
 70
     8
  0
VERTEX
  8
ガラス
 10
-58.15
 20
-42.775
 70
     8
  0
VERTEX
  8
ガラス
 10
-58.175
 20
-42.825
 70
     8
  0
VERTEX
  8
ガラス
 10
-58.2
 20
-42.875
 70
     8
  0
VERTEX
  8
ガラス
 10
-58.225
 20
-42.925
 70
     8
  0
VERTEX
  8
ガラス
 10
-58.25
 20
-43.0
 70
     8
  0
VERTEX
  8
ガラス
 10
-58.275
 20
-43.05
 70
     8
  0
VERTEX
  8
ガラス
 10
-58.275
 20
-43.1
 70
     8
  0
VERTEX
  8
ガラス
 10
-58.3
 20
-43.175
 70
     8
  0
VERTEX
  8
ガラス
 10
-58.325
 20
-43.225
 70
     8
  0
VERTEX
  8
ガラス
 10
-58.35
 20
-43.275
 70
     8
  0
VERTEX
  8
ガラス
 10
-58.375
 20
-43.325
 70
     8
  0
VERTEX
  8
ガラス
 10
-58.4
 20
-43.4
 70
     8
  0
VERTEX
  8
ガラス
 10
-58.4
 20
-43.45
 70
     8
  0
VERTEX
  8
ガラス
 10
-58.425
 20
-43.5
 70
     8
  0
VERTEX
  8
ガラス
 10
-58.45
 20
-43.575
 70
     8
  0
VERTEX
  8
ガラス
 10
-58.475
 20
-43.625
 70
     8
  0
VERTEX
  8
ガラス
 10
-58.475
 20
-43.675
 70
     8
  0
VERTEX
  8
ガラス
 10
-58.5
 20
-43.75
 70
     8
  0
VERTEX
  8
ガラス
 10
-58.5
 20
-43.8
 70
     8
  0
VERTEX
  8
ガラス
 10
-58.525
 20
-43.875
 70
     8
  0
VERTEX
  8
ガラス
 10
-58.525
 20
-43.925
 70
     8
  0
VERTEX
  8
ガラス
 10
-58.55
 20
-43.975
 70
     8
  0
VERTEX
  8
ガラス
 10
-58.55
 20
-44.05
 70
     8
  0
VERTEX
  8
ガラス
 10
-58.575
 20
-44.1
 70
     8
  0
VERTEX
  8
ガラス
 10
-58.575
 20
-44.175
 70
     8
  0
VERTEX
  8
ガラス
 10
-58.6
 20
-44.225
 70
     8
  0
VERTEX
  8
ガラス
 10
-58.6
 20
-44.275
 70
     8
  0
VERTEX
  8
ガラス
 10
-58.6
 20
-44.35
 70
     8
  0
VERTEX
  8
ガラス
 10
-58.625
 20
-44.4
 70
     8
  0
VERTEX
  8
ガラス
 10
-58.625
 20
-44.475
 70
     8
  0
VERTEX
  8
ガラス
 10
-58.625
 20
-44.525
 70
     8
  0
VERTEX
  8
ガラス
 10
-58.65
 20
-44.6
 70
     8
  0
VERTEX
  8
ガラス
 10
-58.65
 20
-44.65
 70
     8
  0
VERTEX
  8
ガラス
 10
-58.65
 20
-44.7
 70
     8
  0
VERTEX
  8
ガラス
 10
-58.675
 20
-44.775
 70
     8
  0
VERTEX
  8
ガラス
 10
-58.675
 20
-44.825
 70
     8
  0
VERTEX
  8
ガラス
 10
-58.675
 20
-44.9
 70
     8
  0
SEQEND
  0
ARC
  8
ガラス
  6
CONTINUOUS
 10
-59.616325
 20
-44.768676
 40
0.955135
 50
173.117443
 51
353.117443
  0
ENDBLK
  0
BLOCK
  2
*GRP_0031
 70
    65
 10
0.0
 20
0.0
  0
POLYLINE
  8
ガラス
  6
CONTINUOUS
 66
     1
 70
     4
  0
VERTEX
  8
ガラス
 10
-64.525
 20
-51.825
 70
     8
  0
VERTEX
  8
ガラス
 10
-64.5
 20
-51.75
 70
     8
  0
VERTEX
  8
ガラス
 10
-64.475
 20
-51.65
 70
     8
  0
VERTEX
  8
ガラス
 10
-64.425
 20
-51.575
 70
     8
  0
VERTEX
  8
ガラス
 10
-64.4
 20
-51.475
 70
     8
  0
VERTEX
  8
ガラス
 10
-64.35
 20
-51.4
 70
     8
  0
VERTEX
  8
ガラス
 10
-64.325
 20
-51.325
 70
     8
  0
VERTEX
  8
ガラス
 10
-64.275
 20
-51.225
 70
     8
  0
VERTEX
  8
ガラス
 10
-64.225
 20
-51.15
 70
     8
  0
VERTEX
  8
ガラス
 10
-64.2
 20
-51.075
 70
     8
  0
VERTEX
  8
ガラス
 10
-64.15
 20
-51.0
 70
     8
  0
VERTEX
  8
ガラス
 10
-64.1
 20
-50.9
 70
     8
  0
VERTEX
  8
ガラス
 10
-64.075
 20
-50.825
 70
     8
  0
VERTEX
  8
ガラス
 10
-64.025
 20
-50.75
 70
     8
  0
VERTEX
  8
ガラス
 10
-63.975
 20
-50.7
 70
     8
  0
VERTEX
  8
ガラス
 10
-63.925
 20
-50.625
 70
     8
  0
VERTEX
  8
ガラス
 10
-63.875
 20
-50.55
 70
     8
  0
VERTEX
  8
ガラス
 10
-63.825
 20
-50.5
 70
     8
  0
VERTEX
  8
ガラス
 10
-63.75
 20
-50.425
 70
     8
  0
VERTEX
  8
ガラス
 10
-63.7
 20
-50.375
 70
     8
  0
VERTEX
  8
ガラス
 10
-63.65
 20
-50.325
 70
     8
  0
VERTEX
  8
ガラス
 10
-63.575
 20
-50.25
 70
     8
  0
VERTEX
  8
ガラス
 10
-63.5
 20
-50.2
 70
     8
  0
VERTEX
  8
ガラス
 10
-63.45
 20
-50.175
 70
     8
  0
VERTEX
  8
ガラス
 10
-63.375
 20
-50.125
 70
     8
  0
VERTEX
  8
ガラス
 10
-63.3
 20
-50.075
 70
     8
  0
VERTEX
  8
ガラス
 10
-63.225
 20
-50.05
 70
     8
  0
VERTEX
  8
ガラス
 10
-63.15
 20
-50.0
 70
     8
  0
VERTEX
  8
ガラス
 10
-63.05
 20
-49.975
 70
     8
  0
VERTEX
  8
ガラス
 10
-62.975
 20
-49.95
 70
     8
  0
VERTEX
  8
ガラス
 10
-62.9
 20
-49.925
 70
     8
  0
VERTEX
  8
ガラス
 10
-62.8
 20
-49.9
 70
     8
  0
VERTEX
  8
ガラス
 10
-62.725
 20
-49.875
 70
     8
  0
VERTEX
  8
ガラス
 10
-62.65
 20
-49.85
 70
     8
  0
VERTEX
  8
ガラス
 10
-62.55
 20
-49.825
 70
     8
  0
VERTEX
  8
ガラス
 10
-62.45
 20
-49.8
 70
     8
  0
VERTEX
  8
ガラス
 10
-62.375
 20
-49.775
 70
     8
  0
VERTEX
  8
ガラス
 10
-62.275
 20
-49.75
 70
     8
  0
VERTEX
  8
ガラス
 10
-62.2
 20
-49.725
 70
     8
  0
VERTEX
  8
ガラス
 10
-62.1
 20
-49.725
 70
     8
  0
VERTEX
  8
ガラス
 10
-62.0
 20
-49.7
 70
     8
  0
SEQEND
  0
POLYLINE
  8
ガラス
  6
CONTINUOUS
 66
     1
 70
     4
  0
VERTEX
  8
ガラス
 10
-62.0
 20
-49.7
 70
     8
  0
VERTEX
  8
ガラス
 10
-62.025
 20
-49.75
 70
     8
  0
VERTEX
  8
ガラス
 10
-62.05
 20
-49.8
 70
     8
  0
VERTEX
  8
ガラス
 10
-62.075
 20
-49.875
 70
     8
  0
VERTEX
  8
ガラス
 10
-62.1
 20
-49.925
 70
     8
  0
VERTEX
  8
ガラス
 10
-62.125
 20
-49.975
 70
     8
  0
VERTEX
  8
ガラス
 10
-62.15
 20
-50.025
 70
     8
  0
VERTEX
  8
ガラス
 10
-62.175
 20
-50.1
 70
     8
  0
VERTEX
  8
ガラス
 10
-62.2
 20
-50.15
 70
     8
  0
VERTEX
  8
ガラス
 10
-62.225
 20
-50.2
 70
     8
  0
VERTEX
  8
ガラス
 10
-62.25
 20
-50.275
 70
     8
  0
VERTEX
  8
ガラス
 10
-62.275
 20
-50.325
 70
     8
  0
VERTEX
  8
ガラス
 10
-62.275
 20
-50.375
 70
     8
  0
VERTEX
  8
ガラス
 10
-62.3
 20
-50.45
 70
     8
  0
VERTEX
  8
ガラス
 10
-62.325
 20
-50.5
 70
     8
  0
VERTEX
  8
ガラス
 10
-62.35
 20
-50.55
 70
     8
  0
VERTEX
  8
ガラス
 10
-62.375
 20
-50.6
 70
     8
  0
VERTEX
  8
ガラス
 10
-62.375
 20
-50.675
 70
     8
  0
VERTEX
  8
ガラス
 10
-62.4
 20
-50.725
 70
     8
  0
VERTEX
  8
ガラス
 10
-62.425
 20
-50.775
 70
     8
  0
VERTEX
  8
ガラス
 10
-62.425
 20
-50.85
 70
     8
  0
VERTEX
  8
ガラス
 10
-62.45
 20
-50.9
 70
     8
  0
VERTEX
  8
ガラス
 10
-62.475
 20
-50.975
 70
     8
  0
VERTEX
  8
ガラス
 10
-62.475
 20
-51.025
 70
     8
  0
VERTEX
  8
ガラス
 10
-62.5
 20
-51.075
 70
     8
  0
VERTEX
  8
ガラス
 10
-62.5
 20
-51.15
 70
     8
  0
VERTEX
  8
ガラス
 10
-62.525
 20
-51.2
 70
     8
  0
VERTEX
  8
ガラス
 10
-62.525
 20
-51.275
 70
     8
  0
VERTEX
  8
ガラス
 10
-62.55
 20
-51.325
 70
     8
  0
VERTEX
  8
ガラス
 10
-62.55
 20
-51.375
 70
     8
  0
VERTEX
  8
ガラス
 10
-62.55
 20
-51.45
 70
     8
  0
VERTEX
  8
ガラス
 10
-62.575
 20
-51.5
 70
     8
  0
VERTEX
  8
ガラス
 10
-62.575
 20
-51.575
 70
     8
  0
VERTEX
  8
ガラス
 10
-62.575
 20
-51.625
 70
     8
  0
VERTEX
  8
ガラス
 10
-62.6
 20
-51.675
 70
     8
  0
VERTEX
  8
ガラス
 10
-62.6
 20
-51.75
 70
     8
  0
VERTEX
  8
ガラス
 10
-62.6
 20
-51.8
 70
     8
  0
VERTEX
  8
ガラス
 10
-62.625
 20
-51.875
 70
     8
  0
VERTEX
  8
ガラス
 10
-62.625
 20
-51.925
 70
     8
  0
VERTEX
  8
ガラス
 10
-62.625
 20
-52.0
 70
     8
  0
VERTEX
  8
ガラス
 10
-62.65
 20
-52.05
 70
     8
  0
SEQEND
  0
ARC
  8
ガラス
  6
CONTINUOUS
 10
-63.573997
 20
-51.927406
 40
0.955135
 50
173.117443
 51
353.117443
  0
ENDBLK
  0
ENDSEC
  0
SECTION
  2
ENTITIES
  0
POLYLINE
  8
通り芯
  6
CONTINUOUS
 66
     1
 70
     1
  0
VERTEX
  8
通り芯
 10
-210.0
 20
-148.5
  0
VERTEX
  8
通り芯
 10
210.0
 20
-148.5
  0
VERTEX
  8
通り芯
 10
210.0
 20
148.5
  0
VERTEX
  8
通り芯
 10
-210.0
 20
148.5
  0
SEQEND
  0
INSERT
  2
*GRP_0008
  8
通り芯
  6
CONTINUOUS
 10
0.0
 20
0.0
  0
INSERT
  2
*GRP_0001
  8
型材断面
  6
CONTINUOUS
 10
0.0
 20
0.0
  0
POLYLINE
  8
型材断面
  6
CONTINUOUS
 66
     1
  0
VERTEX
  8
型材断面
 10
29.51162
 20
-20.537482
  0
VERTEX
  8
型材断面
 10
29.51162
 20
36.85366
  0
VERTEX
  8
型材断面
 10
159.706515
 20
36.85366
  0
SEQEND
  0
POLYLINE
  8
型材断面
  6
CONTINUOUS
 66
     1
  0
VERTEX
  8
型材断面
 10
159.706515
 20
36.85366
  0
VERTEX
  8
型材断面
 10
153.474378
 20
38.956907
  0
VERTEX
  8
型材断面
 10
153.386238
 20
36.85366
  0
SEQEND
  0
POLYLINE
  8
型材断面
  6
CONTINUOUS
 66
     1
  0
VERTEX
  8
型材断面
 10
157.118153
 20
36.85366
  0
VERTEX
  8
型材断面
 10
150.886015
 20
38.956907
  0
VERTEX
  8
型材断面
 10
150.797875
 20
36.85366
  0
SEQEND
  0
INSERT
  2
*GRP_0009
  8
型材断面
  6
CONTINUOUS
 10
0.0
 20
0.0
  0
INSERT
  2
*GRP_0010
  8
型材断面
  6
CONTINUOUS
 10
0.0
 20
0.0
  0
LINE
  8
型材断面
  6
CONTINUOUS
 10
52.992225
 20
-15.03748
 11
107.04099
 21
39.011285
  0
LINE
  8
型材断面
  6
CONTINUOUS
 10
45.921157
 20
-15.03748
 11
99.969923
 21
39.011285
  0
LINE
  8
型材断面
  6
CONTINUOUS
 10
36.735572
 20
-15.03748
 11
90.784338
 21
39.011285
  0
LINE
  8
型材断面
  6
CONTINUOUS
 10
24.70796
 20
-15.03748
 11
78.756725
 21
39.011285
  0
LINE
  8
型材断面
  6
CONTINUOUS
 10
31.779025
 20
-15.03748
 11
85.82779
 21
39.011285
  0
LINE
  8
型材断面
  6
CONTINUOUS
 10
5.61607
 20
-15.03748
 11
59.664835
 21
39.011285
  0
LINE
  8
型材断面
  6
CONTINUOUS
 10
13.394247
 20
-15.03748
 11
67.443013
 21
39.011285
  0
LINE
  8
型材断面
  6
CONTINUOUS
 10
48.350385
 20
39.011285
 11
2.91827
 21
-6.42083
  0
LINE
  8
型材断面
  6
CONTINUOUS
 10
-36.891475
 20
-9.037488
 11
-43.96255
 21
-16.108562
  0
ARC
  8
型材断面
  6
CONTINUOUS
 10
-36.891478
 20
-9.037487
 40
1.5
 50
-45.0
 51
45.0
  0
ARC
  8
型材断面
  6
CONTINUOUS
 10
-43.962551
 20
-16.108559
 40
1.5
 50
224.999959
 51
315.0
  0
ARC
  8
型材断面
  6
CONTINUOUS
 10
-54.488378
 20
-41.537484
 40
1.5
 50
180.0
 51
270.0
  0
LINE
  8
型材断面
  6
CONTINUOUS
 62
    47
 10
-34.77016
 20
-9.037488
 11
-43.962558
 21
-18.229885
  0
LINE
  8
型材断面
  6
CONTINUOUS
 10
-54.86338
 20
-41.912485
 11
-54.86338
 21
-37.037485
  0
LINE
  8
型材断面
  6
CONTINUOUS
 10
-55.23838
 20
-42.287485
 11
-55.23838
 21
-37.037485
  0
LINE
  8
型材断面
  6
CONTINUOUS
 10
-55.61338
 20
-42.662485
 11
-55.61338
 21
-37.037485
  0
LINE
  8
型材断面
  6
CONTINUOUS
 10
-55.98838
 20
-37.037485
 11
-54.48838
 21
-37.037485
  0
ARC
  8
型材断面
  6
CONTINUOUS
 10
-40.780581
 20
-3.027058
 40
1.5
 50
135.0
 51
225.0
  0
ARC
  8
型材断面
  6
CONTINUOUS
 10
-49.972973
 20
-12.219457
 40
1.5
 50
45.0
 51
135.0
  0
LINE
  8
型材断面
  6
CONTINUOUS
 62
    47
 10
-18.5067
 20
10.054402
 11
-17.446043
 21
11.115068
  0
ARC
  8
型材断面
  6
CONTINUOUS
 10
-23.102893
 20
14.650601
 40
1.5
 50
45.0
 51
135.0
  0
LINE
  8
型材断面
  6
CONTINUOUS
 62
    47
 10
-42.9019
 20
-3.027055
 11
-23.10291
 21
16.771935
  0
LINE
  8
型材断面
  6
CONTINUOUS
 62
    47
 10
-40.780585
 20
-3.027063
 11
-23.10291
 21
14.650612
  0
LINE
  8
型材断面
  6
CONTINUOUS
 10
-23.10291
 20
16.771935
 11
-17.446043
 21
11.115068
  0
LINE
  8
型材断面
  6
CONTINUOUS
 62
    47
 10
-34.77016
 20
-9.037488
 11
-40.780585
 21
-3.027063
  0
LINE
  8
型材断面
  6
CONTINUOUS
 62
    47
 10
-36.891475
 20
-9.037488
 11
-42.9019
 21
-3.027055
  0
LINE
  8
型材断面
  6
CONTINUOUS
 62
    47
 10
-43.96255
 20
-16.108562
 11
-49.972975
 21
-10.098138
  0
LINE
  8
型材断面
  6
CONTINUOUS
 10
-43.962558
 20
-18.229885
 11
-49.972975
 21
-12.219452
  0
LINE
  8
型材断面
  6
CONTINUOUS
 10
-54.48838
 20
-41.537485
 11
-54.48838
 21
-16.734857
  0
LINE
  8
型材断面
  6
CONTINUOUS
 10
-49.972975
 20
-12.219452
 11
-54.48838
 21
-16.734857
  0
ARC
  8
型材断面
  6
CONTINUOUS
 10
-54.48838
 20
-16.734863
 40
1.5
 50
135.0
 51
180.0
  0
LINE
  8
型材断面
  6
CONTINUOUS
 10
-49.972975
 20
-10.098138
 11
-55.98838
 21
-16.113543
  0
LINE
  8
型材断面
  6
CONTINUOUS
 10
-55.98838
 20
-43.037485
 11
-55.98838
 21
-16.113543
  0
LINE
  8
型材断面
  6
CONTINUOUS
 10
-45.98838
 20
-43.037485
 11
-45.98838
 21
-41.537482
  0
LINE
  8
型材断面
  6
CONTINUOUS
 10
-54.86338
 20
-41.912485
 11
-45.98838
 21
-41.912485
  0
LINE
  8
型材断面
  6
CONTINUOUS
 10
-55.23838
 20
-42.287485
 11
-45.98838
 21
-42.287485
  0
LINE
  8
型材断面
  6
CONTINUOUS
 10
-55.61338
 20
-42.662485
 11
-45.98838
 21
-42.662485
  0
LINE
  8
型材断面
  6
CONTINUOUS
 10
-54.48838
 20
-41.537485
 11
-45.98838
 21
-41.537485
  0
LINE
  8
型材断面
  6
CONTINUOUS
 10
-16.031843
 20
23.843002
 11
-6.132325
 21
13.943485
  0
LINE
  8
型材断面
  6
CONTINUOUS
 10
-4.387357
 20
35.487443
 11
-16.03182
 21
23.84298
  0
LINE
  8
型材断面
  6
CONTINUOUS
 10
6.926353
 20
35.487443
 11
-10.374965
 21
18.186125
  0
INSERT
  2
*GRP_0011
  8
型材断面
  6
CONTINUOUS
 10
0.0
 20
0.0
  0
INSERT
  2
*GRP_0021
  8
型材断面
  6
CONTINUOUS
 10
0.0
 20
0.0
  0
LINE
  8
型材断面
  6
CONTINUOUS
 10
-23.10291
 20
14.650612
 11
-18.5067
 21
10.054402
  0
LINE
  8
型材断面
  6
CONTINUOUS
 10
-30.173977
 20
7.579545
 11
-25.577768
 21
2.983335
  0
LINE
  8
型材断面
  6
CONTINUOUS
 10
-18.5067
 20
10.054402
 11
-25.577768
 21
2.983335
  0
LINE
  8
型材断面
  6
CONTINUOUS
 10
-25.577768
 20
2.983335
 11
-23.10291
 21
14.650612
  0
LINE
  8
ガラス
  6
CONTINUOUS
 10
-14.881975
 20
-4.422815
 11
-10.639335
 21
-8.665455
  0
LINE
  8
ガラス
  6
CONTINUOUS
 10
-19.124615
 20
-8.665455
 11
-10.639335
 21
-8.665455
  0
LINE
  8
ガラス
  6
CONTINUOUS
 10
-14.881975
 20
-4.422815
 11
-14.881975
 21
-12.908095
  0
LINE
  8
ガラス
  6
CONTINUOUS
 10
-23.809995
 20
-3.734185
 11
15.411633
 21
35.487443
  0
LINE
  8
ガラス
  6
CONTINUOUS
 10
-23.456442
 20
-4.087738
 11
16.118737
 21
35.487443
  0
LINE
  8
ガラス
  6
CONTINUOUS
 10
-19.00167
 20
-8.54251
 11
25.028283
 21
35.487443
  0
LINE
  8
ガラス
  6
CONTINUOUS
 10
-19.47817
 20
-8.311902
 11
24.321177
 21
35.487443
  0
LINE
  8
ガラス
  6
CONTINUOUS
 10
-14.405477
 20
-13.138702
 11
34.220667
 21
35.487443
  0
LINE
  8
ガラス
  6
CONTINUOUS
 10
-14.75903
 20
-12.78515
 11
33.513563
 21
35.487443
  0
LINE
  8
ガラス
  6
CONTINUOUS
 10
-11.577048
 20
-15.967133
 11
39.877527
 21
35.487443
  0
LINE
  8
ガラス
  6
CONTINUOUS
 10
-11.223495
 20
-16.320685
 11
40.584633
 21
35.487443
  0
INSERT
  2
*GRP_0026
  8
ガラス
  6
CONTINUOUS
 10
0.0
 20
0.0
  0
INSERT
  2
*GRP_0027
  8
ガラス
  6
CONTINUOUS
 10
0.0
 20
0.0
  0
INSERT
  2
*GRP_0028
  8
ガラス
  6
CONTINUOUS
 10
0.0
 20
0.0
  0
INSERT
  2
*GRP_0029
  8
ガラス
  6
CONTINUOUS
 10
0.0
 20
0.0
  0
INSERT
  2
*GRP_0030
  8
ガラス
  6
CONTINUOUS
 10
0.0
 20
0.0
  0
INSERT
  2
*GRP_0031
  8
ガラス
  6
CONTINUOUS
 10
0.0
 20
0.0
  0
INSERT
  2
*GRP_0012
  8
ゴム等
  6
CONTINUOUS
 10
0.0
 20
0.0
  0
INSERT
  2
*GRP_0013
  8
ボルト／ビス
  6
CONTINUOUS
 10
0.0
 20
0.0
  0
INSERT
  2
*GRP_0014
  8
ボルト／ビス
  6
CONTINUOUS
 10
0.0
 20
0.0
  0
INSERT
  2
*GRP_0015
  8
ボルト／ビス
  6
CONTINUOUS
 10
0.0
 20
0.0
  0
INSERT
  2
*GRP_0016
  8
ボルト／ビス
  6
CONTINUOUS
 10
0.0
 20
0.0
  0
TEXT
  7
TextStyle03
  8
文字
  6
CONTINUOUS
 10
81.775
 20
37.8
  1
呼称寸法
 40
4.0
 72
     5
 11
99.275
 21
37.8
  0
TEXT
  7
TextStyle03
  8
文字
  6
CONTINUOUS
 10
-82.2
 20
5.9
  1
TKR-1104
 40
4.0
 72
     5
 11
-64.45
 21
5.9
  0
TEXT
  7
TextStyle03
  8
文字
  6
CONTINUOUS
 10
19.55
 20
3.225
  1
TKR-1206
 40
4.0
 72
     5
 11
37.3
 21
3.225
  0
TEXT
  7
TextStyle03
  8
文字
  6
CONTINUOUS
 10
29.6
 20
-64.075
  1
L-30×30×3　St
 40
4.0
 72
     5
 11
63.1
 21
-64.075
  0
TEXT
  7
TextStyle03
  8
文字
  6
CONTINUOUS
 10
88.5
 20
99.6
  1
ＮＳコード：ＮＳ４ＣＫＳ
 40
5.0
 72
     5
 11
155.375
 21
99.6
  0
TEXT
  7
TextStyle03
  8
文字
  6
CONTINUOUS
 10
88.6
 20
121.7
  1
シリーズ：ＳＴＦ４Ｋ
 40
5.0
 72
     5
 11
144.225
 21
121.7
  0
TEXT
  7
TextStyle03
  8
文字
  6
CONTINUOUS
 10
88.6
 20
116.075
  1
　　　　　四角錘（固定）ペアガラス
 40
5.0
 72
     5
 11
183.6
 21
116.075
  0
TEXT
  7
TextStyle03
  8
文字
  6
CONTINUOUS
 10
88.6
 20
110.45
  1
図面名　：下枠断面詳細図
 40
5.0
 72
     5
 11
155.475
 21
110.45
  0
INSERT
  2
*DIM_0002
  8
寸法
  6
CONTINUOUS
 10
0.0
 20
0.0
  0
INSERT
  2
*DIM_0003
  8
寸法
  6
CONTINUOUS
 10
0.0
 20
0.0
  0
INSERT
  2
*DIM_0004
  8
寸法
  6
CONTINUOUS
 10
0.0
 20
0.0
  0
INSERT
  2
*DIM_0005
  8
寸法
  6
CONTINUOUS
 10
0.0
 20
0.0
  0
INSERT
  2
*DIM_0006
  8
寸法
  6
CONTINUOUS
 10
0.0
 20
0.0
  0
INSERT
  2
*DIM_0007
  8
寸法
  6
CONTINUOUS
 10
0.0
 20
0.0
  0
INSERT
  2
*GRP_0018
  8
寸法
  6
CONTINUOUS
 10
0.0
 20
0.0
  0
INSERT
  2
*GRP_0019
  8
寸法
  6
CONTINUOUS
 10
0.0
 20
0.0
  0
INSERT
  2
*GRP_0020
  8
寸法
  6
CONTINUOUS
 10
0.0
 20
0.0
  0
INSERT
  2
*DIM_0022
  8
寸法
  6
CONTINUOUS
 10
0.0
 20
0.0
  0
INSERT
  2
*DIM_0023
  8
寸法
  6
CONTINUOUS
 10
0.0
 20
0.0
  0
INSERT
  2
*DIM_0024
  8
寸法
  6
CONTINUOUS
 10
0.0
 20
0.0
  0
INSERT
  2
*DIM_0025
  8
寸法
  6
CONTINUOUS
 10
0.0
 20
0.0
  0
INSERT
  2
*GRP_0017
  8
St
  6
CONTINUOUS
 10
0.0
 20
0.0
  0
LINE
  8
St
  6
CONTINUOUS
 10
-4.888378
 20
-15.03748
 11
-4.888378
 21
-19.037485
  0
LINE
  8
St
  6
CONTINUOUS
 10
-21.38838
 20
-15.03748
 11
85.51162
 21
-15.03748
  0
LINE
  8
St
  6
CONTINUOUS
 10
-21.38838
 20
-15.03748
 11
-21.38838
 21
-19.037485
  0
LINE
  8
その他部品等
  6
CONTINUOUS
 10
-46.337258
 20
-13.733853
 11
-39.266183
 21
-6.66277
  0
LINE
  8
その他部品等
  6
CONTINUOUS
 10
-43.96255
 20
-16.108562
 11
-39.266183
 21
-6.66277
  0
LINE
  8
その他部品等
  6
CONTINUOUS
 10
-49.972975
 20
-10.098138
 11
-42.9019
 21
-3.027055
  0
INSERT
  2
*HAT_0004
  8
その他部品等
 10
0.0
 20
0.0
  0
LINE
  8
その他部品等
  6
CONTINUOUS
 10
-23.10291
 20
16.771935
 11
-16.031843
 21
23.843002
  0
LINE
  8
その他部品等
  6
CONTINUOUS
 10
-23.10291
 20
16.771935
 11
-3.303875
 21
16.771935
  0
INSERT
  2
*HAT_0005
  8
その他部品等
 10
0.0
 20
0.0
  0
ENDSEC
  0
EOF
