  0
SECTION
  2
HEADER
  9
$EXTMIN
 10
-210.0
 20
-148.5
  9
$EXTMAX
 10
210.0
 20
148.5
  9
$PDMODE
 70
    32
  9
$PDSIZE
 40
1.5
  9
$LTSCALE
 40
10.0
  0
ENDSEC
  0
SECTION
  2
TABLES
  0
TABLE
  2
LTYPE
 70
    15
  0
LTYPE
  2
CONTINUOUS
 70
    64
  3
実線
 72
    65
 73
     0
 40
0.0
  0
LTYPE
  2
DASHED
 70
    64
  3
破線A
 72
    65
 73
     2
 40
0.6
 49
0.4
 49
-0.2
  0
LTYPE
  2
DASHEDX2
 70
    64
  3
破線B
 72
    65
 73
     2
 40
1.3
 49
0.9
 49
-0.4
  0
LTYPE
  2
DASHDOT
 70
    64
  3
１点鎖線A
 72
    65
 73
     4
 40
0.5375
 49
0.375
 49
-0.05
 49
0.0625
 49
-0.05
  0
LTYPE
  2
DASHDOTX2
 70
    64
  3
１点鎖線B
 72
    65
 73
     4
 40
1.075
 49
0.75
 49
-0.1
 49
0.125
 49
-0.1
  0
LTYPE
  2
DIVIDE2
 70
    64
  3
２点鎖線A
 72
    65
 73
     6
 40
0.5125
 49
0.3
 49
-0.0375
 49
0.05
 49
-0.0375
 49
0.05
 49
-0.0375
  0
LTYPE
  2
DIVIDE
 70
    64
  3
２点鎖線B
 72
    65
 73
     6
 40
1.05
 49
0.55
 49
-0.1
 49
0.1
 49
-0.1
 49
0.1
 49
-0.1
  0
LTYPE
  2
DOT
 70
    64
  3
点線A
 72
    65
 73
     2
 40
0.1125
 49
0.0625
 49
-0.05
  0
LTYPE
  2
DOTX2
 70
    64
  3
点線B
 72
    65
 73
     2
 40
0.275
 49
0.15
 49
-0.125
  0
LTYPE
  2
CONTINUOUS
 70
    64
  3
実線
 72
    65
 73
     0
 40
0.0
  0
LTYPE
  2
CONTINUOUS
 70
    64
  3
実線
 72
    65
 73
     0
 40
0.0
  0
LTYPE
  2
CONTINUOUS
 70
    64
  3
実線
 72
    65
 73
     0
 40
0.0
  0
LTYPE
  2
CONTINUOUS
 70
    64
  3
実線
 72
    65
 73
     0
 40
0.0
  0
LTYPE
  2
CONTINUOUS
 70
    64
  3
実線
 72
    65
 73
     0
 40
0.0
  0
LTYPE
  2
CONTINUOUS
 70
    64
  3
実線
 72
    65
 73
     0
 40
0.0
  0
ENDTAB
  0
TABLE
  2
LAYER
 70
    34
  0
LAYER
  2
通り芯
 70
     0
 62
    15
  6
CONTINUOUS
  0
LAYER
  2
補助線
 70
     0
 62
    16
  6
DOT
  0
LAYER
  2
躯体
 70
     0
 62
    31
  6
CONTINUOUS
  0
LAYER
  2
型材
 70
     0
 62
    32
  6
CONTINUOUS
  0
LAYER
  2
型材断面
 70
     0
 62
    47
  6
CONTINUOUS
  0
LAYER
  2
ガラス
 70
     0
 62
    48
  6
CONTINUOUS
  0
LAYER
  2
ゴム等
 70
     0
 62
    63
  6
CONTINUOUS
  0
LAYER
  2
ボルト／ビス
 70
     0
 62
    64
  6
CONTINUOUS
  0
LAYER
  2
文字
 70
     0
 62
    79
  6
CONTINUOUS
  0
LAYER
  2
寸法
 70
     0
 62
    80
  6
CONTINUOUS
  0
LAYER
  2
ﾊｯﾁﾝｸﾞ
 70
     0
 62
    95
  6
CONTINUOUS
  0
LAYER
  2
別途部材
 70
     0
 62
    96
  6
CONTINUOUS
  0
LAYER
  2
曲げ物
 70
     0
 62
   111
  6
CONTINUOUS
  0
LAYER
  2
鉄骨等
 70
     0
 62
   112
  6
CONTINUOUS
  0
LAYER
  2
St
 70
     0
 62
   127
  6
CONTINUOUS
  0
LAYER
  2
その他部品等
 70
     0
 62
   128
  6
CONTINUOUS
  0
LAYER
  2
ｶﾞｽｹｯﾄ
 70
     0
 62
   143
  6
CONTINUOUS
  0
LAYER
  2
ｽｹｯﾁ
 70
     0
 62
    14
  6
CONTINUOUS
  0
LAYER
  2
0
 70
     0
 62
    17
  6
CONTINUOUS
  0
LAYER
  2
1
 70
     0
 62
    30
  6
CONTINUOUS
  0
LAYER
  2
4
 70
     0
 62
    33
  6
CONTINUOUS
  0
LAYER
  2
ﾚｲﾔ3
 70
     0
 62
    46
  6
CONTINUOUS
  0
LAYER
  2
外形線
 70
     0
 62
    49
  6
CONTINUOUS
  0
LAYER
  2
部品
 70
     0
 62
    14
  6
CONTINUOUS
  0
LAYER
  2
サッシ芯
 70
     0
 62
    17
  6
DASHDOTX2
  0
LAYER
  2
寸法線
 70
     0
 62
    62
  6
CONTINUOUS
  0
LAYER
  2
姿図外形線
 70
     0
 62
    65
  6
CONTINUOUS
  0
LAYER
  2
姿補助線
 70
     0
 62
    30
  6
CONTINUOUS
  0
LAYER
  2
透視線
 70
     0
 62
    78
  6
DOT
  0
LAYER
  2
用紙
 70
     0
 62
    81
  6
CONTINUOUS
  0
LAYER
  2
実線図枠
 70
     0
 62
    94
  6
CONTINUOUS
  0
LAYER
  2
補助図枠
 70
     0
 62
    97
  6
CONTINUOUS
  0
LAYER
  2
建具記号
 70
     0
 62
   110
  6
CONTINUOUS
  0
LAYER
  2
補助文字
 70
     0
 62
   113
  6
CONTINUOUS
  0
ENDTAB
  0
TABLE
  2
STYLE
 70
    10
  0
STYLE
  2
STANDARD
 70
     0
 40
1.0
 41
1.0
 42
1.0
 50
0.0
 71
     0
  3
TXT
  4
BIGFONT
  0
STYLE
  2
TATE
 70
     4
 40
1.0
 41
1.0
 42
1.0
 50
0.0
 71
     0
  3
TXT
  4
BIGFONT
  0
STYLE
  2
TextStyle03
 70
     0
 40
1.0
 41
1.0
 42
1.0
 50
0.0
 71
     0
  3
MONOTXT
  4
BIGFONT
  0
STYLE
  2
TextStyle04
 70
     0
 40
1.0
 41
1.0
 42
1.0
 50
0.0
 71
     0
  3
MONOTXT
  4
BIGFONT
  0
STYLE
  2
TextStyle05
 70
     0
 40
1.0
 41
1.0
 42
1.0
 50
0.0
 71
     0
  3
MONOTXT
  4
BIGFONT
  0
STYLE
  2
TextStyle06
 70
     0
 40
1.0
 41
1.0
 42
1.0
 50
0.0
 71
     0
  3
MONOTXT
  4
BIGFONT
  0
STYLE
  2
TextStyle07
 70
     0
 40
1.0
 41
1.0
 42
1.0
 50
0.0
 71
     0
  3
MONOTXT
  4
BIGFONT
  0
STYLE
  2
TextStyle08
 70
     0
 40
1.0
 41
1.0
 42
1.0
 50
0.0
 71
     0
  3
MONOTXT
  4
BIGFONT
  0
STYLE
  2
TextStyle09
 70
     0
 40
1.0
 41
1.0
 42
1.0
 50
0.0
 71
     0
  3
MONOTXT
  4
BIGFONT
  0
STYLE
  2
TextStyle10
 70
     0
 40
1.0
 41
1.0
 42
1.0
 50
0.0
 71
     0
  3
MONOTXT
  4
BIGFONT
  0
ENDTAB
  0
ENDSEC
  0
SECTION
  2
BLOCKS
  0
BLOCK
  2
*HAT_0001
 70
    65
 10
0.0
 20
0.0
  0
LINE
  8
ゴム等
 10
-13.3
 20
75.325
 11
-12.825
 21
75.6
  0
LINE
  8
ゴム等
 10
-13.975
 20
75.5
 11
-12.625
 21
76.275
  0
LINE
  8
ゴム等
 10
-14.65
 20
75.7
 11
-12.45
 21
76.95
  0
LINE
  8
ゴム等
 10
-15.325
 20
75.85
 11
-12.225
 21
77.625
  0
LINE
  8
ゴム等
 10
-16.0
 20
76.05
 11
-12.05
 21
78.325
  0
LINE
  8
ゴム等
 10
-11.35
 20
78.2
 11
-11.325
 21
78.175
  0
LINE
  8
ゴム等
 10
-12.025
 20
78.35
 11
-11.125
 21
78.875
  0
LINE
  8
ゴム等
 10
-16.7
 20
76.225
 11
-10.95
 21
79.55
  0
LINE
  8
ゴム等
 10
-16.925
 20
76.7
 11
-11.55
 21
79.775
  0
LINE
  8
ゴム等
 10
-16.725
 20
77.375
 11
-12.225
 21
79.925
  0
LINE
  8
ゴム等
 10
-16.55
 20
78.05
 11
-12.95
 21
80.15
  0
LINE
  8
ゴム等
 10
-16.35
 20
78.75
 11
-13.6
 21
80.325
  0
LINE
  8
ゴム等
 10
-16.2
 20
79.4
 11
-14.275
 21
80.5
  0
LINE
  8
ゴム等
 10
-16.0
 20
80.125
 11
-14.975
 21
80.65
  0
LINE
  8
ゴム等
 10
-15.8
 20
80.775
 11
-15.65
 21
80.9
  0
ENDBLK
  0
BLOCK
  2
*HAT_0002
 70
    65
 10
0.0
 20
0.0
  0
LINE
  8
ゴム等
 10
-30.025
 20
70.85
 11
-30.575
 21
70.85
  0
LINE
  8
ゴム等
 10
-29.525
 20
71.325
 11
-31.075
 21
71.325
  0
LINE
  8
ゴム等
 10
-29.05
 20
71.85
 11
-31.575
 21
71.825
  0
LINE
  8
ゴム等
 10
-28.525
 20
72.3
 11
-32.075
 21
72.3
  0
LINE
  8
ゴム等
 10
-28.025
 20
72.85
 11
-32.575
 21
72.85
  0
LINE
  8
ゴム等
 10
-33.15
 20
72.35
 11
-33.15
 21
72.35
  0
LINE
  8
ゴム等
 10
-32.6
 20
72.85
 11
-33.65
 21
72.85
  0
LINE
  8
ゴム等
 10
-27.5
 20
73.325
 11
-34.15
 21
73.325
  0
LINE
  8
ゴム等
 10
-27.575
 20
73.85
 11
-33.725
 21
73.8
  0
LINE
  8
ゴム等
 10
-28.05
 20
74.35
 11
-33.225
 21
74.325
  0
LINE
  8
ゴム等
 10
-28.575
 20
74.825
 11
-32.75
 21
74.825
  0
LINE
  8
ゴム等
 10
-29.05
 20
75.325
 11
-32.225
 21
75.35
  0
LINE
  8
ゴム等
 10
-29.55
 20
75.825
 11
-31.75
 21
75.825
  0
LINE
  8
ゴム等
 10
-30.075
 20
76.35
 11
-31.225
 21
76.3
  0
LINE
  8
ゴム等
 10
-30.55
 20
76.825
 11
-30.775
 21
76.825
  0
ENDBLK
  0
BLOCK
  2
*HAT_0003
 70
    65
 10
0.0
 20
0.0
  0
LINE
  8
ゴム等
 10
-10.525
 20
86.075
 11
-9.85
 21
86.475
  0
LINE
  8
ゴム等
 10
-11.2
 20
86.3
 11
-9.675
 21
87.175
  0
LINE
  8
ゴム等
 10
-11.9
 20
86.475
 11
-9.5
 21
87.825
  0
LINE
  8
ゴム等
 10
-12.575
 20
86.65
 11
-9.325
 21
88.525
  0
LINE
  8
ゴム等
 10
-13.25
 20
86.825
 11
-9.275
 21
89.125
  0
LINE
  8
ゴム等
 10
-13.85
 20
87.075
 11
-9.975
 21
89.325
  0
LINE
  8
ゴム等
 10
-13.675
 20
87.75
 11
-10.65
 21
89.5
  0
LINE
  8
ゴム等
 10
-13.475
 20
88.425
 11
-11.325
 21
89.675
  0
LINE
  8
ゴム等
 10
-13.3
 20
89.125
 11
-12.025
 21
89.85
  0
LINE
  8
ゴム等
 10
-13.125
 20
89.8
 11
-12.7
 21
90.05
  0
ENDBLK
  0
BLOCK
  2
*HAT_0004
 70
    65
 10
0.0
 20
0.0
  0
LINE
  8
ゴム等
 10
-37.775
 20
78.775
 11
-38.55
 21
78.775
  0
LINE
  8
ゴム等
 10
-37.275
 20
79.3
 11
-39.075
 21
79.3
  0
LINE
  8
ゴム等
 10
-36.775
 20
79.8
 11
-39.55
 21
79.775
  0
LINE
  8
ゴム等
 10
-36.275
 20
80.325
 11
-40.05
 21
80.325
  0
LINE
  8
ゴム等
 10
-35.8
 20
80.8
 11
-40.4
 21
80.8
  0
LINE
  8
ゴム等
 10
-35.4
 20
81.3
 11
-39.875
 21
81.3
  0
LINE
  8
ゴム等
 10
-35.9
 20
81.825
 11
-39.375
 21
81.8
  0
LINE
  8
ゴム等
 10
-36.4
 20
82.275
 11
-38.9
 21
82.3
  0
LINE
  8
ゴム等
 10
-36.9
 20
82.8
 11
-38.4
 21
82.8
  0
LINE
  8
ゴム等
 10
-37.375
 20
83.3
 11
-37.9
 21
83.275
  0
ENDBLK
  0
BLOCK
  2
*HAT_0005
 70
    65
 10
0.0
 20
0.0
  0
LINE
  8
ゴム等
 10
-100.85
 20
-12.175
 11
-101.0
 21
-12.6
  0
LINE
  8
ゴム等
 10
-101.275
 20
-11.775
 11
-101.725
 21
-12.85
  0
LINE
  8
ゴム等
 10
-101.675
 20
-11.35
 11
-102.475
 21
-13.075
  0
LINE
  8
ゴム等
 10
-102.1
 20
-10.9
 11
-103.225
 21
-13.35
  0
LINE
  8
ゴム等
 10
-102.575
 20
-10.45
 11
-103.975
 21
-13.575
  0
LINE
  8
ゴム等
 10
-103.6
 20
-14.05
 11
-103.6
 21
-14.05
  0
LINE
  8
ゴム等
 10
-104.0
 20
-13.6
 11
-104.3
 21
-14.275
  0
LINE
  8
ゴム等
 10
-102.95
 20
-10.0
 11
-105.05
 21
-14.575
  0
LINE
  8
ゴム等
 10
-103.6
 20
-10.0
 11
-105.55
 21
-14.2
  0
LINE
  8
ゴム等
 10
-104.35
 20
-10.225
 11
-105.95
 21
-13.75
  0
LINE
  8
ゴム等
 10
-105.1
 20
-10.5
 11
-106.4
 21
-13.3
  0
LINE
  8
ゴム等
 10
-105.8
 20
-10.725
 11
-106.825
 21
-12.9
  0
LINE
  8
ゴム等
 10
-106.6
 20
-10.975
 11
-107.275
 21
-12.475
  0
LINE
  8
ゴム等
 10
-107.35
 20
-11.2
 11
-107.675
 21
-12.025
  0
LINE
  8
ゴム等
 10
-108.1
 20
-11.475
 11
-108.125
 21
-11.625
  0
ENDBLK
  0
BLOCK
  2
*HAT_0006
 70
    65
 10
0.0
 20
0.0
  0
LINE
  8
ゴム等
 10
-100.85
 20
0.05
 11
-101.0
 21
0.425
  0
LINE
  8
ゴム等
 10
-101.275
 20
-0.4
 11
-101.725
 21
0.675
  0
LINE
  8
ゴム等
 10
-101.675
 20
-0.825
 11
-102.475
 21
0.95
  0
LINE
  8
ゴム等
 10
-102.1
 20
-1.225
 11
-103.225
 21
1.175
  0
LINE
  8
ゴム等
 10
-102.575
 20
-1.675
 11
-103.975
 21
1.425
  0
LINE
  8
ゴム等
 10
-103.6
 20
1.875
 11
-103.6
 21
1.925
  0
LINE
  8
ゴム等
 10
-104.0
 20
1.475
 11
-104.3
 21
2.15
  0
LINE
  8
ゴム等
 10
-102.95
 20
-2.125
 11
-105.05
 21
2.4
  0
LINE
  8
ゴム等
 10
-103.6
 20
-2.175
 11
-105.55
 21
2.075
  0
LINE
  8
ゴム等
 10
-104.35
 20
-1.9
 11
-105.95
 21
1.625
  0
LINE
  8
ゴム等
 10
-105.1
 20
-1.675
 11
-106.4
 21
1.175
  0
LINE
  8
ゴム等
 10
-105.8
 20
-1.425
 11
-106.825
 21
0.725
  0
LINE
  8
ゴム等
 10
-106.6
 20
-1.2
 11
-107.275
 21
0.35
  0
LINE
  8
ゴム等
 10
-107.35
 20
-0.925
 11
-107.675
 21
-0.1
  0
LINE
  8
ゴム等
 10
-108.1
 20
-0.675
 11
-108.125
 21
-0.55
  0
ENDBLK
  0
BLOCK
  2
*HAT_0007
 70
    65
 10
0.0
 20
0.0
  0
LINE
  8
ゴム等
 10
-112.7
 20
-16.05
 11
-112.975
 21
-16.575
  0
LINE
  8
ゴム等
 10
-113.125
 20
-15.625
 11
-113.675
 21
-16.825
  0
LINE
  8
ゴム等
 10
-113.575
 20
-15.175
 11
-114.475
 21
-17.05
  0
LINE
  8
ゴム等
 10
-113.975
 20
-14.725
 11
-115.175
 21
-17.325
  0
LINE
  8
ゴム等
 10
-114.425
 20
-14.325
 11
-115.9
 21
-17.475
  0
LINE
  8
ゴム等
 10
-114.925
 20
-13.975
 11
-116.3
 21
-17.025
  0
LINE
  8
ゴム等
 10
-115.625
 20
-14.2
 11
-116.75
 21
-16.6
  0
LINE
  8
ゴム等
 10
-116.375
 20
-14.475
 11
-117.175
 21
-16.15
  0
LINE
  8
ゴム等
 10
-117.125
 20
-14.725
 11
-117.625
 21
-15.75
  0
LINE
  8
ゴム等
 10
-117.875
 20
-14.95
 11
-118.025
 21
-15.325
  0
ENDBLK
  0
BLOCK
  2
*HAT_0008
 70
    65
 10
0.0
 20
0.0
  0
LINE
  8
ゴム等
 10
-112.7
 20
3.875
 11
-112.975
 21
4.425
  0
LINE
  8
ゴム等
 10
-113.125
 20
3.45
 11
-113.675
 21
4.7
  0
LINE
  8
ゴム等
 10
-113.575
 20
3.05
 11
-114.475
 21
4.925
  0
LINE
  8
ゴム等
 10
-113.975
 20
2.6
 11
-115.175
 21
5.175
  0
LINE
  8
ゴム等
 10
-114.425
 20
2.175
 11
-115.9
 21
5.3
  0
LINE
  8
ゴム等
 10
-114.925
 20
1.8
 11
-116.3
 21
4.85
  0
LINE
  8
ゴム等
 10
-115.625
 20
2.075
 11
-116.75
 21
4.425
  0
LINE
  8
ゴム等
 10
-116.375
 20
2.3
 11
-117.175
 21
4.025
  0
LINE
  8
ゴム等
 10
-117.125
 20
2.55
 11
-117.625
 21
3.575
  0
LINE
  8
ゴム等
 10
-117.875
 20
2.825
 11
-118.025
 21
3.15
  0
ENDBLK
  0
BLOCK
  2
*HAT_0009
 70
    65
 10
0.0
 20
0.0
  0
LINE
  8
ゴム等
 10
-100.85
 20
-37.75
 11
-101.0
 21
-37.325
  0
LINE
  8
ゴム等
 10
-101.275
 20
-38.15
 11
-101.725
 21
-37.075
  0
LINE
  8
ゴム等
 10
-101.675
 20
-38.575
 11
-102.475
 21
-36.85
  0
LINE
  8
ゴム等
 10
-102.1
 20
-39.025
 11
-103.225
 21
-36.575
  0
LINE
  8
ゴム等
 10
-102.575
 20
-39.475
 11
-103.975
 21
-36.35
  0
LINE
  8
ゴム等
 10
-103.6
 20
-35.875
 11
-103.6
 21
-35.875
  0
LINE
  8
ゴム等
 10
-104.0
 20
-36.325
 11
-104.3
 21
-35.65
  0
LINE
  8
ゴム等
 10
-102.95
 20
-39.925
 11
-105.05
 21
-35.35
  0
LINE
  8
ゴム等
 10
-103.6
 20
-39.925
 11
-105.55
 21
-35.725
  0
LINE
  8
ゴム等
 10
-104.35
 20
-39.7
 11
-105.95
 21
-36.175
  0
LINE
  8
ゴム等
 10
-105.1
 20
-39.425
 11
-106.4
 21
-36.625
  0
LINE
  8
ゴム等
 10
-105.8
 20
-39.2
 11
-106.825
 21
-37.025
  0
LINE
  8
ゴム等
 10
-106.6
 20
-38.95
 11
-107.275
 21
-37.45
  0
LINE
  8
ゴム等
 10
-107.35
 20
-38.725
 11
-107.675
 21
-37.9
  0
LINE
  8
ゴム等
 10
-108.1
 20
-38.45
 11
-108.125
 21
-38.3
  0
ENDBLK
  0
BLOCK
  2
*HAT_0010
 70
    65
 10
0.0
 20
0.0
  0
LINE
  8
ゴム等
 10
-100.85
 20
-49.975
 11
-101.0
 21
-50.35
  0
LINE
  8
ゴム等
 10
-101.275
 20
-49.525
 11
-101.725
 21
-50.6
  0
LINE
  8
ゴム等
 10
-101.675
 20
-49.1
 11
-102.475
 21
-50.875
  0
LINE
  8
ゴム等
 10
-102.1
 20
-48.7
 11
-103.225
 21
-51.1
  0
LINE
  8
ゴム等
 10
-102.575
 20
-48.25
 11
-103.975
 21
-51.35
  0
LINE
  8
ゴム等
 10
-103.6
 20
-51.8
 11
-103.6
 21
-51.85
  0
LINE
  8
ゴム等
 10
-104.0
 20
-51.4
 11
-104.3
 21
-52.075
  0
LINE
  8
ゴム等
 10
-102.95
 20
-47.8
 11
-105.05
 21
-52.325
  0
LINE
  8
ゴム等
 10
-103.6
 20
-47.75
 11
-105.55
 21
-52.0
  0
LINE
  8
ゴム等
 10
-104.35
 20
-48.025
 11
-105.95
 21
-51.55
  0
LINE
  8
ゴム等
 10
-105.1
 20
-48.25
 11
-106.4
 21
-51.1
  0
LINE
  8
ゴム等
 10
-105.8
 20
-48.5
 11
-106.825
 21
-50.65
  0
LINE
  8
ゴム等
 10
-106.6
 20
-48.725
 11
-107.275
 21
-50.275
  0
LINE
  8
ゴム等
 10
-107.35
 20
-49.0
 11
-107.675
 21
-49.825
  0
LINE
  8
ゴム等
 10
-108.1
 20
-49.25
 11
-108.125
 21
-49.375
  0
ENDBLK
  0
BLOCK
  2
*HAT_0011
 70
    65
 10
0.0
 20
0.0
  0
LINE
  8
ゴム等
 10
-112.7
 20
-33.875
 11
-112.975
 21
-33.35
  0
LINE
  8
ゴム等
 10
-113.125
 20
-34.3
 11
-113.675
 21
-33.1
  0
LINE
  8
ゴム等
 10
-113.575
 20
-34.75
 11
-114.475
 21
-32.875
  0
LINE
  8
ゴム等
 10
-113.975
 20
-35.2
 11
-115.175
 21
-32.6
  0
LINE
  8
ゴム等
 10
-114.425
 20
-35.6
 11
-115.9
 21
-32.45
  0
LINE
  8
ゴム等
 10
-114.925
 20
-35.95
 11
-116.3
 21
-32.9
  0
LINE
  8
ゴム等
 10
-115.625
 20
-35.725
 11
-116.75
 21
-33.325
  0
LINE
  8
ゴム等
 10
-116.375
 20
-35.45
 11
-117.175
 21
-33.775
  0
LINE
  8
ゴム等
 10
-117.125
 20
-35.2
 11
-117.625
 21
-34.175
  0
LINE
  8
ゴム等
 10
-117.875
 20
-34.975
 11
-118.025
 21
-34.6
  0
ENDBLK
  0
BLOCK
  2
*HAT_0012
 70
    65
 10
0.0
 20
0.0
  0
LINE
  8
ゴム等
 10
-112.7
 20
-53.8
 11
-112.975
 21
-54.35
  0
LINE
  8
ゴム等
 10
-113.125
 20
-53.375
 11
-113.675
 21
-54.625
  0
LINE
  8
ゴム等
 10
-113.575
 20
-52.975
 11
-114.475
 21
-54.85
  0
LINE
  8
ゴム等
 10
-113.975
 20
-52.525
 11
-115.175
 21
-55.1
  0
LINE
  8
ゴム等
 10
-114.425
 20
-52.1
 11
-115.9
 21
-55.225
  0
LINE
  8
ゴム等
 10
-114.925
 20
-51.725
 11
-116.3
 21
-54.775
  0
LINE
  8
ゴム等
 10
-115.625
 20
-52.0
 11
-116.75
 21
-54.35
  0
LINE
  8
ゴム等
 10
-116.375
 20
-52.225
 11
-117.175
 21
-53.95
  0
LINE
  8
ゴム等
 10
-117.125
 20
-52.475
 11
-117.625
 21
-53.5
  0
LINE
  8
ゴム等
 10
-117.875
 20
-52.75
 11
-118.025
 21
-53.075
  0
ENDBLK
  0
BLOCK
  2
*HAT_0013
 70
    65
 10
0.0
 20
0.0
  0
LINE
  8
曲げ物
 10
74.025
 20
-46.875
 11
72.25
 21
-46.825
  0
LINE
  8
曲げ物
 10
49.575
 20
-46.825
 11
47.775
 21
-46.8
  0
LINE
  8
曲げ物
 10
73.425
 20
-47.8
 11
71.275
 21
-47.8
  0
LINE
  8
曲げ物
 10
72.4
 20
-48.825
 11
70.275
 21
-48.825
  0
LINE
  8
曲げ物
 10
71.4
 20
-49.825
 11
69.25
 21
-49.825
  0
LINE
  8
曲げ物
 10
70.375
 20
-50.85
 11
68.25
 21
-50.85
  0
LINE
  8
曲げ物
 10
69.4
 20
-51.825
 11
67.275
 21
-51.825
  0
LINE
  8
曲げ物
 10
68.4
 20
-52.825
 11
66.25
 21
-52.825
  0
LINE
  8
曲げ物
 10
67.425
 20
-53.8
 11
65.275
 21
-53.8
  0
LINE
  8
曲げ物
 10
66.4
 20
-54.825
 11
64.275
 21
-54.825
  0
LINE
  8
曲げ物
 10
65.4
 20
-55.825
 11
63.25
 21
-55.825
  0
LINE
  8
曲げ物
 10
64.425
 20
-56.8
 11
62.275
 21
-56.8
  0
LINE
  8
曲げ物
 10
63.4
 20
-57.825
 11
61.275
 21
-57.825
  0
LINE
  8
曲げ物
 10
50.575
 20
-47.85
 11
48.45
 21
-47.85
  0
LINE
  8
曲げ物
 10
51.55
 20
-48.825
 11
49.425
 21
-48.825
  0
LINE
  8
曲げ物
 10
52.575
 20
-49.825
 11
50.425
 21
-49.825
  0
LINE
  8
曲げ物
 10
53.55
 20
-50.8
 11
51.4
 21
-50.8
  0
LINE
  8
曲げ物
 10
54.55
 20
-51.825
 11
52.425
 21
-51.825
  0
LINE
  8
曲げ物
 10
55.575
 20
-52.825
 11
53.425
 21
-52.825
  0
LINE
  8
曲げ物
 10
56.55
 20
-53.85
 11
54.45
 21
-53.85
  0
LINE
  8
曲げ物
 10
57.55
 20
-54.825
 11
55.425
 21
-54.825
  0
LINE
  8
曲げ物
 10
58.575
 20
-55.825
 11
56.425
 21
-55.825
  0
LINE
  8
曲げ物
 10
59.55
 20
-56.8
 11
57.4
 21
-56.8
  0
LINE
  8
曲げ物
 10
60.55
 20
-57.825
 11
58.425
 21
-57.825
  0
LINE
  8
曲げ物
 10
62.425
 20
-58.8
 11
59.425
 21
-58.825
  0
LINE
  8
曲げ物
 10
61.425
 20
-59.8
 11
60.45
 21
-59.85
  0
ENDBLK
  0
BLOCK
  2
*HAT_0014
 70
    65
 10
0.0
 20
0.0
  0
LINE
  8
曲げ物
 10
82.8
 20
-38.125
 11
82.75
 21
-36.325
  0
LINE
  8
曲げ物
 10
82.75
 20
-13.65
 11
82.725
 21
-11.875
  0
LINE
  8
曲げ物
 10
83.725
 20
-37.5
 11
83.725
 21
-35.35
  0
LINE
  8
曲げ物
 10
84.75
 20
-36.475
 11
84.75
 21
-34.35
  0
LINE
  8
曲げ物
 10
85.75
 20
-35.475
 11
85.75
 21
-33.325
  0
LINE
  8
曲げ物
 10
86.775
 20
-34.45
 11
86.775
 21
-32.325
  0
LINE
  8
曲げ物
 10
87.75
 20
-33.475
 11
87.75
 21
-31.35
  0
LINE
  8
曲げ物
 10
88.75
 20
-32.475
 11
88.75
 21
-30.325
  0
LINE
  8
曲げ物
 10
89.725
 20
-31.5
 11
89.725
 21
-29.35
  0
LINE
  8
曲げ物
 10
90.75
 20
-30.475
 11
90.75
 21
-28.35
  0
LINE
  8
曲げ物
 10
91.75
 20
-29.475
 11
91.75
 21
-27.325
  0
LINE
  8
曲げ物
 10
92.725
 20
-28.5
 11
92.725
 21
-26.35
  0
LINE
  8
曲げ物
 10
93.75
 20
-27.475
 11
93.75
 21
-25.35
  0
LINE
  8
曲げ物
 10
83.775
 20
-14.65
 11
83.775
 21
-12.525
  0
LINE
  8
曲げ物
 10
84.75
 20
-15.625
 11
84.75
 21
-13.5
  0
LINE
  8
曲げ物
 10
85.75
 20
-16.65
 11
85.75
 21
-14.5
  0
LINE
  8
曲げ物
 10
86.725
 20
-17.625
 11
86.725
 21
-15.475
  0
LINE
  8
曲げ物
 10
87.75
 20
-18.625
 11
87.75
 21
-16.5
  0
LINE
  8
曲げ物
 10
88.75
 20
-19.65
 11
88.75
 21
-17.5
  0
LINE
  8
曲げ物
 10
89.775
 20
-20.65
 11
89.775
 21
-18.525
  0
LINE
  8
曲げ物
 10
90.75
 20
-21.625
 11
90.75
 21
-19.5
  0
LINE
  8
曲げ物
 10
91.75
 20
-22.65
 11
91.75
 21
-20.5
  0
LINE
  8
曲げ物
 10
92.725
 20
-23.625
 11
92.725
 21
-21.475
  0
LINE
  8
曲げ物
 10
93.75
 20
-24.625
 11
93.75
 21
-22.5
  0
LINE
  8
曲げ物
 10
94.725
 20
-26.5
 11
94.75
 21
-23.5
  0
LINE
  8
曲げ物
 10
95.725
 20
-25.5
 11
95.775
 21
-24.525
  0
ENDBLK
  0
BLOCK
  2
*HAT_0015
 70
    65
 10
0.0
 20
0.0
  0
LINE
  8
曲げ物
 10
47.775
 20
-3.075
 11
49.5
 21
-3.075
  0
LINE
  8
曲げ物
 10
72.225
 20
-3.1
 11
73.975
 21
-3.1
  0
LINE
  8
曲げ物
 10
48.375
 20
-2.1
 11
50.5
 21
-2.1
  0
LINE
  8
曲げ物
 10
49.375
 20
-1.075
 11
51.475
 21
-1.075
  0
LINE
  8
曲げ物
 10
50.4
 20
-0.1
 11
52.5
 21
-0.1
  0
LINE
  8
曲げ物
 10
51.4
 20
0.9
 11
53.5
 21
0.9
  0
LINE
  8
曲げ物
 10
52.375
 20
1.875
 11
54.475
 21
1.875
  0
LINE
  8
曲げ物
 10
53.4
 20
2.9
 11
55.5
 21
2.9
  0
LINE
  8
曲げ物
 10
54.375
 20
3.9
 11
56.475
 21
3.9
  0
LINE
  8
曲げ物
 10
55.375
 20
4.875
 11
57.475
 21
4.875
  0
LINE
  8
曲げ物
 10
56.4
 20
5.9
 11
58.5
 21
5.9
  0
LINE
  8
曲げ物
 10
57.375
 20
6.875
 11
59.475
 21
6.875
  0
LINE
  8
曲げ物
 10
58.375
 20
7.875
 11
60.475
 21
7.875
  0
LINE
  8
曲げ物
 10
71.25
 20
-2.1
 11
73.35
 21
-2.1
  0
LINE
  8
曲げ物
 10
70.225
 20
-1.125
 11
72.375
 21
-1.125
  0
LINE
  8
曲げ物
 10
69.225
 20
-0.1
 11
71.35
 21
-0.1
  0
LINE
  8
曲げ物
 10
68.25
 20
0.9
 11
70.35
 21
0.9
  0
LINE
  8
曲げ物
 10
67.225
 20
1.875
 11
69.325
 21
1.875
  0
LINE
  8
曲げ物
 10
66.25
 20
2.9
 11
68.35
 21
2.9
  0
LINE
  8
曲げ物
 10
65.25
 20
3.9
 11
67.35
 21
3.9
  0
LINE
  8
曲げ物
 10
64.275
 20
4.875
 11
66.375
 21
4.875
  0
LINE
  8
曲げ物
 10
63.25
 20
5.9
 11
65.35
 21
5.9
  0
LINE
  8
曲げ物
 10
62.25
 20
6.875
 11
64.35
 21
6.875
  0
LINE
  8
曲げ物
 10
61.275
 20
7.875
 11
63.375
 21
7.875
  0
LINE
  8
曲げ物
 10
59.35
 20
8.85
 11
62.35
 21
8.85
  0
LINE
  8
曲げ物
 10
60.375
 20
9.875
 11
61.35
 21
9.875
  0
ENDBLK
  0
BLOCK
  2
*HAT_0016
 70
    65
 10
0.0
 20
0.0
  0
LINE
  8
曲げ物
 10
39.0
 20
-11.85
 11
39.0
 21
-13.575
  0
LINE
  8
曲げ物
 10
39.025
 20
-36.3
 11
39.025
 21
-38.05
  0
LINE
  8
曲げ物
 10
38.025
 20
-12.45
 11
38.025
 21
-14.575
  0
LINE
  8
曲げ物
 10
37.0
 20
-13.45
 11
37.0
 21
-15.6
  0
LINE
  8
曲げ物
 10
36.0
 20
-14.475
 11
36.0
 21
-16.575
  0
LINE
  8
曲げ物
 10
35.025
 20
-15.475
 11
35.025
 21
-17.575
  0
LINE
  8
曲げ物
 10
34.0
 20
-16.45
 11
34.0
 21
-18.55
  0
LINE
  8
曲げ物
 10
33.025
 20
-17.475
 11
33.025
 21
-19.575
  0
LINE
  8
曲げ物
 10
32.025
 20
-18.45
 11
32.025
 21
-20.55
  0
LINE
  8
曲げ物
 10
31.05
 20
-19.45
 11
31.05
 21
-21.55
  0
LINE
  8
曲げ物
 10
30.025
 20
-20.475
 11
30.025
 21
-22.575
  0
LINE
  8
曲げ物
 10
29.05
 20
-21.45
 11
29.05
 21
-23.55
  0
LINE
  8
曲げ物
 10
28.05
 20
-22.45
 11
28.05
 21
-24.55
  0
LINE
  8
曲げ物
 10
38.025
 20
-35.325
 11
38.025
 21
-37.425
  0
LINE
  8
曲げ物
 10
37.05
 20
-34.3
 11
37.05
 21
-36.45
  0
LINE
  8
曲げ物
 10
36.025
 20
-33.325
 11
36.025
 21
-35.425
  0
LINE
  8
曲げ物
 10
35.025
 20
-32.325
 11
35.025
 21
-34.425
  0
LINE
  8
曲げ物
 10
34.0
 20
-31.3
 11
34.0
 21
-33.4
  0
LINE
  8
曲げ物
 10
33.025
 20
-30.325
 11
33.025
 21
-32.425
  0
LINE
  8
曲げ物
 10
32.025
 20
-29.325
 11
32.025
 21
-31.425
  0
LINE
  8
曲げ物
 10
31.05
 20
-28.35
 11
31.05
 21
-30.45
  0
LINE
  8
曲げ物
 10
30.025
 20
-27.325
 11
30.025
 21
-29.425
  0
LINE
  8
曲げ物
 10
29.05
 20
-26.325
 11
29.05
 21
-28.425
  0
LINE
  8
曲げ物
 10
28.05
 20
-25.35
 11
28.05
 21
-27.45
  0
LINE
  8
曲げ物
 10
27.025
 20
-23.425
 11
27.025
 21
-26.425
  0
LINE
  8
曲げ物
 10
26.05
 20
-24.45
 11
26.05
 21
-25.45
  0
ENDBLK
  0
BLOCK
  2
*HAT_0017
 70
    65
 10
0.0
 20
0.0
  0
LINE
  8
その他部品等
 10
-24.025
 20
90.95
 11
-23.9
 21
91.1
  0
LINE
  8
その他部品等
 10
-25.375
 20
90.575
 11
-24.25
 21
92.475
  0
LINE
  8
その他部品等
 10
-26.725
 20
90.225
 11
-24.625
 21
93.85
  0
LINE
  8
その他部品等
 10
-28.1
 20
89.85
 11
-25.85
 21
93.725
  0
LINE
  8
その他部品等
 10
-28.9
 20
90.45
 11
-27.2
 21
93.375
  0
LINE
  8
その他部品等
 10
-29.275
 20
91.8
 11
-28.575
 21
93.0
  0
LINE
  8
その他部品等
 10
-29.0
 20
90.65
 11
-27.75
 21
89.925
  0
LINE
  8
その他部品等
 10
-29.35
 20
91.975
 11
-26.4
 21
90.3
  0
LINE
  8
その他部品等
 10
-28.9
 20
92.925
 11
-25.025
 21
90.675
  0
LINE
  8
その他部品等
 10
-27.55
 20
93.275
 11
-23.95
 21
91.175
  0
LINE
  8
その他部品等
 10
-26.2
 20
93.65
 11
-24.3
 21
92.575
  0
LINE
  8
その他部品等
 10
-24.825
 20
94.025
 11
-24.675
 21
93.925
  0
ENDBLK
  0
BLOCK
  2
*HAT_0018
 70
    65
 10
0.0
 20
0.0
  0
LINE
  8
その他部品等
 10
-36.7
 20
75.875
 11
-34.95
 21
77.65
  0
LINE
  8
その他部品等
 10
-37.4
 20
76.6
 11
-35.65
 21
78.35
  0
LINE
  8
その他部品等
 10
-38.125
 20
77.3
 11
-36.35
 21
79.05
  0
LINE
  8
その他部品等
 10
-38.05
 20
78.6
 11
-35.95
 21
76.5
  0
LINE
  8
その他部品等
 10
-37.35
 20
79.325
 11
-35.225
 21
77.2
  0
ENDBLK
  0
BLOCK
  2
*HAT_0019
 70
    65
 10
0.0
 20
0.0
  0
LINE
  8
その他部品等
 10
-10.05
 20
83.025
 11
-12.45
 21
83.675
  0
LINE
  8
その他部品等
 10
-9.8
 20
84.0
 11
-12.2
 21
84.625
  0
LINE
  8
その他部品等
 10
-9.525
 20
84.975
 11
-11.925
 21
85.6
  0
LINE
  8
その他部品等
 10
-10.225
 20
86.05
 11
-11.0
 21
83.175
  0
LINE
  8
その他部品等
 10
-11.2
 20
86.325
 11
-11.975
 21
83.425
  0
ENDBLK
  0
BLOCK
  2
*GRP_0001
 70
    65
 10
0.0
 20
0.0
  0
LINE
  8
型材断面
  6
CONTINUOUS
 10
195.0
 20
133.5
 11
195.0
 21
-133.5
  0
LINE
  8
型材断面
  6
CONTINUOUS
 10
195.0
 20
-133.5
 11
-185.0
 21
-133.5
  0
LINE
  8
型材断面
  6
CONTINUOUS
 10
-185.0
 20
-133.5
 11
-185.0
 21
133.5
  0
LINE
  8
型材断面
  6
CONTINUOUS
 10
195.0
 20
133.5
 11
-185.0
 21
133.5
  0
LINE
  8
型材断面
  6
CONTINUOUS
 10
145.0
 20
-133.5
 11
145.0
 21
-118.5
  0
LINE
  8
型材断面
  6
CONTINUOUS
 10
195.0
 20
-118.5
 11
145.0
 21
-118.5
  0
ENDBLK
  0
BLOCK
  2
*GRP_0002
 70
    65
 10
0.0
 20
0.0
  0
LINE
  8
補助線
  6
BYBLOCK
 62
     0
 10
-100.038998
 20
-40.22275
 11
-100.038998
 21
-47.552875
  0
LINE
  8
補助線
  6
BYBLOCK
 62
     0
 10
-103.70406
 20
-43.887813
 11
-96.373938
 21
-43.887813
  0
ENDBLK
  0
BLOCK
  2
*GRP_0003
 70
    65
 10
0.0
 20
0.0
  0
LINE
  8
補助線
  6
BYBLOCK
 62
     0
 10
-100.038998
 20
-2.39257
 11
-100.038998
 21
-9.722695
  0
LINE
  8
補助線
  6
BYBLOCK
 62
     0
 10
-103.70406
 20
-6.057632
 11
-96.373938
 21
-6.057632
  0
ENDBLK
  0
BLOCK
  2
*GRP_0004
 70
    65
 10
0.0
 20
0.0
  0
LINE
  8
型材断面
  6
CONTINUOUS
 62
    47
 10
-25.76521
 20
88.366952
 11
-23.350397
 21
89.013998
  0
LINE
  8
型材断面
  6
CONTINUOUS
 62
    47
 10
-25.76521
 20
88.366952
 11
-28.180025
 21
87.719902
  0
ARC
  8
型材断面
  6
CONTINUOUS
 62
    47
 10
-23.644418
 20
93.00908
 40
0.75
 50
75.000004
 51
195.0
  0
LINE
  8
型材断面
  6
CONTINUOUS
 62
    47
 10
-9.202898
 20
89.139488
 11
-10.04406
 21
86.000232
  0
ARC
  8
型材断面
  6
CONTINUOUS
 62
    47
 10
-9.202899
 20
89.139486
 40
0.75
 50
-15.000003
 51
75.000004
  0
LINE
  8
型材断面
  6
CONTINUOUS
 62
    47
 10
-9.319615
 20
85.806118
 11
-8.28434
 21
89.66982
  0
LINE
  8
型材断面
  6
CONTINUOUS
 62
    47
 10
-10.04406
 20
86.000232
 11
-9.319615
 21
85.806118
  0
LINE
  8
型材断面
  6
CONTINUOUS
 62
    47
 10
-23.350397
 20
89.013998
 11
-24.70508
 21
94.069743
  0
LINE
  8
型材断面
  6
CONTINUOUS
 62
    47
 10
-8.284338
 20
89.66982
 11
-24.70508
 21
94.069743
  0
LINE
  8
型材断面
  6
CONTINUOUS
 62
    47
 10
-9.202898
 20
89.13949
 11
-23.644423
 21
93.009085
  0
ARC
  8
型材断面
  6
CONTINUOUS
 62
    47
 10
-29.922932
 20
91.326757
 40
0.75
 50
15.0
 51
134.999996
  0
LINE
  8
型材断面
  6
CONTINUOUS
 62
    47
 10
-40.49486
 20
80.754832
 11
-38.196765
 21
78.456738
  0
ARC
  8
型材断面
  6
CONTINUOUS
 62
    47
 10
-40.494858
 20
80.754831
 40
0.75
 50
134.999996
 51
225.000003
  0
LINE
  8
型材断面
  6
CONTINUOUS
 62
    47
 10
-38.727095
 20
77.92641
 11
-41.55552
 21
80.754832
  0
LINE
  8
型材断面
  6
CONTINUOUS
 62
    47
 10
-38.196765
 20
78.456738
 11
-38.727095
 21
77.92641
  0
LINE
  8
型材断面
  6
CONTINUOUS
 62
    47
 10
-41.55552
 20
80.754832
 11
-29.534707
 21
92.775645
  0
LINE
  8
型材断面
  6
CONTINUOUS
 62
    47
 10
-28.180025
 20
87.719902
 11
-29.534707
 21
92.775645
  0
LINE
  8
型材断面
  6
CONTINUOUS
 62
    47
 10
-40.494862
 20
80.754835
 11
-29.922937
 21
91.32676
  0
LINE
  8
型材断面
  6
CONTINUOUS
 10
-24.557802
 20
88.690475
 11
-24.363688
 21
87.96603
  0
LINE
  8
型材断面
  6
CONTINUOUS
 10
-26.972617
 20
88.043427
 11
-26.778503
 21
87.318982
  0
ARC
  8
型材断面
  6
CONTINUOUS
 10
-28.180024
 20
87.7199
 40
0.75
 50
195.0
 51
285.0
  0
ARC
  8
型材断面
  6
CONTINUOUS
 10
-23.350396
 20
89.013995
 40
0.75
 50
285.0
 51
375.0
  0
LINE
  8
型材断面
  6
CONTINUOUS
 62
    47
 10
-23.644423
 20
93.009085
 11
-22.43184
 21
88.483668
  0
LINE
  8
型材断面
  6
CONTINUOUS
 10
-22.43184
 20
88.483668
 11
-28.710355
 21
86.801342
  0
LINE
  8
型材断面
  6
CONTINUOUS
 62
    47
 10
-29.922937
 20
91.32676
 11
-28.710355
 21
86.801342
  0
LINE
  8
St
  6
CONTINUOUS
 62
    47
 10
-26.924088
 20
87.862315
 11
-24.509275
 21
88.509362
  0
LINE
  8
St
  6
CONTINUOUS
 62
    47
 10
-26.87556
 20
87.681205
 11
-24.460745
 21
88.328253
  0
LINE
  8
St
  6
CONTINUOUS
 62
    47
 10
-26.82703
 20
87.500093
 11
-24.412218
 21
88.14714
  0
ENDBLK
  0
BLOCK
  2
*GRP_0005
 70
    65
 10
0.0
 20
0.0
  0
ARC
  8
型材断面
  6
CONTINUOUS
 10
-16.328323
 20
75.364297
 40
0.75
 50
75.000048
 51
195.0
  0
LINE
  8
型材断面
  6
CONTINUOUS
 10
-12.088735
 20
78.369415
 11
-11.364285
 21
78.175303
  0
ARC
  8
型材断面
  6
CONTINUOUS
 10
-12.929894
 20
75.230153
 40
0.75
 50
255.000034
 51
344.999997
  0
LINE
  8
型材断面
  6
CONTINUOUS
 10
-17.388985
 20
76.42496
 11
-12.929895
 21
75.230155
  0
LINE
  8
型材断面
  6
CONTINUOUS
 10
-12.088735
 20
78.369415
 11
-12.929895
 21
75.230155
  0
LINE
  8
型材断面
  6
CONTINUOUS
 10
-16.328325
 20
75.364305
 11
-12.399565
 21
74.3116
  0
LINE
  8
型材断面
  6
CONTINUOUS
 10
-11.364285
 20
78.175303
 11
-12.399565
 21
74.3116
  0
LINE
  8
型材断面
  6
CONTINUOUS
 10
-15.63004
 20
72.75827
 11
-16.354485
 21
72.564155
  0
LINE
  8
型材断面
  6
CONTINUOUS
 10
-15.810965
 20
70.53571
 11
-15.08652
 21
70.729825
  0
LINE
  8
型材断面
  6
CONTINUOUS
 10
-15.629855
 20
70.58424
 11
-16.173373
 21
72.612682
  0
LINE
  8
型材断面
  6
CONTINUOUS
 10
-15.448743
 20
70.632768
 11
-15.992263
 21
72.661212
  0
LINE
  8
型材断面
  6
CONTINUOUS
 10
-15.267633
 20
70.681298
 11
-15.81115
 21
72.70974
  0
LINE
  8
型材断面
  6
CONTINUOUS
 10
-15.565088
 20
69.61808
 11
-17.388985
 21
76.42496
  0
LINE
  8
型材断面
  6
CONTINUOUS
 10
-14.840643
 20
69.812195
 11
-15.565088
 21
69.61808
  0
LINE
  8
型材断面
  6
CONTINUOUS
 10
-16.328325
 20
75.364305
 11
-14.840643
 21
69.812195
  0
ENDBLK
  0
BLOCK
  2
*GRP_0006
 70
    65
 10
0.0
 20
0.0
  0
ARC
  8
型材断面
  6
CONTINUOUS
 10
-27.436469
 20
72.387878
 40
0.75
 50
15.0
 51
134.999952
  0
LINE
  8
型材断面
  6
CONTINUOUS
 10
-32.610617
 20
72.870593
 11
-33.140953
 21
72.340263
  0
ARC
  8
型材断面
  6
CONTINUOUS
 10
-30.312522
 20
70.572491
 40
0.75
 50
225.000003
 51
314.999966
  0
LINE
  8
型材断面
  6
CONTINUOUS
 10
-27.04824
 20
73.83677
 11
-30.312522
 21
70.572497
  0
LINE
  8
型材断面
  6
CONTINUOUS
 10
-32.610617
 20
72.870593
 11
-30.312522
 21
70.572497
  0
LINE
  8
型材断面
  6
CONTINUOUS
 10
-27.43647
 20
72.387885
 11
-30.312522
 21
69.511837
  0
LINE
  8
型材断面
  6
CONTINUOUS
 10
-33.140953
 20
72.340263
 11
-30.312522
 21
69.511837
  0
LINE
  8
型材断面
  6
CONTINUOUS
 10
-26.738185
 20
69.781853
 11
-26.013742
 21
69.975965
  0
LINE
  8
型材断面
  6
CONTINUOUS
 10
-25.470222
 20
67.947523
 11
-26.194665
 21
67.753407
  0
LINE
  8
型材断面
  6
CONTINUOUS
 10
-25.651332
 20
67.898992
 11
-26.194852
 21
69.927438
  0
LINE
  8
型材断面
  6
CONTINUOUS
 10
-25.832445
 20
67.850465
 11
-26.375965
 21
69.878908
  0
LINE
  8
型材断面
  6
CONTINUOUS
 10
-26.013555
 20
67.801935
 11
-26.557075
 21
69.83038
  0
LINE
  8
型材断面
  6
CONTINUOUS
 10
-25.224342
 20
67.029892
 11
-27.04824
 21
73.83677
  0
LINE
  8
型材断面
  6
CONTINUOUS
 10
-25.948787
 20
66.835778
 11
-25.224342
 21
67.029892
  0
LINE
  8
型材断面
  6
CONTINUOUS
 10
-27.43647
 20
72.387885
 11
-25.948787
 21
66.835778
  0
ENDBLK
  0
BLOCK
  2
*GRP_0007
 70
    65
 10
0.0
 20
0.0
  0
ARC
  8
型材断面
  6
CONTINUOUS
 10
-15.370971
 20
68.893634
 40
0.75
 50
15.0
 51
105.0
  0
LINE
  8
型材断面
  6
CONTINUOUS
 10
-20.394715
 20
68.323987
 11
-14.840643
 21
69.812195
  0
LINE
  8
型材断面
  6
CONTINUOUS
 10
-20.2006
 20
67.599542
 11
-15.370972
 21
68.893637
  0
ARC
  8
型材断面
  6
CONTINUOUS
 10
-13.87007
 20
66.189971
 40
0.75
 50
195.0
 51
285.0
  0
ARC
  8
型材断面
  6
CONTINUOUS
 10
-13.693295
 20
66.496157
 40
0.25
 50
195.0
 51
285.0
  0
LINE
  8
型材断面
  6
CONTINUOUS
 10
-9.25994
 20
70.623328
 11
-8.535495
 21
70.429212
  0
LINE
  8
型材断面
  6
CONTINUOUS
 10
-9.25994
 20
70.623328
 11
-10.183145
 21
67.177882
  0
LINE
  8
型材断面
  6
CONTINUOUS
 10
-13.628587
 20
66.25468
 11
-10.183145
 21
67.177882
  0
LINE
  8
型材断面
  6
CONTINUOUS
 10
-14.840643
 20
69.812195
 11
-13.934775
 21
66.431458
  0
LINE
  8
型材断面
  6
CONTINUOUS
 10
-15.370972
 20
68.893637
 11
-14.400403
 21
65.271415
  0
ARC
  8
型材断面
  6
CONTINUOUS
 10
-10.183144
 20
67.177882
 40
0.75
 50
285.0
 51
344.999957
  0
LINE
  8
型材断面
  6
CONTINUOUS
 10
-8.535495
 20
70.429212
 11
-9.570773
 21
66.565512
  0
LINE
  8
型材断面
  6
CONTINUOUS
 10
-14.400403
 20
65.271415
 11
-9.570773
 21
66.565512
  0
ARC
  8
型材断面
  6
CONTINUOUS
 10
-25.030228
 20
66.305444
 40
0.75
 50
105.0
 51
195.0
  0
LINE
  8
型材断面
  6
CONTINUOUS
 10
-20.394715
 20
68.323987
 11
-25.948787
 21
66.835778
  0
LINE
  8
型材断面
  6
CONTINUOUS
 10
-20.2006
 20
67.599542
 11
-25.030228
 21
66.305448
  0
ARC
  8
型材断面
  6
CONTINUOUS
 10
-24.978215
 20
63.213553
 40
0.75
 50
285.0
 51
375.0
  0
ARC
  8
型材断面
  6
CONTINUOUS
 10
-25.2844
 20
63.39033
 40
0.25
 50
285.0
 51
375.0
  0
LINE
  8
型材断面
  6
CONTINUOUS
 10
-31.187382
 20
64.747885
 11
-31.717715
 21
64.217555
  0
LINE
  8
型材断面
  6
CONTINUOUS
 10
-31.187382
 20
64.747885
 11
-28.665143
 21
62.225645
  0
LINE
  8
型材断面
  6
CONTINUOUS
 10
-25.219697
 20
63.14885
 11
-28.665143
 21
62.225645
  0
LINE
  8
型材断面
  6
CONTINUOUS
 10
-25.948787
 20
66.835778
 11
-25.04292
 21
63.455038
  0
LINE
  8
型材断面
  6
CONTINUOUS
 10
-25.030228
 20
66.305448
 11
-24.059657
 21
62.683225
  0
ARC
  8
型材断面
  6
CONTINUOUS
 10
-28.665142
 20
62.225645
 40
0.75
 50
225.000043
 51
285.0
  0
LINE
  8
型材断面
  6
CONTINUOUS
 10
-31.717715
 20
64.217555
 11
-28.889287
 21
61.38913
  0
LINE
  8
型材断面
  6
CONTINUOUS
 10
-24.059657
 20
62.683225
 11
-28.889287
 21
61.38913
  0
ENDBLK
  0
BLOCK
  2
*GRP_0008
 70
    65
 10
0.0
 20
0.0
  0
LINE
  8
型材断面
  6
CONTINUOUS
 62
    47
 10
-25.37698
 20
86.918063
 11
-21.271797
 21
88.018043
  0
LINE
  8
型材断面
  6
CONTINUOUS
 62
    47
 10
-25.37698
 20
86.918063
 11
-29.482165
 21
85.81808
  0
LINE
  8
型材断面
  6
CONTINUOUS
 62
    47
 10
-25.571095
 20
87.642507
 11
-30.400725
 21
86.34841
  0
LINE
  8
型材断面
  6
CONTINUOUS
 62
    47
 10
-25.571095
 20
87.642507
 11
-20.74147
 21
88.9366
  0
LINE
  8
型材断面
  6
CONTINUOUS
 62
    47
 10
-26.41628
 20
87.41604
 11
-26.222165
 21
86.691595
  0
LINE
  8
型材断面
  6
CONTINUOUS
 62
    47
 10
-24.725912
 20
87.868973
 11
-24.531797
 21
87.144528
  0
LINE
  8
型材断面
  6
CONTINUOUS
 62
    47
 10
-24.677385
 20
87.687862
 11
-26.36775
 21
87.234928
  0
LINE
  8
型材断面
  6
CONTINUOUS
 62
    47
 10
-24.628855
 20
87.50675
 11
-26.319222
 21
87.053817
  0
LINE
  8
型材断面
  6
CONTINUOUS
 62
    47
 10
-24.580328
 20
87.32564
 11
-26.270693
 21
86.872705
  0
LINE
  8
型材断面
  6
CONTINUOUS
 62
    47
 10
-20.58883
 20
69.048432
 11
-16.483648
 21
70.14841
  0
LINE
  8
型材断面
  6
CONTINUOUS
 62
    47
 10
-20.58883
 20
69.048432
 11
-24.694013
 21
67.948452
  0
LINE
  8
型材断面
  6
CONTINUOUS
 62
    47
 10
-20.394715
 20
68.323987
 11
-25.224342
 21
67.029892
  0
LINE
  8
型材断面
  6
CONTINUOUS
 62
    47
 10
-29.482165
 20
85.81808
 11
-24.694013
 21
67.948452
  0
LINE
  8
型材断面
  6
CONTINUOUS
 62
    47
 10
-21.271797
 20
88.018043
 11
-16.483648
 21
70.14841
  0
LINE
  8
型材断面
  6
CONTINUOUS
 62
    47
 10
-30.400725
 20
86.34841
 11
-25.224342
 21
67.029892
  0
LINE
  8
型材断面
  6
CONTINUOUS
 62
    47
 10
-20.74147
 20
88.9366
 11
-15.565088
 21
69.61808
  0
LINE
  8
型材断面
  6
CONTINUOUS
 62
    47
 10
-16.580705
 20
70.510637
 11
-15.85626
 21
70.70475
  0
LINE
  8
型材断面
  6
CONTINUOUS
 62
    47
 10
-17.033637
 20
72.201008
 11
-16.309195
 21
72.39512
  0
LINE
  8
型材断面
  6
CONTINUOUS
 62
    47
 10
-16.852527
 20
72.249538
 11
-16.399593
 21
70.559165
  0
LINE
  8
型材断面
  6
CONTINUOUS
 62
    47
 10
-16.671415
 20
72.298065
 11
-16.218483
 21
70.607695
  0
LINE
  8
型材断面
  6
CONTINUOUS
 62
    47
 10
-16.490305
 20
72.346595
 11
-16.03737
 21
70.656222
  0
LINE
  8
型材断面
  6
CONTINUOUS
 62
    47
 10
-24.79107
 20
68.310675
 11
-25.515515
 21
68.11656
  0
LINE
  8
型材断面
  6
CONTINUOUS
 62
    47
 10
-25.244005
 20
70.001045
 11
-25.968448
 21
69.806933
  0
LINE
  8
型材断面
  6
CONTINUOUS
 62
    47
 10
-25.425115
 20
69.952515
 11
-24.972182
 21
68.262145
  0
LINE
  8
型材断面
  6
CONTINUOUS
 62
    47
 10
-25.606225
 20
69.90399
 11
-25.153293
 21
68.213617
  0
LINE
  8
型材断面
  6
CONTINUOUS
 62
    47
 10
-25.787338
 20
69.85546
 11
-25.334403
 21
68.16509
  0
LINE
  8
型材断面
  6
CONTINUOUS
 62
    47
 10
-20.394715
 20
68.323987
 11
-15.565088
 21
69.61808
  0
ENDBLK
  0
BLOCK
  2
*GRP_0009
 70
    65
 10
0.0
 20
0.0
  0
INSERT
  2
*GRP_0057
  8
型材断面
  6
CONTINUOUS
 10
0.0
 20
0.0
  0
INSERT
  2
*GRP_0058
  8
型材断面
  6
CONTINUOUS
 10
0.0
 20
0.0
  0
INSERT
  2
*GRP_0059
  8
型材断面
  6
CONTINUOUS
 10
0.0
 20
0.0
  0
INSERT
  2
*GRP_0060
  8
型材断面
  6
CONTINUOUS
 10
0.0
 20
0.0
  0
LINE
  8
型材断面
  6
CONTINUOUS
 10
-118.35064
 20
-6.057632
 11
-118.35064
 21
-9.06286
  0
LINE
  8
型材断面
  6
CONTINUOUS
 10
-118.35064
 20
-6.057632
 11
-118.35064
 21
-3.052405
  0
LINE
  8
型材断面
  6
CONTINUOUS
 10
-119.269163
 20
-6.057632
 11
-119.269163
 21
-2.522067
  0
LINE
  8
型材断面
  6
CONTINUOUS
 10
-119.269163
 20
-6.057632
 11
-119.269163
 21
-9.593195
  0
LINE
  8
型材断面
  6
CONTINUOUS
 10
-119.269163
 20
-5.438908
 11
-118.35064
 21
-5.438908
  0
LINE
  8
型材断面
  6
CONTINUOUS
 10
-119.269163
 20
-6.676355
 11
-118.35064
 21
-6.676355
  0
LINE
  8
型材断面
  6
CONTINUOUS
 10
-119.039538
 20
-6.676355
 11
-119.039538
 21
-5.438908
  0
LINE
  8
型材断面
  6
CONTINUOUS
 10
-118.809903
 20
-6.676355
 11
-118.809903
 21
-5.438908
  0
LINE
  8
型材断面
  6
CONTINUOUS
 10
-118.580275
 20
-6.676355
 11
-118.580275
 21
-5.438908
  0
LINE
  8
型材断面
  6
CONTINUOUS
 10
-95.693675
 20
-6.057632
 11
-95.693675
 21
-9.06286
  0
LINE
  8
型材断面
  6
CONTINUOUS
 10
-95.693675
 20
-6.057632
 11
-95.693675
 21
-3.052405
  0
LINE
  8
型材断面
  6
CONTINUOUS
 10
-94.77515
 20
-6.057632
 11
-94.77515
 21
-2.522067
  0
LINE
  8
型材断面
  6
CONTINUOUS
 10
-118.35064
 20
-3.052405
 11
-95.693675
 21
-3.052405
  0
LINE
  8
型材断面
  6
CONTINUOUS
 10
-118.35064
 20
-9.06286
 11
-95.693675
 21
-9.06286
  0
LINE
  8
型材断面
  6
CONTINUOUS
 10
-119.269163
 20
-2.522067
 11
-94.77515
 21
-2.522067
  0
LINE
  8
型材断面
  6
CONTINUOUS
 10
-119.269163
 20
-9.593195
 11
-94.77515
 21
-9.593195
  0
LINE
  8
型材断面
  6
CONTINUOUS
 10
-96.15294
 20
-9.06286
 11
-96.15294
 21
-9.593195
  0
LINE
  8
型材断面
  6
CONTINUOUS
 10
-98.296167
 20
-9.06286
 11
-98.296167
 21
-9.593195
  0
LINE
  8
型材断面
  6
CONTINUOUS
 10
-98.296167
 20
-9.19544
 11
-96.15294
 21
-9.19544
  0
LINE
  8
型材断面
  6
CONTINUOUS
 10
-98.296167
 20
-9.328025
 11
-96.15294
 21
-9.328025
  0
LINE
  8
型材断面
  6
CONTINUOUS
 10
-98.296167
 20
-9.46061
 11
-96.15294
 21
-9.46061
  0
LINE
  8
型材断面
  6
CONTINUOUS
 10
-96.15294
 20
-3.052405
 11
-96.15294
 21
-2.522067
  0
LINE
  8
型材断面
  6
CONTINUOUS
 10
-98.296167
 20
-3.052405
 11
-98.296167
 21
-2.522067
  0
LINE
  8
型材断面
  6
CONTINUOUS
 10
-98.296167
 20
-2.91982
 11
-96.15294
 21
-2.91982
  0
LINE
  8
型材断面
  6
CONTINUOUS
 10
-98.296167
 20
-2.787237
 11
-96.15294
 21
-2.787237
  0
LINE
  8
型材断面
  6
CONTINUOUS
 10
-98.296167
 20
-2.654652
 11
-96.15294
 21
-2.654652
  0
LINE
  8
型材断面
  6
CONTINUOUS
 10
-94.77515
 20
-6.057632
 11
-94.77515
 21
-9.593195
  0
LINE
  8
ガラス
  6
CONTINUOUS
 10
-95.958685
 20
16.450685
 11
-110.623445
 21
1.785925
  0
LINE
  8
ガラス
  6
CONTINUOUS
 10
-93.55452
 20
14.046522
 11
-108.219278
 21
-0.618238
  0
LINE
  8
ガラス
  6
CONTINUOUS
 10
-108.21921
 20
-0.618305
 11
-110.623445
 21
1.785928
  0
INSERT
  2
*GRP_0061
  8
ゴム等
  6
CONTINUOUS
 10
0.0
 20
0.0
  0
INSERT
  2
*GRP_0062
  8
ゴム等
  6
CONTINUOUS
 10
0.0
 20
0.0
  0
INSERT
  2
*GRP_0063
  8
ゴム等
  6
CONTINUOUS
 10
0.0
 20
0.0
  0
INSERT
  2
*GRP_0064
  8
ゴム等
  6
CONTINUOUS
 10
0.0
 20
0.0
  0
ENDBLK
  0
BLOCK
  2
*GRP_0010
 70
    65
 10
0.0
 20
0.0
  0
INSERT
  2
*GRP_0065
  8
型材断面
  6
CONTINUOUS
 10
0.0
 20
0.0
  0
INSERT
  2
*GRP_0066
  8
型材断面
  6
CONTINUOUS
 10
0.0
 20
0.0
  0
INSERT
  2
*GRP_0067
  8
型材断面
  6
CONTINUOUS
 10
0.0
 20
0.0
  0
INSERT
  2
*GRP_0068
  8
型材断面
  6
CONTINUOUS
 10
0.0
 20
0.0
  0
LINE
  8
型材断面
  6
CONTINUOUS
 10
-118.35064
 20
-43.887813
 11
-118.35064
 21
-40.882585
  0
LINE
  8
型材断面
  6
CONTINUOUS
 10
-118.35064
 20
-43.887813
 11
-118.35064
 21
-46.89304
  0
LINE
  8
型材断面
  6
CONTINUOUS
 10
-119.269163
 20
-43.887813
 11
-119.269163
 21
-47.423377
  0
LINE
  8
型材断面
  6
CONTINUOUS
 10
-119.269163
 20
-43.887813
 11
-119.269163
 21
-40.35225
  0
LINE
  8
型材断面
  6
CONTINUOUS
 10
-119.269163
 20
-44.506538
 11
-118.35064
 21
-44.506538
  0
LINE
  8
型材断面
  6
CONTINUOUS
 10
-119.269163
 20
-43.26909
 11
-118.35064
 21
-43.26909
  0
LINE
  8
型材断面
  6
CONTINUOUS
 10
-119.039538
 20
-43.26909
 11
-119.039538
 21
-44.506538
  0
LINE
  8
型材断面
  6
CONTINUOUS
 10
-118.809903
 20
-43.26909
 11
-118.809903
 21
-44.506538
  0
LINE
  8
型材断面
  6
CONTINUOUS
 10
-118.580275
 20
-43.26909
 11
-118.580275
 21
-44.506538
  0
LINE
  8
型材断面
  6
CONTINUOUS
 10
-95.693675
 20
-43.887813
 11
-95.693675
 21
-40.882585
  0
LINE
  8
型材断面
  6
CONTINUOUS
 10
-95.693675
 20
-43.887813
 11
-95.693675
 21
-46.89304
  0
LINE
  8
型材断面
  6
CONTINUOUS
 10
-94.77515
 20
-43.887813
 11
-94.77515
 21
-47.423377
  0
LINE
  8
型材断面
  6
CONTINUOUS
 10
-118.35064
 20
-46.89304
 11
-95.693675
 21
-46.89304
  0
LINE
  8
型材断面
  6
CONTINUOUS
 10
-118.35064
 20
-40.882585
 11
-95.693675
 21
-40.882585
  0
LINE
  8
型材断面
  6
CONTINUOUS
 10
-119.269163
 20
-47.423377
 11
-94.77515
 21
-47.423377
  0
LINE
  8
型材断面
  6
CONTINUOUS
 10
-119.269163
 20
-40.35225
 11
-94.77515
 21
-40.35225
  0
LINE
  8
型材断面
  6
CONTINUOUS
 10
-96.15294
 20
-40.882585
 11
-96.15294
 21
-40.35225
  0
LINE
  8
型材断面
  6
CONTINUOUS
 10
-98.296167
 20
-40.882585
 11
-98.296167
 21
-40.35225
  0
LINE
  8
型材断面
  6
CONTINUOUS
 10
-98.296167
 20
-40.750005
 11
-96.15294
 21
-40.750005
  0
LINE
  8
型材断面
  6
CONTINUOUS
 10
-98.296167
 20
-40.61742
 11
-96.15294
 21
-40.61742
  0
LINE
  8
型材断面
  6
CONTINUOUS
 10
-98.296167
 20
-40.484835
 11
-96.15294
 21
-40.484835
  0
LINE
  8
型材断面
  6
CONTINUOUS
 10
-96.15294
 20
-46.89304
 11
-96.15294
 21
-47.423377
  0
LINE
  8
型材断面
  6
CONTINUOUS
 10
-98.296167
 20
-46.89304
 11
-98.296167
 21
-47.423377
  0
LINE
  8
型材断面
  6
CONTINUOUS
 10
-98.296167
 20
-47.025625
 11
-96.15294
 21
-47.025625
  0
LINE
  8
型材断面
  6
CONTINUOUS
 10
-98.296167
 20
-47.158208
 11
-96.15294
 21
-47.158208
  0
LINE
  8
型材断面
  6
CONTINUOUS
 10
-98.296167
 20
-47.290793
 11
-96.15294
 21
-47.290793
  0
LINE
  8
型材断面
  6
CONTINUOUS
 10
-94.77515
 20
-43.887813
 11
-94.77515
 21
-40.35225
  0
LINE
  8
ガラス
  6
CONTINUOUS
 10
-95.958685
 20
-66.39613
 11
-110.623445
 21
-51.73137
  0
LINE
  8
ガラス
  6
CONTINUOUS
 10
-93.55452
 20
-63.991968
 11
-108.219278
 21
-49.327207
  0
LINE
  8
ガラス
  6
CONTINUOUS
 10
-108.21921
 20
-49.32714
 11
-110.623445
 21
-51.731372
  0
INSERT
  2
*GRP_0069
  8
ゴム等
  6
CONTINUOUS
 10
0.0
 20
0.0
  0
INSERT
  2
*GRP_0070
  8
ゴム等
  6
CONTINUOUS
 10
0.0
 20
0.0
  0
INSERT
  2
*GRP_0071
  8
ゴム等
  6
CONTINUOUS
 10
0.0
 20
0.0
  0
INSERT
  2
*GRP_0072
  8
ゴム等
  6
CONTINUOUS
 10
0.0
 20
0.0
  0
ENDBLK
  0
BLOCK
  2
*GRP_0011
 70
    65
 10
0.0
 20
0.0
  0
LINE
  8
ゴム等
  6
CONTINUOUS
 10
-17.03507
 20
76.33013
 11
-15.805688
 21
80.918282
  0
LINE
  8
ゴム等
  6
CONTINUOUS
 10
-15.805688
 20
80.918282
 11
-10.976052
 21
79.624193
  0
LINE
  8
ゴム等
  6
CONTINUOUS
 10
-11.364285
 20
78.175303
 11
-12.088728
 21
78.369418
  0
LINE
  8
ゴム等
  6
CONTINUOUS
 10
-12.929888
 20
75.230157
 11
-12.088728
 21
78.369418
  0
LINE
  8
ゴム等
  6
CONTINUOUS
 10
-10.976052
 20
79.624193
 11
-11.364285
 21
78.175303
  0
LINE
  8
ゴム等
  6
CONTINUOUS
 10
-17.03507
 20
76.33013
 11
-12.929888
 21
75.230157
  0
INSERT
  2
*HAT_0001
  8
ゴム等
 10
0.0
 20
0.0
  0
ENDBLK
  0
BLOCK
  2
*GRP_0012
 70
    65
 10
0.0
 20
0.0
  0
LINE
  8
ゴム等
  6
CONTINUOUS
 10
-27.30732
 20
73.57769
 11
-30.666078
 21
76.936453
  0
LINE
  8
ゴム等
  6
CONTINUOUS
 10
-30.666078
 20
76.936453
 11
-34.201615
 21
73.40092
  0
LINE
  8
ゴム等
  6
CONTINUOUS
 10
-33.140953
 20
72.340263
 11
-32.610623
 21
72.870593
  0
LINE
  8
ゴム等
  6
CONTINUOUS
 10
-30.31253
 20
70.57249
 11
-32.610623
 21
72.870593
  0
LINE
  8
ゴム等
  6
CONTINUOUS
 10
-34.201615
 20
73.40092
 11
-33.140953
 21
72.340263
  0
LINE
  8
ゴム等
  6
CONTINUOUS
 10
-27.30732
 20
73.57769
 11
-30.31253
 21
70.57249
  0
INSERT
  2
*HAT_0002
  8
ゴム等
 10
0.0
 20
0.0
  0
ENDBLK
  0
BLOCK
  2
*GRP_0013
 70
    65
 10
0.0
 20
0.0
  0
LINE
  8
ゴム等
  6
CONTINUOUS
 10
-13.066605
 20
90.174763
 11
-9.202898
 21
89.13949
  0
LINE
  8
ゴム等
  6
CONTINUOUS
 10
-9.202898
 20
89.13949
 11
-10.044057
 21
86.00023
  0
LINE
  8
ゴム等
  6
CONTINUOUS
 10
-10.044057
 20
86.00023
 11
-13.90776
 21
87.035503
  0
LINE
  8
ゴム等
  6
CONTINUOUS
 10
-13.066605
 20
90.174763
 11
-13.90776
 21
87.035503
  0
INSERT
  2
*HAT_0003
  8
ゴム等
 10
0.0
 20
0.0
  0
ENDBLK
  0
BLOCK
  2
*GRP_0014
 70
    65
 10
0.0
 20
0.0
  0
LINE
  8
ゴム等
  6
CONTINUOUS
 10
-37.666432
 20
83.583255
 11
-40.494862
 21
80.754835
  0
LINE
  8
ゴム等
  6
CONTINUOUS
 10
-40.494862
 20
80.754835
 11
-38.196767
 21
78.456735
  0
LINE
  8
ゴム等
  6
CONTINUOUS
 10
-38.196767
 20
78.456735
 11
-35.368337
 21
81.285158
  0
LINE
  8
ゴム等
  6
CONTINUOUS
 10
-37.666432
 20
83.583255
 11
-35.368337
 21
81.285158
  0
INSERT
  2
*HAT_0004
  8
ゴム等
 10
0.0
 20
0.0
  0
ENDBLK
  0
BLOCK
  2
*GRP_0015
 70
    65
 10
0.0
 20
0.0
  0
LINE
  8
ボルト／ビス
  6
CONTINUOUS
 10
-14.905347
 20
70.053678
 11
-14.41099
 21
70.23361
  0
ARC
  8
ボルト／ビス
  6
CONTINUOUS
 10
-14.701708
 20
71.032349
 40
0.85
 50
289.999982
 51
374.999993
  0
LINE
  8
ボルト／ビス
  6
CONTINUOUS
 10
-13.880673
 20
71.252345
 11
-14.102578
 21
72.080513
  0
LINE
  8
ボルト／ビス
  6
CONTINUOUS
 10
-15.811215
 20
73.43442
 11
-15.293123
 21
73.525772
  0
ARC
  8
ボルト／ビス
  6
CONTINUOUS
 10
-15.145522
 20
72.688686
 40
0.85
 50
14.999993
 51
100.000004
  0
LINE
  8
ボルト／ビス
  6
CONTINUOUS
 10
-14.324485
 20
72.908683
 11
-14.102578
 21
72.080513
  0
LINE
  8
ボルト／ビス
  6
CONTINUOUS
 10
-13.978325
 20
70.873217
 11
-13.86137
 21
70.904555
  0
LINE
  8
ボルト／ビス
  6
CONTINUOUS
 10
-14.51185
 20
71.608503
 11
-14.602437
 21
71.946575
  0
LINE
  8
ボルト／ビス
  6
CONTINUOUS
 10
-14.146123
 20
71.499443
 11
-13.978325
 21
70.873217
  0
LINE
  8
ボルト／ビス
  6
CONTINUOUS
 10
-14.51185
 20
71.608503
 11
-14.391072
 21
71.640865
  0
ARC
  8
ボルト／ビス
  6
CONTINUOUS
 10
-14.339308
 20
71.44768
 40
0.2
 50
14.999993
 51
104.999993
  0
LINE
  8
ボルト／ビス
  6
CONTINUOUS
 10
-14.59862
 20
73.188192
 11
-14.481665
 21
73.219533
  0
LINE
  8
ボルト／ビス
  6
CONTINUOUS
 10
-14.693025
 20
72.284653
 11
-14.602437
 21
71.946575
  0
LINE
  8
ボルト／ビス
  6
CONTINUOUS
 10
-14.430822
 20
72.56196
 11
-14.59862
 21
73.188192
  0
LINE
  8
ボルト／ビス
  6
CONTINUOUS
 10
-14.693025
 20
72.284653
 11
-14.572245
 21
72.317015
  0
ARC
  8
ボルト／ビス
  6
CONTINUOUS
 10
-14.624009
 20
72.510198
 40
0.2
 50
284.999993
 51
374.999993
  0
LINE
  8
ボルト／ビス
  6
CONTINUOUS
 10
-14.905347
 20
70.053678
 11
-15.811215
 21
73.43442
  0
LINE
  8
ボルト／ビス
  6
CONTINUOUS
 10
-13.15047
 20
72.33563
 11
-20.30889
 21
70.417538
  0
LINE
  8
ボルト／ビス
  6
CONTINUOUS
 10
-17.755757
 20
70.06637
 11
-18.061945
 21
70.243145
  0
LINE
  8
ボルト／ビス
  6
CONTINUOUS
 10
-18.273395
 20
71.998222
 11
-18.450173
 21
71.692035
  0
LINE
  8
ボルト／ビス
  6
CONTINUOUS
 10
-17.755757
 20
70.06637
 11
-18.273395
 21
71.998222
  0
LINE
  8
ボルト／ビス
  6
CONTINUOUS
 10
-18.061945
 20
70.243145
 11
-18.450173
 21
71.692035
  0
LINE
  8
ボルト／ビス
  6
CONTINUOUS
 10
-15.164165
 20
71.019602
 11
-18.061945
 21
70.243145
  0
LINE
  8
ボルト／ビス
  6
CONTINUOUS
 10
-15.552395
 20
72.468492
 11
-18.450173
 21
71.692035
  0
LINE
  8
ボルト／ビス
  6
CONTINUOUS
 10
-15.6171
 20
72.709975
 11
-18.273395
 21
71.998222
  0
LINE
  8
ボルト／ビス
  6
CONTINUOUS
 10
-15.099463
 20
70.778123
 11
-17.755757
 21
70.06637
  0
ENDBLK
  0
BLOCK
  2
*GRP_0016
 70
    65
 10
0.0
 20
0.0
  0
LINE
  8
ボルト／ビス
  6
CONTINUOUS
 10
-26.01349
 20
67.07726
 11
-26.531585
 21
66.985908
  0
ARC
  8
ボルト／ビス
  6
CONTINUOUS
 10
-26.679185
 20
67.822993
 40
0.85
 50
195.000007
 51
280.000018
  0
LINE
  8
ボルト／ビス
  6
CONTINUOUS
 10
-27.500223
 20
67.602997
 11
-27.72213
 21
68.431163
  0
LINE
  8
ボルト／ビス
  6
CONTINUOUS
 10
-26.919358
 20
70.458
 11
-27.413717
 21
70.27807
  0
ARC
  8
ボルト／ビス
  6
CONTINUOUS
 10
-27.122999
 20
69.479331
 40
0.85
 50
109.999996
 51
195.000007
  0
LINE
  8
ボルト／ビス
  6
CONTINUOUS
 10
-27.944038
 20
69.259335
 11
-27.72213
 21
68.431163
  0
LINE
  8
ボルト／ビス
  6
CONTINUOUS
 10
-27.226087
 20
67.323488
 11
-27.34304
 21
67.29215
  0
LINE
  8
ボルト／ビス
  6
CONTINUOUS
 10
-27.13168
 20
68.227028
 11
-27.222267
 21
68.565102
  0
LINE
  8
ボルト／ビス
  6
CONTINUOUS
 10
-27.393883
 20
67.949715
 11
-27.226087
 21
67.323488
  0
LINE
  8
ボルト／ビス
  6
CONTINUOUS
 10
-27.13168
 20
68.227028
 11
-27.252463
 21
68.194665
  0
ARC
  8
ボルト／ビス
  6
CONTINUOUS
 10
-27.200698
 20
68.001481
 40
0.2
 50
105.000007
 51
195.000007
  0
LINE
  8
ボルト／ビス
  6
CONTINUOUS
 10
-27.846385
 20
69.638465
 11
-27.963338
 21
69.607128
  0
LINE
  8
ボルト／ビス
  6
CONTINUOUS
 10
-27.312855
 20
68.903177
 11
-27.222267
 21
68.565102
  0
LINE
  8
ボルト／ビス
  6
CONTINUOUS
 10
-27.678585
 20
69.012233
 11
-27.846385
 21
69.638465
  0
LINE
  8
ボルト／ビス
  6
CONTINUOUS
 10
-27.312855
 20
68.903177
 11
-27.433637
 21
68.870815
  0
ARC
  8
ボルト／ビス
  6
CONTINUOUS
 10
-27.485399
 20
69.063999
 40
0.2
 50
195.000007
 51
285.000007
  0
LINE
  8
ボルト／ビス
  6
CONTINUOUS
 10
-26.01349
 20
67.07726
 11
-26.919358
 21
70.458
  0
LINE
  8
ボルト／ビス
  6
CONTINUOUS
 10
-28.674235
 20
68.176047
 11
-21.515817
 21
70.094145
  0
LINE
  8
ボルト／ビス
  6
CONTINUOUS
 10
-23.55131
 20
68.513458
 11
-23.374535
 21
68.819643
  0
LINE
  8
ボルト／ビス
  6
CONTINUOUS
 10
-24.068948
 20
70.445307
 11
-23.762763
 21
70.26853
  0
LINE
  8
ボルト／ビス
  6
CONTINUOUS
 10
-23.55131
 20
68.513458
 11
-24.068948
 21
70.445307
  0
LINE
  8
ボルト／ビス
  6
CONTINUOUS
 10
-23.374535
 20
68.819643
 11
-23.762763
 21
70.26853
  0
LINE
  8
ボルト／ビス
  6
CONTINUOUS
 10
-26.27231
 20
68.043185
 11
-23.374535
 21
68.819643
  0
LINE
  8
ボルト／ビス
  6
CONTINUOUS
 10
-26.66054
 20
69.492075
 11
-23.762763
 21
70.26853
  0
LINE
  8
ボルト／ビス
  6
CONTINUOUS
 10
-26.725242
 20
69.733555
 11
-24.068948
 21
70.445307
  0
LINE
  8
ボルト／ビス
  6
CONTINUOUS
 10
-26.207605
 20
67.801705
 11
-23.55131
 21
68.513458
  0
ENDBLK
  0
BLOCK
  2
*GRP_0017
 70
    65
 10
0.0
 20
0.0
  0
LINE
  8
ボルト／ビス
  6
CONTINUOUS
 10
-24.07484
 20
88.819882
 11
-24.254773
 21
89.314243
  0
ARC
  8
ボルト／ビス
  6
CONTINUOUS
 10
-25.053511
 20
89.023521
 40
0.85
 50
19.999982
 51
104.999993
  0
LINE
  8
ボルト／ビス
  6
CONTINUOUS
 10
-25.273505
 20
89.84456
 11
-26.101675
 21
89.622655
  0
LINE
  8
ボルト／ビス
  6
CONTINUOUS
 10
-27.45558
 20
87.914018
 11
-27.546935
 21
88.432107
  0
ARC
  8
ボルト／ビス
  6
CONTINUOUS
 10
-26.709849
 20
88.579707
 40
0.85
 50
104.999993
 51
190.000004
  0
LINE
  8
ボルト／ビス
  6
CONTINUOUS
 10
-26.929845
 20
89.400748
 11
-26.101675
 21
89.622655
  0
LINE
  8
ボルト／ビス
  6
CONTINUOUS
 10
-24.89438
 20
89.746905
 11
-24.925715
 21
89.863862
  0
LINE
  8
ボルト／ビス
  6
CONTINUOUS
 10
-25.629662
 20
89.213383
 11
-25.967738
 21
89.122795
  0
LINE
  8
ボルト／ビス
  6
CONTINUOUS
 10
-25.520603
 20
89.57911
 11
-24.89438
 21
89.746905
  0
LINE
  8
ボルト／ビス
  6
CONTINUOUS
 10
-25.629662
 20
89.213383
 11
-25.662025
 21
89.33416
  0
ARC
  8
ボルト／ビス
  6
CONTINUOUS
 10
-25.468843
 20
89.385921
 40
0.2
 50
104.999993
 51
194.999993
  0
LINE
  8
ボルト／ビス
  6
CONTINUOUS
 10
-27.209353
 20
89.12661
 11
-27.240693
 21
89.243568
  0
LINE
  8
ボルト／ビス
  6
CONTINUOUS
 10
-26.305815
 20
89.032207
 11
-25.967738
 21
89.122795
  0
LINE
  8
ボルト／ビス
  6
CONTINUOUS
 10
-26.583122
 20
89.294407
 11
-27.209353
 21
89.12661
  0
LINE
  8
ボルト／ビス
  6
CONTINUOUS
 10
-26.305815
 20
89.032207
 11
-26.338177
 21
89.152988
  0
ARC
  8
ボルト／ビス
  6
CONTINUOUS
 10
-26.531361
 20
89.10122
 40
0.2
 50
14.999993
 51
104.999993
  0
LINE
  8
ボルト／ビス
  6
CONTINUOUS
 10
-24.07484
 20
88.819882
 11
-27.45558
 21
87.914018
  0
LINE
  8
ボルト／ビス
  6
CONTINUOUS
 10
-26.35679
 20
90.574762
 11
-24.4387
 21
83.41634
  0
LINE
  8
ボルト／ビス
  6
CONTINUOUS
 10
-24.087532
 20
85.969475
 11
-24.264307
 21
85.663287
  0
LINE
  8
ボルト／ビス
  6
CONTINUOUS
 10
-26.019385
 20
85.451835
 11
-25.713198
 21
85.275058
  0
LINE
  8
ボルト／ビス
  6
CONTINUOUS
 10
-24.087532
 20
85.969475
 11
-26.019385
 21
85.451835
  0
LINE
  8
ボルト／ビス
  6
CONTINUOUS
 10
-24.264307
 20
85.663287
 11
-25.713198
 21
85.275058
  0
LINE
  8
ボルト／ビス
  6
CONTINUOUS
 10
-25.040765
 20
88.561062
 11
-24.264307
 21
85.663287
  0
LINE
  8
ボルト／ビス
  6
CONTINUOUS
 10
-26.489657
 20
88.172835
 11
-25.713198
 21
85.275058
  0
LINE
  8
ボルト／ビス
  6
CONTINUOUS
 10
-26.731138
 20
88.10813
 11
-26.019385
 21
85.451835
  0
LINE
  8
ボルト／ビス
  6
CONTINUOUS
 10
-24.799285
 20
88.62577
 11
-24.087532
 21
85.969475
  0
ENDBLK
  0
BLOCK
  2
*GRP_0018
 70
    65
 10
0.0
 20
0.0
  0
LINE
  8
ボルト／ビス
  6
CONTINUOUS
 10
76.954172
 20
-12.319492
 11
77.418205
 21
-12.535873
  0
ARC
  8
ボルト／ビス
  6
CONTINUOUS
 10
77.897535
 20
-11.035927
 40
1.574676
 50
197.721967
 51
225.0
  0
ARC
  8
ボルト／ビス
  6
CONTINUOUS
 10
79.52126
 20
-6.350339
 40
6.036034
 50
211.165002
 51
238.834985
  0
LINE
  8
ボルト／ビス
  6
CONTINUOUS
 10
73.552105
 20
-8.91742
 11
73.335722
 21
-8.45339
  0
ARC
  8
ボルト／ビス
  6
CONTINUOUS
 10
74.835673
 20
-7.974064
 40
1.574676
 50
225.0
 51
252.278033
  0
LINE
  8
ボルト／ビス
  6
CONTINUOUS
 10
76.954172
 20
-12.319492
 11
73.552105
 21
-8.91742
  0
LINE
  8
ボルト／ビス
  6
CONTINUOUS
 10
73.335722
 20
-8.45339
 11
74.62611
 21
-7.163
  0
LINE
  8
ボルト／ビス
  6
CONTINUOUS
 10
74.356343
 20
-9.47401
 11
75.646732
 21
-8.18362
  0
LINE
  8
ボルト／ビス
  6
CONTINUOUS
 10
77.418205
 20
-12.535873
 11
78.708592
 21
-11.245482
  0
LINE
  8
ボルト／ビス
  6
CONTINUOUS
 10
76.397582
 20
-11.515255
 11
77.687973
 21
-10.224865
  0
LINE
  8
ボルト／ビス
  6
CONTINUOUS
 10
75.015018
 20
-6.491252
 11
74.48469
 21
-7.02158
  0
LINE
  8
ボルト／ビス
  6
CONTINUOUS
 10
75.041005
 20
-5.880843
 11
74.722808
 21
-6.199038
  0
LINE
  8
ボルト／ビス
  6
CONTINUOUS
 10
79.380345
 20
-10.856575
 11
78.850015
 21
-11.386902
  0
LINE
  8
ボルト／ビス
  6
CONTINUOUS
 10
79.990755
 20
-10.830588
 11
79.672555
 21
-11.148785
  0
LINE
  8
ボルト／ビス
  6
CONTINUOUS
 10
74.722808
 20
-6.199038
 11
79.672555
 21
-11.148785
  0
LINE
  8
ボルト／ビス
  6
CONTINUOUS
 10
75.041005
 20
-5.880843
 11
79.990755
 21
-10.830588
  0
LINE
  8
ボルト／ビス
  6
CONTINUOUS
 10
74.48469
 20
-7.02158
 11
78.850015
 21
-11.386902
  0
LINE
  8
ボルト／ビス
  6
CONTINUOUS
 10
77.19768
 20
-8.67391
 11
76.66735
 21
-9.204242
  0
LINE
  8
ボルト／ビス
  6
CONTINUOUS
 10
73.48537
 20
-12.386222
 11
85.506183
 21
-0.365405
  0
LINE
  8
ボルト／ビス
  6
CONTINUOUS
 10
82.324202
 20
-1.426068
 11
82.92525
 21
-1.320003
  0
LINE
  8
ボルト／ビス
  6
CONTINUOUS
 10
84.445525
 20
-3.54739
 11
84.551595
 21
-2.946347
  0
LINE
  8
ボルト／ビス
  6
CONTINUOUS
 10
84.445525
 20
-3.54739
 11
82.324202
 21
-1.426068
  0
LINE
  8
ボルト／ビス
  6
CONTINUOUS
 10
84.551595
 20
-2.946347
 11
82.92525
 21
-1.320003
  0
LINE
  8
ボルト／ビス
  6
CONTINUOUS
 10
76.70271
 20
-7.542543
 11
82.92525
 21
-1.320003
  0
LINE
  8
ボルト／ビス
  6
CONTINUOUS
 10
78.32905
 20
-9.168887
 11
84.551595
 21
-2.946347
  0
LINE
  8
ボルト／ビス
  6
CONTINUOUS
 10
76.455218
 20
-7.295055
 11
82.324202
 21
-1.426068
  0
LINE
  8
ボルト／ビス
  6
CONTINUOUS
 10
78.57654
 20
-9.416373
 11
84.445525
 21
-3.54739
  0
ENDBLK
  0
BLOCK
  2
*GRP_0019
 70
    65
 10
0.0
 20
0.0
  0
LINE
  8
ボルト／ビス
  6
CONTINUOUS
 10
82.75245
 20
-6.52121
 11
82.968832
 21
-6.985243
  0
ARC
  8
ボルト／ビス
  6
CONTINUOUS
 10
81.468883
 20
-7.464575
 40
1.574676
 50
45.0
 51
72.278033
  0
ARC
  8
ボルト／ビス
  6
CONTINUOUS
 10
76.783296
 20
-9.0883
 40
6.036034
 50
31.165015
 51
58.834998
  0
LINE
  8
ボルト／ビス
  6
CONTINUOUS
 10
79.350377
 20
-3.11914
 11
78.886345
 21
-2.90276
  0
ARC
  8
ボルト／ビス
  6
CONTINUOUS
 10
78.407021
 20
-4.402713
 40
1.574676
 50
17.721967
 51
45.0
  0
LINE
  8
ボルト／ビス
  6
CONTINUOUS
 10
82.75245
 20
-6.52121
 11
79.350377
 21
-3.11914
  0
LINE
  8
ボルト／ビス
  6
CONTINUOUS
 10
78.886345
 20
-2.90276
 11
77.59596
 21
-4.19315
  0
LINE
  8
ボルト／ビス
  6
CONTINUOUS
 10
79.906968
 20
-3.92338
 11
78.616577
 21
-5.21377
  0
LINE
  8
ボルト／ビス
  6
CONTINUOUS
 10
82.968832
 20
-6.985243
 11
81.678442
 21
-8.275633
  0
LINE
  8
ボルト／ビス
  6
CONTINUOUS
 10
81.94821
 20
-5.964625
 11
80.657822
 21
-7.255015
  0
LINE
  8
ボルト／ビス
  6
CONTINUOUS
 10
77.59596
 20
-4.19315
 11
81.678442
 21
-8.275633
  0
ENDBLK
  0
BLOCK
  2
*GRP_0020
 70
    65
 10
0.0
 20
0.0
  0
LINE
  8
ボルト／ビス
  6
CONTINUOUS
 10
44.843563
 20
-12.319492
 11
44.37953
 21
-12.535873
  0
ARC
  8
ボルト／ビス
  6
CONTINUOUS
 10
43.9002
 20
-11.035927
 40
1.574676
 50
315.0
 51
342.278033
  0
ARC
  8
ボルト／ビス
  6
CONTINUOUS
 10
42.276475
 20
-6.350339
 40
6.036034
 50
301.165015
 51
328.834998
  0
LINE
  8
ボルト／ビス
  6
CONTINUOUS
 10
48.24563
 20
-8.91742
 11
48.462012
 21
-8.45339
  0
ARC
  8
ボルト／ビス
  6
CONTINUOUS
 10
46.962062
 20
-7.974064
 40
1.574676
 50
287.721967
 51
315.0
  0
LINE
  8
ボルト／ビス
  6
CONTINUOUS
 10
44.843563
 20
-12.319492
 11
48.24563
 21
-8.91742
  0
LINE
  8
ボルト／ビス
  6
CONTINUOUS
 10
48.462012
 20
-8.45339
 11
47.171625
 21
-7.163
  0
LINE
  8
ボルト／ビス
  6
CONTINUOUS
 10
47.441393
 20
-9.47401
 11
46.151002
 21
-8.18362
  0
LINE
  8
ボルト／ビス
  6
CONTINUOUS
 10
44.37953
 20
-12.535873
 11
43.089142
 21
-11.245482
  0
LINE
  8
ボルト／ビス
  6
CONTINUOUS
 10
45.400152
 20
-11.515255
 11
44.109763
 21
-10.224865
  0
LINE
  8
ボルト／ビス
  6
CONTINUOUS
 10
46.782718
 20
-6.491252
 11
47.313045
 21
-7.02158
  0
LINE
  8
ボルト／ビス
  6
CONTINUOUS
 10
46.75673
 20
-5.880843
 11
47.074928
 21
-6.199038
  0
LINE
  8
ボルト／ビス
  6
CONTINUOUS
 10
42.41739
 20
-10.856575
 11
42.94772
 21
-11.386902
  0
LINE
  8
ボルト／ビス
  6
CONTINUOUS
 10
41.80698
 20
-10.830588
 11
42.12518
 21
-11.148785
  0
LINE
  8
ボルト／ビス
  6
CONTINUOUS
 10
47.074928
 20
-6.199038
 11
42.12518
 21
-11.148785
  0
LINE
  8
ボルト／ビス
  6
CONTINUOUS
 10
46.75673
 20
-5.880843
 11
41.80698
 21
-10.830588
  0
LINE
  8
ボルト／ビス
  6
CONTINUOUS
 10
47.313045
 20
-7.02158
 11
42.94772
 21
-11.386902
  0
LINE
  8
ボルト／ビス
  6
CONTINUOUS
 10
44.600055
 20
-8.67391
 11
45.130385
 21
-9.204242
  0
LINE
  8
ボルト／ビス
  6
CONTINUOUS
 10
48.312365
 20
-12.386222
 11
36.291553
 21
-0.365405
  0
LINE
  8
ボルト／ビス
  6
CONTINUOUS
 10
39.473532
 20
-1.426068
 11
38.872485
 21
-1.320003
  0
LINE
  8
ボルト／ビス
  6
CONTINUOUS
 10
37.35221
 20
-3.54739
 11
37.24614
 21
-2.946347
  0
LINE
  8
ボルト／ビス
  6
CONTINUOUS
 10
37.35221
 20
-3.54739
 11
39.473532
 21
-1.426068
  0
LINE
  8
ボルト／ビス
  6
CONTINUOUS
 10
37.24614
 20
-2.946347
 11
38.872485
 21
-1.320003
  0
LINE
  8
ボルト／ビス
  6
CONTINUOUS
 10
45.095025
 20
-7.542543
 11
38.872485
 21
-1.320003
  0
LINE
  8
ボルト／ビス
  6
CONTINUOUS
 10
43.468685
 20
-9.168887
 11
37.24614
 21
-2.946347
  0
LINE
  8
ボルト／ビス
  6
CONTINUOUS
 10
45.342518
 20
-7.295055
 11
39.473532
 21
-1.426068
  0
LINE
  8
ボルト／ビス
  6
CONTINUOUS
 10
43.221195
 20
-9.416373
 11
37.35221
 21
-3.54739
  0
ENDBLK
  0
BLOCK
  2
*GRP_0021
 70
    65
 10
0.0
 20
0.0
  0
LINE
  8
ボルト／ビス
  6
CONTINUOUS
 10
39.045285
 20
-6.52121
 11
38.828903
 21
-6.985243
  0
ARC
  8
ボルト／ビス
  6
CONTINUOUS
 10
40.328852
 20
-7.464575
 40
1.574676
 50
107.721967
 51
135.0
  0
ARC
  8
ボルト／ビス
  6
CONTINUOUS
 10
45.014439
 20
-9.0883
 40
6.036034
 50
121.165002
 51
148.834985
  0
LINE
  8
ボルト／ビス
  6
CONTINUOUS
 10
42.447357
 20
-3.11914
 11
42.91139
 21
-2.90276
  0
ARC
  8
ボルト／ビス
  6
CONTINUOUS
 10
43.390714
 20
-4.402713
 40
1.574676
 50
135.0
 51
162.278033
  0
LINE
  8
ボルト／ビス
  6
CONTINUOUS
 10
39.045285
 20
-6.52121
 11
42.447357
 21
-3.11914
  0
LINE
  8
ボルト／ビス
  6
CONTINUOUS
 10
42.91139
 20
-2.90276
 11
44.201775
 21
-4.19315
  0
LINE
  8
ボルト／ビス
  6
CONTINUOUS
 10
41.890768
 20
-3.92338
 11
43.181157
 21
-5.21377
  0
LINE
  8
ボルト／ビス
  6
CONTINUOUS
 10
38.828903
 20
-6.985243
 11
40.119292
 21
-8.275633
  0
LINE
  8
ボルト／ビス
  6
CONTINUOUS
 10
39.849525
 20
-5.964625
 11
41.139912
 21
-7.255015
  0
LINE
  8
ボルト／ビス
  6
CONTINUOUS
 10
44.201775
 20
-4.19315
 11
40.119292
 21
-8.275633
  0
ENDBLK
  0
BLOCK
  2
*GRP_0022
 70
    65
 10
0.0
 20
0.0
  0
LINE
  8
ボルト／ビス
  6
CONTINUOUS
 10
44.843563
 20
-37.625953
 11
44.37953
 21
-37.409573
  0
ARC
  8
ボルト／ビス
  6
CONTINUOUS
 10
43.9002
 20
-38.909522
 40
1.574676
 50
17.721967
 51
45.0
  0
ARC
  8
ボルト／ビス
  6
CONTINUOUS
 10
42.276475
 20
-43.59511
 40
6.036034
 50
31.165002
 51
58.834985
  0
LINE
  8
ボルト／ビス
  6
CONTINUOUS
 10
48.24563
 20
-41.028025
 11
48.462012
 21
-41.492055
  0
ARC
  8
ボルト／ビス
  6
CONTINUOUS
 10
46.962062
 20
-41.971385
 40
1.574676
 50
45.0
 51
72.278033
  0
LINE
  8
ボルト／ビス
  6
CONTINUOUS
 10
44.843563
 20
-37.625953
 11
48.24563
 21
-41.028025
  0
LINE
  8
ボルト／ビス
  6
CONTINUOUS
 10
48.462012
 20
-41.492055
 11
47.171625
 21
-42.782445
  0
LINE
  8
ボルト／ビス
  6
CONTINUOUS
 10
47.441393
 20
-40.471435
 11
46.151002
 21
-41.761825
  0
LINE
  8
ボルト／ビス
  6
CONTINUOUS
 10
44.37953
 20
-37.409573
 11
43.089142
 21
-38.699963
  0
LINE
  8
ボルト／ビス
  6
CONTINUOUS
 10
45.400152
 20
-38.43019
 11
44.109763
 21
-39.72058
  0
LINE
  8
ボルト／ビス
  6
CONTINUOUS
 10
46.782718
 20
-43.454193
 11
47.313045
 21
-42.923865
  0
LINE
  8
ボルト／ビス
  6
CONTINUOUS
 10
46.75673
 20
-44.064602
 11
47.074928
 21
-43.746407
  0
LINE
  8
ボルト／ビス
  6
CONTINUOUS
 10
42.41739
 20
-39.08887
 11
42.94772
 21
-38.558543
  0
LINE
  8
ボルト／ビス
  6
CONTINUOUS
 10
41.80698
 20
-39.114858
 11
42.12518
 21
-38.79666
  0
LINE
  8
ボルト／ビス
  6
CONTINUOUS
 10
47.074928
 20
-43.746407
 11
42.12518
 21
-38.79666
  0
LINE
  8
ボルト／ビス
  6
CONTINUOUS
 10
46.75673
 20
-44.064602
 11
41.80698
 21
-39.114858
  0
LINE
  8
ボルト／ビス
  6
CONTINUOUS
 10
47.313045
 20
-42.923865
 11
42.94772
 21
-38.558543
  0
LINE
  8
ボルト／ビス
  6
CONTINUOUS
 10
44.600055
 20
-41.271535
 11
45.130385
 21
-40.741202
  0
LINE
  8
ボルト／ビス
  6
CONTINUOUS
 10
48.312365
 20
-37.559223
 11
36.291553
 21
-49.58004
  0
LINE
  8
ボルト／ビス
  6
CONTINUOUS
 10
39.473532
 20
-48.519377
 11
38.872485
 21
-48.625443
  0
LINE
  8
ボルト／ビス
  6
CONTINUOUS
 10
37.35221
 20
-46.398055
 11
37.24614
 21
-46.999097
  0
LINE
  8
ボルト／ビス
  6
CONTINUOUS
 10
37.35221
 20
-46.398055
 11
39.473532
 21
-48.519377
  0
LINE
  8
ボルト／ビス
  6
CONTINUOUS
 10
37.24614
 20
-46.999097
 11
38.872485
 21
-48.625443
  0
LINE
  8
ボルト／ビス
  6
CONTINUOUS
 10
45.095025
 20
-42.402902
 11
38.872485
 21
-48.625443
  0
LINE
  8
ボルト／ビス
  6
CONTINUOUS
 10
43.468685
 20
-40.776558
 11
37.24614
 21
-46.999097
  0
LINE
  8
ボルト／ビス
  6
CONTINUOUS
 10
45.342518
 20
-42.65039
 11
39.473532
 21
-48.519377
  0
LINE
  8
ボルト／ビス
  6
CONTINUOUS
 10
43.221195
 20
-40.529072
 11
37.35221
 21
-46.398055
  0
ENDBLK
  0
BLOCK
  2
*GRP_0023
 70
    65
 10
0.0
 20
0.0
  0
LINE
  8
ボルト／ビス
  6
CONTINUOUS
 10
39.045285
 20
-43.424235
 11
38.828903
 21
-42.960203
  0
ARC
  8
ボルト／ビス
  6
CONTINUOUS
 10
40.328852
 20
-42.480874
 40
1.574676
 50
225.0
 51
252.278033
  0
ARC
  8
ボルト／ビス
  6
CONTINUOUS
 10
45.014439
 20
-40.857149
 40
6.036034
 50
211.165015
 51
238.834998
  0
LINE
  8
ボルト／ビス
  6
CONTINUOUS
 10
42.447357
 20
-46.826305
 11
42.91139
 21
-47.042685
  0
ARC
  8
ボルト／ビス
  6
CONTINUOUS
 10
43.390714
 20
-45.542736
 40
1.574676
 50
197.721967
 51
225.0
  0
LINE
  8
ボルト／ビス
  6
CONTINUOUS
 10
39.045285
 20
-43.424235
 11
42.447357
 21
-46.826305
  0
LINE
  8
ボルト／ビス
  6
CONTINUOUS
 10
42.91139
 20
-47.042685
 11
44.201775
 21
-45.752295
  0
LINE
  8
ボルト／ビス
  6
CONTINUOUS
 10
41.890768
 20
-46.022065
 11
43.181157
 21
-44.731675
  0
LINE
  8
ボルト／ビス
  6
CONTINUOUS
 10
38.828903
 20
-42.960203
 11
40.119292
 21
-41.669812
  0
LINE
  8
ボルト／ビス
  6
CONTINUOUS
 10
39.849525
 20
-43.98082
 11
41.139912
 21
-42.69043
  0
LINE
  8
ボルト／ビス
  6
CONTINUOUS
 10
44.201775
 20
-45.752295
 11
40.119292
 21
-41.669812
  0
ENDBLK
  0
BLOCK
  2
*GRP_0024
 70
    65
 10
0.0
 20
0.0
  0
LINE
  8
ボルト／ビス
  6
CONTINUOUS
 10
76.954172
 20
-37.625953
 11
77.418205
 21
-37.409573
  0
ARC
  8
ボルト／ビス
  6
CONTINUOUS
 10
77.897535
 20
-38.909522
 40
1.574676
 50
135.0
 51
162.278033
  0
ARC
  8
ボルト／ビス
  6
CONTINUOUS
 10
79.52126
 20
-43.59511
 40
6.036034
 50
121.165015
 51
148.834998
  0
LINE
  8
ボルト／ビス
  6
CONTINUOUS
 10
73.552105
 20
-41.028025
 11
73.335722
 21
-41.492055
  0
ARC
  8
ボルト／ビス
  6
CONTINUOUS
 10
74.835673
 20
-41.971385
 40
1.574676
 50
107.721967
 51
135.0
  0
LINE
  8
ボルト／ビス
  6
CONTINUOUS
 10
76.954172
 20
-37.625953
 11
73.552105
 21
-41.028025
  0
LINE
  8
ボルト／ビス
  6
CONTINUOUS
 10
73.335722
 20
-41.492055
 11
74.62611
 21
-42.782445
  0
LINE
  8
ボルト／ビス
  6
CONTINUOUS
 10
74.356343
 20
-40.471435
 11
75.646732
 21
-41.761825
  0
LINE
  8
ボルト／ビス
  6
CONTINUOUS
 10
77.418205
 20
-37.409573
 11
78.708592
 21
-38.699963
  0
LINE
  8
ボルト／ビス
  6
CONTINUOUS
 10
76.397582
 20
-38.43019
 11
77.687973
 21
-39.72058
  0
LINE
  8
ボルト／ビス
  6
CONTINUOUS
 10
75.015018
 20
-43.454193
 11
74.48469
 21
-42.923865
  0
LINE
  8
ボルト／ビス
  6
CONTINUOUS
 10
75.041005
 20
-44.064602
 11
74.722808
 21
-43.746407
  0
LINE
  8
ボルト／ビス
  6
CONTINUOUS
 10
79.380345
 20
-39.08887
 11
78.850015
 21
-38.558543
  0
LINE
  8
ボルト／ビス
  6
CONTINUOUS
 10
79.990755
 20
-39.114858
 11
79.672555
 21
-38.79666
  0
LINE
  8
ボルト／ビス
  6
CONTINUOUS
 10
74.722808
 20
-43.746407
 11
79.672555
 21
-38.79666
  0
LINE
  8
ボルト／ビス
  6
CONTINUOUS
 10
75.041005
 20
-44.064602
 11
79.990755
 21
-39.114858
  0
LINE
  8
ボルト／ビス
  6
CONTINUOUS
 10
74.48469
 20
-42.923865
 11
78.850015
 21
-38.558543
  0
LINE
  8
ボルト／ビス
  6
CONTINUOUS
 10
77.19768
 20
-41.271535
 11
76.66735
 21
-40.741202
  0
LINE
  8
ボルト／ビス
  6
CONTINUOUS
 10
73.48537
 20
-37.559223
 11
85.506183
 21
-49.58004
  0
LINE
  8
ボルト／ビス
  6
CONTINUOUS
 10
82.324202
 20
-48.519377
 11
82.92525
 21
-48.625443
  0
LINE
  8
ボルト／ビス
  6
CONTINUOUS
 10
84.445525
 20
-46.398055
 11
84.551595
 21
-46.999097
  0
LINE
  8
ボルト／ビス
  6
CONTINUOUS
 10
84.445525
 20
-46.398055
 11
82.324202
 21
-48.519377
  0
LINE
  8
ボルト／ビス
  6
CONTINUOUS
 10
84.551595
 20
-46.999097
 11
82.92525
 21
-48.625443
  0
LINE
  8
ボルト／ビス
  6
CONTINUOUS
 10
76.70271
 20
-42.402902
 11
82.92525
 21
-48.625443
  0
LINE
  8
ボルト／ビス
  6
CONTINUOUS
 10
78.32905
 20
-40.776558
 11
84.551595
 21
-46.999097
  0
LINE
  8
ボルト／ビス
  6
CONTINUOUS
 10
76.455218
 20
-42.65039
 11
82.324202
 21
-48.519377
  0
LINE
  8
ボルト／ビス
  6
CONTINUOUS
 10
78.57654
 20
-40.529072
 11
84.445525
 21
-46.398055
  0
ENDBLK
  0
BLOCK
  2
*GRP_0025
 70
    65
 10
0.0
 20
0.0
  0
LINE
  8
ボルト／ビス
  6
CONTINUOUS
 10
82.75245
 20
-43.424235
 11
82.968832
 21
-42.960203
  0
ARC
  8
ボルト／ビス
  6
CONTINUOUS
 10
81.468883
 20
-42.480874
 40
1.574676
 50
287.721967
 51
315.0
  0
ARC
  8
ボルト／ビス
  6
CONTINUOUS
 10
76.783296
 20
-40.857149
 40
6.036034
 50
301.165002
 51
328.834985
  0
LINE
  8
ボルト／ビス
  6
CONTINUOUS
 10
79.350377
 20
-46.826305
 11
78.886345
 21
-47.042685
  0
ARC
  8
ボルト／ビス
  6
CONTINUOUS
 10
78.407021
 20
-45.542736
 40
1.574676
 50
315.0
 51
342.278033
  0
LINE
  8
ボルト／ビス
  6
CONTINUOUS
 10
82.75245
 20
-43.424235
 11
79.350377
 21
-46.826305
  0
LINE
  8
ボルト／ビス
  6
CONTINUOUS
 10
78.886345
 20
-47.042685
 11
77.59596
 21
-45.752295
  0
LINE
  8
ボルト／ビス
  6
CONTINUOUS
 10
79.906968
 20
-46.022065
 11
78.616577
 21
-44.731675
  0
LINE
  8
ボルト／ビス
  6
CONTINUOUS
 10
82.968832
 20
-42.960203
 11
81.678442
 21
-41.669812
  0
LINE
  8
ボルト／ビス
  6
CONTINUOUS
 10
81.94821
 20
-43.98082
 11
80.657822
 21
-42.69043
  0
LINE
  8
ボルト／ビス
  6
CONTINUOUS
 10
77.59596
 20
-45.752295
 11
81.678442
 21
-41.669812
  0
ENDBLK
  0
BLOCK
  2
*GRP_0026
 70
    65
 10
0.0
 20
0.0
  0
INSERT
  2
*GRP_0073
  8
補助線
  6
CONTINUOUS
 10
0.0
 20
0.0
  0
LINE
  8
ボルト／ビス
  6
CONTINUOUS
 10
33.263378
 20
-24.972722
 11
34.706753
 21
-27.472722
  0
LINE
  8
ボルト／ビス
  6
CONTINUOUS
 10
33.263378
 20
-24.972722
 11
34.706753
 21
-22.47272
  0
LINE
  8
ボルト／ビス
  6
CONTINUOUS
 10
37.593503
 20
-27.472722
 11
39.036882
 21
-24.972722
  0
LINE
  8
ボルト／ビス
  6
CONTINUOUS
 10
37.593503
 20
-22.47272
 11
39.036882
 21
-24.972722
  0
CIRCLE
  8
ボルト／ビス
  6
CONTINUOUS
 10
36.150128
 20
-24.972722
 40
2.500002
  0
LINE
  8
ボルト／ビス
  6
CONTINUOUS
 10
34.706753
 20
-22.47272
 11
37.593503
 21
-22.47272
  0
LINE
  8
ボルト／ビス
  6
CONTINUOUS
 10
37.593503
 20
-27.472722
 11
34.706753
 21
-27.472722
  0
ENDBLK
  0
BLOCK
  2
*GRP_0027
 70
    65
 10
0.0
 20
0.0
  0
INSERT
  2
*GRP_0074
  8
補助線
  6
CONTINUOUS
 10
0.0
 20
0.0
  0
LINE
  8
ボルト／ビス
  6
CONTINUOUS
 10
58.012118
 20
-0.223982
 11
59.455493
 21
-2.723982
  0
LINE
  8
ボルト／ビス
  6
CONTINUOUS
 10
58.012118
 20
-0.223982
 11
59.455493
 21
2.27602
  0
LINE
  8
ボルト／ビス
  6
CONTINUOUS
 10
62.342243
 20
-2.723982
 11
63.785622
 21
-0.223982
  0
LINE
  8
ボルト／ビス
  6
CONTINUOUS
 10
62.342243
 20
2.27602
 11
63.785622
 21
-0.223982
  0
CIRCLE
  8
ボルト／ビス
  6
CONTINUOUS
 10
60.898868
 20
-0.223982
 40
2.500002
  0
LINE
  8
ボルト／ビス
  6
CONTINUOUS
 10
59.455493
 20
2.27602
 11
62.342243
 21
2.27602
  0
LINE
  8
ボルト／ビス
  6
CONTINUOUS
 10
62.342243
 20
-2.723982
 11
59.455493
 21
-2.723982
  0
ENDBLK
  0
BLOCK
  2
*GRP_0028
 70
    65
 10
0.0
 20
0.0
  0
INSERT
  2
*GRP_0075
  8
補助線
  6
CONTINUOUS
 10
0.0
 20
0.0
  0
LINE
  8
ボルト／ビス
  6
CONTINUOUS
 10
82.760858
 20
-24.972722
 11
84.204233
 21
-27.472722
  0
LINE
  8
ボルト／ビス
  6
CONTINUOUS
 10
82.760858
 20
-24.972722
 11
84.204233
 21
-22.47272
  0
LINE
  8
ボルト／ビス
  6
CONTINUOUS
 10
87.090983
 20
-27.472722
 11
88.534362
 21
-24.972722
  0
LINE
  8
ボルト／ビス
  6
CONTINUOUS
 10
87.090983
 20
-22.47272
 11
88.534362
 21
-24.972722
  0
CIRCLE
  8
ボルト／ビス
  6
CONTINUOUS
 10
85.647608
 20
-24.972722
 40
2.500002
  0
LINE
  8
ボルト／ビス
  6
CONTINUOUS
 10
84.204233
 20
-22.47272
 11
87.090983
 21
-22.47272
  0
LINE
  8
ボルト／ビス
  6
CONTINUOUS
 10
87.090983
 20
-27.472722
 11
84.204233
 21
-27.472722
  0
ENDBLK
  0
BLOCK
  2
*GRP_0029
 70
    65
 10
0.0
 20
0.0
  0
INSERT
  2
*GRP_0076
  8
補助線
  6
CONTINUOUS
 10
0.0
 20
0.0
  0
LINE
  8
ボルト／ビス
  6
CONTINUOUS
 10
58.012118
 20
-49.721462
 11
59.455493
 21
-52.221462
  0
LINE
  8
ボルト／ビス
  6
CONTINUOUS
 10
58.012118
 20
-49.721462
 11
59.455493
 21
-47.22146
  0
LINE
  8
ボルト／ビス
  6
CONTINUOUS
 10
62.342243
 20
-52.221462
 11
63.785622
 21
-49.721462
  0
LINE
  8
ボルト／ビス
  6
CONTINUOUS
 10
62.342243
 20
-47.22146
 11
63.785622
 21
-49.721462
  0
CIRCLE
  8
ボルト／ビス
  6
CONTINUOUS
 10
60.898868
 20
-49.721462
 40
2.500002
  0
LINE
  8
ボルト／ビス
  6
CONTINUOUS
 10
59.455493
 20
-47.22146
 11
62.342243
 21
-47.22146
  0
LINE
  8
ボルト／ビス
  6
CONTINUOUS
 10
62.342243
 20
-52.221462
 11
59.455493
 21
-52.221462
  0
ENDBLK
  0
BLOCK
  2
*DIM_0030
 70
    65
 10
0.0
 20
0.0
  0
LINE
  8
寸法
  6
BYBLOCK
 62
     0
 10
62.31308
 20
-68.813343
 11
105.338835
 21
-111.8391
  0
LINE
  8
寸法
  6
BYBLOCK
 62
     0
 10
104.73949
 20
-26.386935
 11
147.765245
 21
-69.412692
  0
LINE
  8
寸法
  6
BYBLOCK
 62
     0
 10
105.338835
 20
-111.8391
 11
147.765245
 21
-69.412692
  0
POINT
  8
寸法
 62
     0
 10
105.338835
 20
-111.8391
  0
POINT
  8
寸法
 62
     0
 10
147.765245
 20
-69.412692
  0
TEXT
  7
TextStyle03
  8
寸法
  6
CONTINUOUS
 62
     0
 10
124.247183
 20
-92.377691
  1
120
 40
3.5
 50
45.0
 72
     5
 11
128.277691
 21
-88.347183
  0
ENDBLK
  0
BLOCK
  2
*DIM_0031
 70
    65
 10
0.0
 20
0.0
  0
LINE
  8
寸法
  6
BYBLOCK
 62
     0
 10
100.823148
 20
-107.323412
 11
101.48512
 21
-107.985385
  0
LINE
  8
寸法
  6
BYBLOCK
 62
     0
 10
62.31308
 20
-61.742275
 11
105.020652
 21
-104.449852
  0
LINE
  8
寸法
  6
BYBLOCK
 62
     0
 10
101.48512
 20
-107.985385
 11
105.020652
 21
-104.449852
  0
POINT
  8
寸法
 62
     0
 10
101.48512
 20
-107.985385
  0
POINT
  8
寸法
 62
     0
 10
105.020652
 20
-104.449852
  0
TEXT
  7
TextStyle03
  8
寸法
  6
CONTINUOUS
 62
     0
 10
101.67045
 20
-107.279423
  1
10
 40
3.5
 50
45.0
 72
     5
 11
104.304423
 21
-104.64545
  0
ENDBLK
  0
BLOCK
  2
*DIM_0032
 70
    65
 10
0.0
 20
0.0
  0
LINE
  8
寸法
  6
BYBLOCK
 62
     0
 10
96.60776
 20
-25.326272
 11
140.375995
 21
-69.094513
  0
LINE
  8
寸法
  6
BYBLOCK
 62
     0
 10
105.020652
 20
-104.449852
 11
140.375995
 21
-69.094513
  0
POINT
  8
寸法
 62
     0
 10
140.375995
 20
-69.094513
  0
TEXT
  7
TextStyle03
  8
寸法
  6
CONTINUOUS
 62
     0
 10
120.397183
 20
-88.527691
  1
100
 40
3.5
 50
45.0
 72
     5
 11
124.427691
 21
-84.497183
  0
ENDBLK
  0
BLOCK
  2
*DIM_0033
 70
    65
 10
0.0
 20
0.0
  0
LINE
  8
寸法
  6
BYBLOCK
 62
     0
 10
104.73949
 20
-26.386935
 11
143.91153
 21
-65.558978
  0
LINE
  8
寸法
  6
BYBLOCK
 62
     0
 10
140.375995
 20
-69.094513
 11
143.91153
 21
-65.558978
  0
POINT
  8
寸法
 62
     0
 10
143.91153
 20
-65.558978
  0
TEXT
  7
TextStyle03
  8
寸法
  6
CONTINUOUS
 62
     0
 10
140.54545
 20
-68.379423
  1
10
 40
3.5
 50
45.0
 72
     5
 11
143.179423
 21
-65.74545
  0
ENDBLK
  0
BLOCK
  2
*DIM_0034
 70
    65
 10
0.0
 20
0.0
  0
LINE
  8
寸法
  6
BYBLOCK
 62
     0
 10
101.002025
 20
-100.431225
 11
100.590798
 21
-100.019998
  0
LINE
  8
寸法
  6
BYBLOCK
 62
     0
 10
84.233395
 20
-48.307245
 11
118.268472
 21
-82.342325
  0
LINE
  8
寸法
  6
BYBLOCK
 62
     0
 10
100.590798
 20
-100.019998
 11
118.268472
 21
-82.342325
  0
POINT
  8
寸法
 62
     0
 10
100.590798
 20
-100.019998
  0
POINT
  8
寸法
 62
     0
 10
118.268472
 20
-82.342325
  0
TEXT
  7
TextStyle03
  8
寸法
  6
CONTINUOUS
 62
     0
 10
107.84545
 20
-92.229423
  1
50
 40
3.5
 50
45.0
 72
     5
 11
110.479423
 21
-89.59545
  0
ENDBLK
  0
BLOCK
  2
*DIM_0035
 70
    65
 10
0.0
 20
0.0
  0
LINE
  8
寸法
  6
BYBLOCK
 62
     0
 10
101.911065
 20
-30.629577
 11
135.94614
 21
-64.664655
  0
LINE
  8
寸法
  6
BYBLOCK
 62
     0
 10
118.268472
 20
-82.342325
 11
135.94614
 21
-64.664655
  0
POINT
  8
寸法
 62
     0
 10
135.94614
 20
-64.664655
  0
TEXT
  7
TextStyle03
  8
寸法
  6
CONTINUOUS
 62
     0
 10
125.52045
 20
-74.554423
  1
50
 40
3.5
 50
45.0
 72
     5
 11
128.154423
 21
-71.92045
  0
ENDBLK
  0
BLOCK
  2
*DIM_0036
 70
    65
 10
0.0
 20
0.0
  0
LINE
  8
寸法
  6
BYBLOCK
 62
     0
 10
94.20874
 20
-75.253155
 11
105.019012
 21
-86.06343
  0
LINE
  8
寸法
  6
BYBLOCK
 62
     0
 10
111.179305
 20
-58.28259
 11
121.98958
 21
-69.092865
  0
LINE
  8
寸法
  6
BYBLOCK
 62
     0
 10
105.019012
 20
-86.06343
 11
121.98958
 21
-69.092865
  0
POINT
  8
寸法
 62
     0
 10
105.019012
 20
-86.06343
  0
POINT
  8
寸法
 62
     0
 10
121.98958
 20
-69.092865
  0
TEXT
  7
TextStyle03
  8
寸法
  6
CONTINUOUS
 62
     0
 10
111.92045
 20
-78.629423
  1
48
 40
3.5
 50
45.0
 72
     5
 11
114.554423
 21
-75.99545
  0
ENDBLK
  0
BLOCK
  2
*DIM_0037
 70
    65
 10
0.0
 20
0.0
  0
LINE
  8
寸法
  6
BYBLOCK
 62
     0
 10
60.764213
 20
10.25005
 11
75.22816
 21
24.713995
  0
LINE
  8
寸法
  6
BYBLOCK
 62
     0
 10
62.31308
 20
1.19023
 11
80.532503
 21
19.409653
  0
LINE
  8
寸法
  6
BYBLOCK
 62
     0
 10
75.22816
 20
24.713995
 11
80.532503
 21
19.409653
  0
POINT
  8
寸法
 62
     0
 10
75.22816
 20
24.713995
  0
POINT
  8
寸法
 62
     0
 10
80.532503
 20
19.409653
  0
TEXT
  7
TextStyle03
  8
寸法
  6
CONTINUOUS
 62
     0
 10
76.820577
 20
23.65455
  1
15
 40
3.5
 50
315.0
 72
     5
 11
79.45455
 21
21.020577
  0
ENDBLK
  0
BLOCK
  2
*DIM_0038
 70
    65
 10
0.0
 20
0.0
  0
LINE
  8
寸法
  6
BYBLOCK
 62
     0
 10
84.233395
 20
-1.6382
 11
92.906875
 21
7.03528
  0
LINE
  8
寸法
  6
BYBLOCK
 62
     0
 10
80.532503
 20
19.409653
 11
92.906875
 21
7.03528
  0
POINT
  8
寸法
 62
     0
 10
92.906875
 20
7.03528
  0
TEXT
  7
TextStyle03
  8
寸法
  6
CONTINUOUS
 62
     0
 10
85.645577
 20
14.80455
  1
35
 40
3.5
 50
315.0
 72
     5
 11
88.27955
 21
12.170577
  0
ENDBLK
  0
BLOCK
  2
*DIM_0039
 70
    65
 10
0.0
 20
0.0
  0
LINE
  8
寸法
  6
BYBLOCK
 62
     0
 10
87.06182
 20
-23.55851
 11
105.281243
 21
-5.33909
  0
LINE
  8
寸法
  6
BYBLOCK
 62
     0
 10
92.906875
 20
7.03528
 11
105.281243
 21
-5.33909
  0
POINT
  8
寸法
 62
     0
 10
105.281243
 20
-5.33909
  0
TEXT
  7
TextStyle03
  8
寸法
  6
CONTINUOUS
 62
     0
 10
98.020577
 20
2.42955
  1
35
 40
3.5
 50
315.0
 72
     5
 11
100.65455
 21
-0.204423
  0
ENDBLK
  0
BLOCK
  2
*DIM_0040
 70
    65
 10
0.0
 20
0.0
  0
LINE
  8
寸法
  6
BYBLOCK
 62
     0
 10
96.60776
 20
-24.619168
 11
110.58454
 21
-10.642388
  0
LINE
  8
寸法
  6
BYBLOCK
 62
     0
 10
105.281243
 20
-5.33909
 11
110.58454
 21
-10.642388
  0
POINT
  8
寸法
 62
     0
 10
110.58454
 20
-10.642388
  0
TEXT
  7
TextStyle03
  8
寸法
  6
CONTINUOUS
 62
     0
 10
106.870577
 20
-6.39545
  1
15
 40
3.5
 50
315.0
 72
     5
 11
109.50455
 21
-9.029423
  0
ENDBLK
  0
BLOCK
  2
*GRP_0041
 70
    65
 10
0.0
 20
0.0
  0
POLYLINE
  8
寸法
  6
BYBLOCK
 62
     0
 66
     1
  0
VERTEX
  8
寸法
 10
36.38048
 20
-1.552412
  0
VERTEX
  8
寸法
 10
38.978555
 20
-3.052412
  0
VERTEX
  8
寸法
 10
37.478555
 20
-0.454338
  0
SEQEND
  0
POLYLINE
  8
寸法
  6
BYBLOCK
 62
     0
 66
     1
  0
VERTEX
  8
寸法
 10
38.978555
 20
-3.052412
  0
VERTEX
  8
寸法
 10
35.221832
 20
0.70431
  0
VERTEX
  8
寸法
 10
13.145165
 20
0.70431
  0
SEQEND
  0
ENDBLK
  0
BLOCK
  2
*GRP_0042
 70
    65
 10
0.0
 20
0.0
  0
POLYLINE
  8
寸法
  6
BYBLOCK
 62
     0
 66
     1
  0
VERTEX
  8
寸法
 10
33.552052
 20
-23.472722
  0
VERTEX
  8
寸法
 10
36.150128
 20
-24.972722
  0
VERTEX
  8
寸法
 10
34.650128
 20
-22.374647
  0
SEQEND
  0
POLYLINE
  8
寸法
  6
BYBLOCK
 62
     0
 66
     1
  0
VERTEX
  8
寸法
 10
36.150128
 20
-24.972722
  0
VERTEX
  8
寸法
 10
23.189072
 20
-12.011668
  0
VERTEX
  8
寸法
 10
18.331352
 20
-12.011668
  0
SEQEND
  0
ENDBLK
  0
BLOCK
  2
*GRP_0043
 70
    65
 10
0.0
 20
0.0
  0
POLYLINE
  8
寸法
  6
BYBLOCK
 62
     0
 66
     1
  0
VERTEX
  8
寸法
 10
22.176852
 20
-32.77519
  0
VERTEX
  8
寸法
 10
23.676852
 20
-30.177113
  0
VERTEX
  8
寸法
 10
21.078775
 20
-31.677113
  0
SEQEND
  0
POLYLINE
  8
寸法
  6
BYBLOCK
 62
     0
 66
     1
  0
VERTEX
  8
寸法
 10
23.676852
 20
-30.177113
  0
VERTEX
  8
寸法
 10
19.300872
 20
-34.55309
  0
VERTEX
  8
寸法
 10
13.868043
 20
-34.55309
  0
SEQEND
  0
ENDBLK
  0
BLOCK
  2
*GRP_0044
 70
    65
 10
0.0
 20
0.0
  0
POLYLINE
  8
寸法
  6
BYBLOCK
 62
     0
 66
     1
  0
VERTEX
  8
寸法
 10
30.944162
 20
-34.471435
  0
VERTEX
  8
寸法
 10
32.444162
 20
-31.873358
  0
VERTEX
  8
寸法
 10
29.846088
 20
-33.373358
  0
SEQEND
  0
POLYLINE
  8
寸法
  6
BYBLOCK
 62
     0
 66
     1
  0
VERTEX
  8
寸法
 10
32.444162
 20
-31.873358
  0
VERTEX
  8
寸法
 10
19.68228
 20
-44.63524
  0
VERTEX
  8
寸法
 10
14.142173
 20
-44.63524
  0
SEQEND
  0
ENDBLK
  0
BLOCK
  2
*DIM_0045
 70
    65
 10
0.0
 20
0.0
  0
LINE
  8
寸法
  6
BYBLOCK
 62
     0
 10
-81.788998
 20
-112.543632
 11
-81.788998
 21
-110.710795
  0
LINE
  8
寸法
  6
BYBLOCK
 62
     0
 10
-107.538998
 20
-49.028063
 11
-107.538998
 21
-110.710795
  0
LINE
  8
寸法
  6
BYBLOCK
 62
     0
 10
-81.788998
 20
-110.710795
 11
-107.538998
 21
-110.710795
  0
POINT
  8
寸法
 62
     0
 10
-81.788998
 20
-110.710795
  0
POINT
  8
寸法
 62
     0
 10
-107.538998
 20
-110.710795
  0
TEXT
  7
TextStyle03
  8
寸法
  6
CONTINUOUS
 62
     0
 10
-98.5125
 20
-110.325
  1
51.5
 40
3.5
 72
     5
 11
-90.8375
 21
-110.325
  0
ENDBLK
  0
BLOCK
  2
*DIM_0046
 70
    65
 10
0.0
 20
0.0
  0
LINE
  8
寸法
  6
BYBLOCK
 62
     0
 10
-148.342753
 20
-28.972722
 11
-148.342753
 21
-110.710795
  0
LINE
  8
寸法
  6
BYBLOCK
 62
     0
 10
-107.538998
 20
-110.710795
 11
-148.342753
 21
-110.710795
  0
POINT
  8
寸法
 62
     0
 10
-148.342753
 20
-110.710795
  0
TEXT
  7
TextStyle03
  8
寸法
  6
CONTINUOUS
 62
     0
 10
-131.7875
 20
-110.325
  1
81.6
 40
3.5
 72
     5
 11
-124.1125
 21
-110.325
  0
ENDBLK
  0
BLOCK
  2
*DIM_0047
 70
    65
 10
0.0
 20
0.0
  0
LINE
  8
寸法
  6
BYBLOCK
 62
     0
 10
-100.038998
 20
-48.89304
 11
-100.038998
 21
-104.188757
  0
LINE
  8
寸法
  6
BYBLOCK
 62
     0
 10
-107.538998
 20
-104.188757
 11
-100.038998
 21
-104.188757
  0
POINT
  8
寸法
 62
     0
 10
-107.538998
 20
-104.188757
  0
POINT
  8
寸法
 62
     0
 10
-100.038998
 20
-104.188757
  0
TEXT
  7
TextStyle03
  8
寸法
  6
CONTINUOUS
 62
     0
 10
-105.6625
 20
-103.8
  1
15
 40
3.5
 72
     5
 11
-101.9375
 21
-103.8
  0
ENDBLK
  0
BLOCK
  2
*DIM_0048
 70
    65
 10
0.0
 20
0.0
  0
LINE
  8
寸法
  6
BYBLOCK
 62
     0
 10
-81.788998
 20
-71.399128
 11
-81.788998
 21
-104.188757
  0
LINE
  8
寸法
  6
BYBLOCK
 62
     0
 10
-100.038998
 20
-104.188757
 11
-81.788998
 21
-104.188757
  0
POINT
  8
寸法
 62
     0
 10
-81.788998
 20
-104.188757
  0
TEXT
  7
TextStyle03
  8
寸法
  6
CONTINUOUS
 62
     0
 10
-94.7625
 20
-103.8
  1
36.5
 40
3.5
 72
     5
 11
-87.0875
 21
-103.8
  0
ENDBLK
  0
BLOCK
  2
*GRP_0049
 70
    65
 10
0.0
 20
0.0
  0
POLYLINE
  8
寸法
  6
BYBLOCK
 62
     0
 66
     1
  0
VERTEX
  8
寸法
 10
-133.60373
 20
-6.135623
  0
VERTEX
  8
寸法
 10
-131.005655
 20
-7.635623
  0
VERTEX
  8
寸法
 10
-132.505655
 20
-5.037547
  0
SEQEND
  0
POLYLINE
  8
寸法
  6
BYBLOCK
 62
     0
 66
     1
  0
VERTEX
  8
寸法
 10
-131.005655
 20
-7.635623
  0
VERTEX
  8
寸法
 10
-136.667663
 20
-1.973615
  0
VERTEX
  8
寸法
 10
-136.667663
 20
1.11233
  0
SEQEND
  0
ENDBLK
  0
BLOCK
  2
*DIM_0050
 70
    65
 10
0.0
 20
0.0
  0
LINE
  8
寸法
  6
BYBLOCK
 62
     0
 10
-107.842755
 20
17.527277
 11
-174.864852
 21
17.527277
  0
LINE
  8
寸法
  6
BYBLOCK
 62
     0
 10
-107.842755
 20
-67.472722
 11
-174.864852
 21
-67.472722
  0
LINE
  8
寸法
  6
BYBLOCK
 62
     0
 10
-174.864852
 20
17.527277
 11
-174.864852
 21
-67.472722
  0
POINT
  8
寸法
 62
     0
 10
-174.864852
 20
17.527277
  0
POINT
  8
寸法
 62
     0
 10
-174.864852
 20
-67.472722
  0
TEXT
  7
TextStyle03
  8
寸法
  6
CONTINUOUS
 62
     0
 10
-175.25
 20
-27.825
  1
170
 40
3.5
 50
90.0
 72
     5
 11
-175.25
 21
-22.125
  0
ENDBLK
  0
BLOCK
  2
*DIM_0051
 70
    65
 10
0.0
 20
0.0
  0
LINE
  8
寸法
  6
BYBLOCK
 62
     0
 10
-165.33843
 20
17.527277
 11
-166.50261
 21
17.527277
  0
LINE
  8
寸法
  6
BYBLOCK
 62
     0
 10
-150.342753
 20
-24.972722
 11
-166.50261
 21
-24.972722
  0
LINE
  8
寸法
  6
BYBLOCK
 62
     0
 10
-166.50261
 20
17.527277
 11
-166.50261
 21
-24.972722
  0
POINT
  8
寸法
 62
     0
 10
-166.50261
 20
17.527277
  0
POINT
  8
寸法
 62
     0
 10
-166.50261
 20
-24.972722
  0
TEXT
  7
TextStyle03
  8
寸法
  6
CONTINUOUS
 62
     0
 10
-166.9
 20
-5.5875
  1
85
 40
3.5
 50
90.0
 72
     5
 11
-166.9
 21
-1.8625
  0
ENDBLK
  0
BLOCK
  2
*DIM_0052
 70
    65
 10
0.0
 20
0.0
  0
LINE
  8
寸法
  6
BYBLOCK
 62
     0
 10
-109.842755
 20
-67.472722
 11
-166.50261
 21
-67.472722
  0
LINE
  8
寸法
  6
BYBLOCK
 62
     0
 10
-166.50261
 20
-24.972722
 11
-166.50261
 21
-67.472722
  0
POINT
  8
寸法
 62
     0
 10
-166.50261
 20
-67.472722
  0
TEXT
  7
TextStyle03
  8
寸法
  6
CONTINUOUS
 62
     0
 10
-166.9
 20
-48.0875
  1
85
 40
3.5
 50
90.0
 72
     5
 11
-166.9
 21
-44.3625
  0
ENDBLK
  0
BLOCK
  2
*DIM_0053
 70
    65
 10
0.0
 20
0.0
  0
LINE
  8
寸法
  6
BYBLOCK
 62
     0
 10
-81.788998
 20
-69.399128
 11
-81.788998
 21
-119.950335
  0
LINE
  8
寸法
  6
BYBLOCK
 62
     0
 10
-105.842755
 20
-69.472722
 11
-105.842755
 21
-119.950335
  0
LINE
  8
寸法
  6
BYBLOCK
 62
     0
 10
-81.788998
 20
-119.950335
 11
-105.842755
 21
-119.950335
  0
POINT
  8
寸法
 62
     0
 10
-81.788998
 20
-119.950335
  0
POINT
  8
寸法
 62
     0
 10
-105.842755
 20
-119.950335
  0
TEXT
  7
TextStyle03
  8
寸法
  6
CONTINUOUS
 62
     0
 10
-97.6625
 20
-119.575
  1
48.1
 40
3.5
 72
     5
 11
-89.9875
 21
-119.575
  0
ENDBLK
  0
BLOCK
  2
*DIM_0054
 70
    65
 10
0.0
 20
0.0
  0
LINE
  8
寸法
  6
BYBLOCK
 62
     0
 10
-148.342753
 20
-30.972722
 11
-148.342753
 21
-119.950335
  0
LINE
  8
寸法
  6
BYBLOCK
 62
     0
 10
-105.842755
 20
-119.950335
 11
-148.342753
 21
-119.950335
  0
POINT
  8
寸法
 62
     0
 10
-148.342753
 20
-119.950335
  0
TEXT
  7
TextStyle03
  8
寸法
  6
CONTINUOUS
 62
     0
 10
-128.9625
 20
-119.575
  1
85
 40
3.5
 72
     5
 11
-125.2375
 21
-119.575
  0
ENDBLK
  0
BLOCK
  2
*GRP_0055
 70
    65
 10
0.0
 20
0.0
  0
POLYLINE
  8
寸法
  6
BYBLOCK
 62
     0
 66
     1
  0
VERTEX
  8
寸法
 10
-9.7625
 20
90.558913
  0
VERTEX
  8
寸法
 10
-11.2625
 20
87.960837
  0
VERTEX
  8
寸法
 10
-8.664425
 20
89.460837
  0
SEQEND
  0
POLYLINE
  8
寸法
  6
BYBLOCK
 62
     0
 66
     1
  0
VERTEX
  8
寸法
 10
-11.2625
 20
87.960837
  0
VERTEX
  8
寸法
 10
-5.430452
 20
93.792885
  0
VERTEX
  8
寸法
 10
-0.542912
 20
93.792885
  0
SEQEND
  0
ENDBLK
  0
BLOCK
  2
*GRP_0056
 70
    65
 10
0.0
 20
0.0
  0
POLYLINE
  8
寸法
  6
BYBLOCK
 62
     0
 66
     1
  0
VERTEX
  8
寸法
 10
-11.226925
 20
76.373337
  0
VERTEX
  8
寸法
 10
-13.825
 20
77.873337
  0
VERTEX
  8
寸法
 10
-12.325
 20
75.275262
  0
SEQEND
  0
POLYLINE
  8
寸法
  6
BYBLOCK
 62
     0
 66
     1
  0
VERTEX
  8
寸法
 10
-13.825
 20
77.873337
  0
VERTEX
  8
寸法
 10
-8.623502
 20
72.67184
  0
VERTEX
  8
寸法
 10
-4.21006
 20
72.67184
  0
SEQEND
  0
ENDBLK
  0
BLOCK
  2
*GRP_0057
 70
    65
 10
0.0
 20
0.0
  0
LINE
  8
型材断面
  6
CONTINUOUS
 62
    47
 10
-120.18769
 20
-6.057632
 11
-120.18769
 21
-7.825413
  0
LINE
  8
型材断面
  6
CONTINUOUS
 62
    47
 10
-120.18769
 20
-6.057632
 11
-120.18769
 21
-4.289852
  0
POLYLINE
  8
型材断面
  6
CONTINUOUS
 62
    47
 66
     1
  0
VERTEX
  8
型材断面
 10
-125.025
 20
-7.85
  0
VERTEX
  8
型材断面
 10
-125.05
 20
-7.85
  0
VERTEX
  8
型材断面
 10
-125.075
 20
-7.85
  0
VERTEX
  8
型材断面
 10
-125.1
 20
-7.85
  0
VERTEX
  8
型材断面
 10
-125.15
 20
-7.85
  0
VERTEX
  8
型材断面
 10
-125.175
 20
-7.85
  0
VERTEX
  8
型材断面
 10
-125.2
 20
-7.85
  0
VERTEX
  8
型材断面
 10
-125.225
 20
-7.85
  0
VERTEX
  8
型材断面
 10
-125.25
 20
-7.85
  0
VERTEX
  8
型材断面
 10
-125.275
 20
-7.85
  0
VERTEX
  8
型材断面
 10
-125.3
 20
-7.875
  0
VERTEX
  8
型材断面
 10
-125.35
 20
-7.875
  0
VERTEX
  8
型材断面
 10
-125.375
 20
-7.875
  0
VERTEX
  8
型材断面
 10
-125.4
 20
-7.875
  0
VERTEX
  8
型材断面
 10
-125.425
 20
-7.9
  0
VERTEX
  8
型材断面
 10
-125.45
 20
-7.9
  0
VERTEX
  8
型材断面
 10
-125.475
 20
-7.9
  0
VERTEX
  8
型材断面
 10
-125.5
 20
-7.925
  0
VERTEX
  8
型材断面
 10
-125.525
 20
-7.925
  0
VERTEX
  8
型材断面
 10
-125.55
 20
-7.925
  0
VERTEX
  8
型材断面
 10
-125.575
 20
-7.95
  0
VERTEX
  8
型材断面
 10
-125.6
 20
-7.95
  0
VERTEX
  8
型材断面
 10
-125.625
 20
-7.975
  0
VERTEX
  8
型材断面
 10
-125.65
 20
-7.975
  0
VERTEX
  8
型材断面
 10
-125.65
 20
-8.0
  0
VERTEX
  8
型材断面
 10
-125.675
 20
-8.0
  0
VERTEX
  8
型材断面
 10
-125.7
 20
-8.025
  0
VERTEX
  8
型材断面
 10
-125.725
 20
-8.025
  0
VERTEX
  8
型材断面
 10
-125.75
 20
-8.05
  0
VERTEX
  8
型材断面
 10
-125.75
 20
-8.05
  0
VERTEX
  8
型材断面
 10
-125.775
 20
-8.075
  0
VERTEX
  8
型材断面
 10
-125.8
 20
-8.075
  0
VERTEX
  8
型材断面
 10
-125.8
 20
-8.1
  0
VERTEX
  8
型材断面
 10
-125.825
 20
-8.1
  0
VERTEX
  8
型材断面
 10
-125.825
 20
-8.125
  0
VERTEX
  8
型材断面
 10
-125.85
 20
-8.15
  0
VERTEX
  8
型材断面
 10
-125.85
 20
-8.15
  0
VERTEX
  8
型材断面
 10
-125.875
 20
-8.175
  0
VERTEX
  8
型材断面
 10
-125.875
 20
-8.2
  0
VERTEX
  8
型材断面
 10
-125.9
 20
-8.2
  0
VERTEX
  8
型材断面
 10
-125.9
 20
-8.225
  0
VERTEX
  8
型材断面
 10
-125.9
 20
-8.225
  0
VERTEX
  8
型材断面
 10
-125.925
 20
-8.25
  0
VERTEX
  8
型材断面
 10
-125.925
 20
-8.275
  0
VERTEX
  8
型材断面
 10
-125.925
 20
-8.275
  0
VERTEX
  8
型材断面
 10
-125.925
 20
-8.3
  0
VERTEX
  8
型材断面
 10
-125.925
 20
-8.325
  0
VERTEX
  8
型材断面
 10
-125.925
 20
-8.35
  0
VERTEX
  8
型材断面
 10
-125.95
 20
-8.35
  0
VERTEX
  8
型材断面
 10
-125.95
 20
-8.375
  0
VERTEX
  8
型材断面
 10
-125.925
 20
-8.4
  0
VERTEX
  8
型材断面
 10
-125.925
 20
-8.4
  0
VERTEX
  8
型材断面
 10
-125.925
 20
-8.425
  0
VERTEX
  8
型材断面
 10
-125.925
 20
-8.45
  0
VERTEX
  8
型材断面
 10
-125.925
 20
-8.45
  0
VERTEX
  8
型材断面
 10
-125.925
 20
-8.475
  0
VERTEX
  8
型材断面
 10
-125.925
 20
-8.5
  0
VERTEX
  8
型材断面
 10
-125.9
 20
-8.5
  0
VERTEX
  8
型材断面
 10
-125.9
 20
-8.525
  0
VERTEX
  8
型材断面
 10
-125.9
 20
-8.55
  0
VERTEX
  8
型材断面
 10
-125.875
 20
-8.55
  0
VERTEX
  8
型材断面
 10
-125.875
 20
-8.575
  0
VERTEX
  8
型材断面
 10
-125.85
 20
-8.6
  0
VERTEX
  8
型材断面
 10
-125.85
 20
-8.6
  0
VERTEX
  8
型材断面
 10
-125.825
 20
-8.625
  0
VERTEX
  8
型材断面
 10
-125.825
 20
-8.625
  0
SEQEND
  0
LINE
  8
型材断面
  6
CONTINUOUS
 62
    47
 10
-115.851728
 20
-17.51138
 11
-112.40471
 21
-16.36232
  0
POLYLINE
  8
型材断面
  6
CONTINUOUS
 62
    47
 66
     1
  0
VERTEX
  8
型材断面
 10
-115.4
 20
-17.975
  0
VERTEX
  8
型材断面
 10
-115.425
 20
-18.0
  0
VERTEX
  8
型材断面
 10
-115.45
 20
-18.0
  0
VERTEX
  8
型材断面
 10
-115.475
 20
-18.0
  0
VERTEX
  8
型材断面
 10
-115.5
 20
-18.025
  0
VERTEX
  8
型材断面
 10
-115.55
 20
-18.025
  0
VERTEX
  8
型材断面
 10
-115.575
 20
-18.025
  0
VERTEX
  8
型材断面
 10
-115.6
 20
-18.025
  0
VERTEX
  8
型材断面
 10
-115.625
 20
-18.025
  0
VERTEX
  8
型材断面
 10
-115.65
 20
-18.05
  0
VERTEX
  8
型材断面
 10
-115.675
 20
-18.05
  0
VERTEX
  8
型材断面
 10
-115.7
 20
-18.05
  0
VERTEX
  8
型材断面
 10
-115.725
 20
-18.05
  0
VERTEX
  8
型材断面
 10
-115.775
 20
-18.05
  0
VERTEX
  8
型材断面
 10
-115.8
 20
-18.05
  0
VERTEX
  8
型材断面
 10
-115.825
 20
-18.05
  0
VERTEX
  8
型材断面
 10
-115.85
 20
-18.05
  0
VERTEX
  8
型材断面
 10
-115.875
 20
-18.05
  0
VERTEX
  8
型材断面
 10
-115.925
 20
-18.05
  0
VERTEX
  8
型材断面
 10
-115.95
 20
-18.05
  0
VERTEX
  8
型材断面
 10
-115.975
 20
-18.05
  0
VERTEX
  8
型材断面
 10
-116.0
 20
-18.05
  0
VERTEX
  8
型材断面
 10
-116.025
 20
-18.05
  0
VERTEX
  8
型材断面
 10
-116.05
 20
-18.05
  0
VERTEX
  8
型材断面
 10
-116.1
 20
-18.05
  0
VERTEX
  8
型材断面
 10
-116.125
 20
-18.025
  0
VERTEX
  8
型材断面
 10
-116.15
 20
-18.025
  0
VERTEX
  8
型材断面
 10
-116.175
 20
-18.025
  0
VERTEX
  8
型材断面
 10
-116.2
 20
-18.025
  0
VERTEX
  8
型材断面
 10
-116.225
 20
-18.0
  0
VERTEX
  8
型材断面
 10
-116.25
 20
-18.0
  0
VERTEX
  8
型材断面
 10
-116.275
 20
-18.0
  0
VERTEX
  8
型材断面
 10
-116.3
 20
-18.0
  0
VERTEX
  8
型材断面
 10
-116.325
 20
-17.975
  0
VERTEX
  8
型材断面
 10
-116.35
 20
-17.975
  0
VERTEX
  8
型材断面
 10
-116.375
 20
-17.95
  0
VERTEX
  8
型材断面
 10
-116.4
 20
-17.95
  0
VERTEX
  8
型材断面
 10
-116.425
 20
-17.95
  0
VERTEX
  8
型材断面
 10
-116.45
 20
-17.925
  0
VERTEX
  8
型材断面
 10
-116.475
 20
-17.925
  0
VERTEX
  8
型材断面
 10
-116.5
 20
-17.9
  0
VERTEX
  8
型材断面
 10
-116.525
 20
-17.9
  0
VERTEX
  8
型材断面
 10
-116.55
 20
-17.875
  0
VERTEX
  8
型材断面
 10
-116.55
 20
-17.875
  0
VERTEX
  8
型材断面
 10
-116.575
 20
-17.85
  0
VERTEX
  8
型材断面
 10
-116.6
 20
-17.85
  0
VERTEX
  8
型材断面
 10
-116.6
 20
-17.825
  0
VERTEX
  8
型材断面
 10
-116.625
 20
-17.825
  0
VERTEX
  8
型材断面
 10
-116.65
 20
-17.8
  0
VERTEX
  8
型材断面
 10
-116.65
 20
-17.8
  0
SEQEND
  0
LINE
  8
型材断面
  6
CONTINUOUS
 62
    47
 10
-111.945447
 20
-16.821605
 11
-116.18793
 21
-18.235827
  0
LINE
  8
型材断面
  6
CONTINUOUS
 62
    47
 10
-112.40471
 20
-16.36232
 11
-111.945447
 21
-16.821605
  0
LINE
  8
型材断面
  6
CONTINUOUS
 62
    47
 10
-120.18769
 20
-7.825413
 11
-126.597885
 21
-7.825413
  0
LINE
  8
型材断面
  6
CONTINUOUS
 62
    47
 10
-116.18793
 20
-18.235827
 11
-126.597885
 21
-7.825413
  0
LINE
  8
型材断面
  6
CONTINUOUS
 62
    47
 10
-115.851728
 20
-17.51138
 11
-125.006955
 21
-8.355747
  0
POLYLINE
  8
型材断面
  6
CONTINUOUS
 62
    47
 66
     1
  0
VERTEX
  8
型材断面
 10
-125.825
 20
-3.5
  0
VERTEX
  8
型材断面
 10
-125.825
 20
-3.525
  0
VERTEX
  8
型材断面
 10
-125.85
 20
-3.525
  0
VERTEX
  8
型材断面
 10
-125.85
 20
-3.55
  0
VERTEX
  8
型材断面
 10
-125.875
 20
-3.575
  0
VERTEX
  8
型材断面
 10
-125.875
 20
-3.575
  0
VERTEX
  8
型材断面
 10
-125.9
 20
-3.6
  0
VERTEX
  8
型材断面
 10
-125.9
 20
-3.625
  0
VERTEX
  8
型材断面
 10
-125.9
 20
-3.625
  0
VERTEX
  8
型材断面
 10
-125.925
 20
-3.65
  0
VERTEX
  8
型材断面
 10
-125.925
 20
-3.675
  0
VERTEX
  8
型材断面
 10
-125.925
 20
-3.675
  0
VERTEX
  8
型材断面
 10
-125.925
 20
-3.7
  0
VERTEX
  8
型材断面
 10
-125.925
 20
-3.725
  0
VERTEX
  8
型材断面
 10
-125.925
 20
-3.725
  0
VERTEX
  8
型材断面
 10
-125.925
 20
-3.75
  0
VERTEX
  8
型材断面
 10
-125.95
 20
-3.775
  0
VERTEX
  8
型材断面
 10
-125.95
 20
-3.775
  0
VERTEX
  8
型材断面
 10
-125.925
 20
-3.8
  0
VERTEX
  8
型材断面
 10
-125.925
 20
-3.825
  0
VERTEX
  8
型材断面
 10
-125.925
 20
-3.825
  0
VERTEX
  8
型材断面
 10
-125.925
 20
-3.85
  0
VERTEX
  8
型材断面
 10
-125.925
 20
-3.875
  0
VERTEX
  8
型材断面
 10
-125.925
 20
-3.875
  0
VERTEX
  8
型材断面
 10
-125.9
 20
-3.9
  0
VERTEX
  8
型材断面
 10
-125.9
 20
-3.925
  0
VERTEX
  8
型材断面
 10
-125.9
 20
-3.925
  0
VERTEX
  8
型材断面
 10
-125.875
 20
-3.95
  0
VERTEX
  8
型材断面
 10
-125.875
 20
-3.975
  0
VERTEX
  8
型材断面
 10
-125.85
 20
-3.975
  0
VERTEX
  8
型材断面
 10
-125.85
 20
-4.0
  0
VERTEX
  8
型材断面
 10
-125.825
 20
-4.025
  0
VERTEX
  8
型材断面
 10
-125.825
 20
-4.025
  0
VERTEX
  8
型材断面
 10
-125.8
 20
-4.05
  0
VERTEX
  8
型材断面
 10
-125.8
 20
-4.05
  0
VERTEX
  8
型材断面
 10
-125.775
 20
-4.075
  0
VERTEX
  8
型材断面
 10
-125.75
 20
-4.075
  0
VERTEX
  8
型材断面
 10
-125.75
 20
-4.1
  0
VERTEX
  8
型材断面
 10
-125.725
 20
-4.125
  0
VERTEX
  8
型材断面
 10
-125.7
 20
-4.125
  0
VERTEX
  8
型材断面
 10
-125.675
 20
-4.15
  0
VERTEX
  8
型材断面
 10
-125.65
 20
-4.15
  0
VERTEX
  8
型材断面
 10
-125.65
 20
-4.175
  0
VERTEX
  8
型材断面
 10
-125.625
 20
-4.175
  0
VERTEX
  8
型材断面
 10
-125.6
 20
-4.175
  0
VERTEX
  8
型材断面
 10
-125.575
 20
-4.2
  0
VERTEX
  8
型材断面
 10
-125.55
 20
-4.2
  0
VERTEX
  8
型材断面
 10
-125.525
 20
-4.225
  0
VERTEX
  8
型材断面
 10
-125.5
 20
-4.225
  0
VERTEX
  8
型材断面
 10
-125.475
 20
-4.225
  0
VERTEX
  8
型材断面
 10
-125.45
 20
-4.25
  0
VERTEX
  8
型材断面
 10
-125.425
 20
-4.25
  0
VERTEX
  8
型材断面
 10
-125.4
 20
-4.25
  0
VERTEX
  8
型材断面
 10
-125.375
 20
-4.275
  0
VERTEX
  8
型材断面
 10
-125.35
 20
-4.275
  0
VERTEX
  8
型材断面
 10
-125.3
 20
-4.275
  0
VERTEX
  8
型材断面
 10
-125.275
 20
-4.275
  0
VERTEX
  8
型材断面
 10
-125.25
 20
-4.275
  0
VERTEX
  8
型材断面
 10
-125.225
 20
-4.3
  0
VERTEX
  8
型材断面
 10
-125.2
 20
-4.3
  0
VERTEX
  8
型材断面
 10
-125.175
 20
-4.3
  0
VERTEX
  8
型材断面
 10
-125.15
 20
-4.3
  0
VERTEX
  8
型材断面
 10
-125.1
 20
-4.3
  0
VERTEX
  8
型材断面
 10
-125.075
 20
-4.3
  0
VERTEX
  8
型材断面
 10
-125.05
 20
-4.3
  0
VERTEX
  8
型材断面
 10
-125.025
 20
-4.3
  0
SEQEND
  0
LINE
  8
型材断面
  6
CONTINUOUS
 62
    47
 10
-115.851728
 20
5.396112
 11
-112.40471
 21
4.247057
  0
POLYLINE
  8
型材断面
  6
CONTINUOUS
 62
    47
 66
     1
  0
VERTEX
  8
型材断面
 10
-116.65
 20
5.65
  0
VERTEX
  8
型材断面
 10
-116.65
 20
5.675
  0
VERTEX
  8
型材断面
 10
-116.625
 20
5.675
  0
VERTEX
  8
型材断面
 10
-116.6
 20
5.7
  0
VERTEX
  8
型材断面
 10
-116.6
 20
5.7
  0
VERTEX
  8
型材断面
 10
-116.575
 20
5.725
  0
VERTEX
  8
型材断面
 10
-116.55
 20
5.725
  0
VERTEX
  8
型材断面
 10
-116.55
 20
5.75
  0
VERTEX
  8
型材断面
 10
-116.525
 20
5.75
  0
VERTEX
  8
型材断面
 10
-116.5
 20
5.775
  0
VERTEX
  8
型材断面
 10
-116.475
 20
5.775
  0
VERTEX
  8
型材断面
 10
-116.45
 20
5.8
  0
VERTEX
  8
型材断面
 10
-116.425
 20
5.8
  0
VERTEX
  8
型材断面
 10
-116.4
 20
5.8
  0
VERTEX
  8
型材断面
 10
-116.375
 20
5.825
  0
VERTEX
  8
型材断面
 10
-116.35
 20
5.825
  0
VERTEX
  8
型材断面
 10
-116.325
 20
5.85
  0
VERTEX
  8
型材断面
 10
-116.3
 20
5.85
  0
VERTEX
  8
型材断面
 10
-116.275
 20
5.85
  0
VERTEX
  8
型材断面
 10
-116.25
 20
5.875
  0
VERTEX
  8
型材断面
 10
-116.225
 20
5.875
  0
VERTEX
  8
型材断面
 10
-116.2
 20
5.875
  0
VERTEX
  8
型材断面
 10
-116.175
 20
5.875
  0
VERTEX
  8
型材断面
 10
-116.15
 20
5.9
  0
VERTEX
  8
型材断面
 10
-116.125
 20
5.9
  0
VERTEX
  8
型材断面
 10
-116.1
 20
5.9
  0
VERTEX
  8
型材断面
 10
-116.05
 20
5.9
  0
VERTEX
  8
型材断面
 10
-116.025
 20
5.9
  0
VERTEX
  8
型材断面
 10
-116.0
 20
5.9
  0
VERTEX
  8
型材断面
 10
-115.975
 20
5.9
  0
VERTEX
  8
型材断面
 10
-115.95
 20
5.9
  0
VERTEX
  8
型材断面
 10
-115.925
 20
5.925
  0
VERTEX
  8
型材断面
 10
-115.875
 20
5.925
  0
VERTEX
  8
型材断面
 10
-115.85
 20
5.925
  0
VERTEX
  8
型材断面
 10
-115.825
 20
5.925
  0
VERTEX
  8
型材断面
 10
-115.8
 20
5.9
  0
VERTEX
  8
型材断面
 10
-115.775
 20
5.9
  0
VERTEX
  8
型材断面
 10
-115.725
 20
5.9
  0
VERTEX
  8
型材断面
 10
-115.7
 20
5.9
  0
VERTEX
  8
型材断面
 10
-115.675
 20
5.9
  0
VERTEX
  8
型材断面
 10
-115.65
 20
5.9
  0
VERTEX
  8
型材断面
 10
-115.625
 20
5.9
  0
VERTEX
  8
型材断面
 10
-115.6
 20
5.9
  0
VERTEX
  8
型材断面
 10
-115.575
 20
5.875
  0
VERTEX
  8
型材断面
 10
-115.55
 20
5.875
  0
VERTEX
  8
型材断面
 10
-115.5
 20
5.875
  0
VERTEX
  8
型材断面
 10
-115.475
 20
5.875
  0
VERTEX
  8
型材断面
 10
-115.45
 20
5.85
  0
VERTEX
  8
型材断面
 10
-115.425
 20
5.85
  0
VERTEX
  8
型材断面
 10
-115.4
 20
5.85
  0
SEQEND
  0
LINE
  8
型材断面
  6
CONTINUOUS
 62
    47
 10
-111.945447
 20
4.706343
 11
-116.18793
 21
6.120565
  0
LINE
  8
型材断面
  6
CONTINUOUS
 62
    47
 10
-112.40471
 20
4.247057
 11
-111.945447
 21
4.706343
  0
LINE
  8
型材断面
  6
CONTINUOUS
 62
    47
 10
-116.18793
 20
6.120565
 11
-126.597885
 21
-4.289852
  0
LINE
  8
型材断面
  6
CONTINUOUS
 62
    47
 10
-120.18769
 20
-4.289852
 11
-126.597885
 21
-4.289852
  0
LINE
  8
型材断面
  6
CONTINUOUS
 62
    47
 10
-115.851728
 20
5.396118
 11
-125.006955
 21
-3.759515
  0
LINE
  8
型材断面
  6
CONTINUOUS
 10
-120.18769
 20
-6.941525
 11
-119.269163
 21
-6.941525
  0
LINE
  8
型材断面
  6
CONTINUOUS
 10
-120.18769
 20
-5.173743
 11
-119.269163
 21
-5.173743
  0
POLYLINE
  8
型材断面
  6
CONTINUOUS
 66
     1
  0
VERTEX
  8
型材断面
 10
-119.275
 20
-4.3
  0
VERTEX
  8
型材断面
 10
-119.275
 20
-4.275
  0
VERTEX
  8
型材断面
 10
-119.275
 20
-4.275
  0
VERTEX
  8
型材断面
 10
-119.275
 20
-4.25
  0
VERTEX
  8
型材断面
 10
-119.3
 20
-4.225
  0
VERTEX
  8
型材断面
 10
-119.3
 20
-4.225
  0
VERTEX
  8
型材断面
 10
-119.3
 20
-4.2
  0
VERTEX
  8
型材断面
 10
-119.3
 20
-4.175
  0
VERTEX
  8
型材断面
 10
-119.3
 20
-4.175
  0
VERTEX
  8
型材断面
 10
-119.325
 20
-4.15
  0
VERTEX
  8
型材断面
 10
-119.325
 20
-4.125
  0
VERTEX
  8
型材断面
 10
-119.35
 20
-4.125
  0
VERTEX
  8
型材断面
 10
-119.35
 20
-4.1
  0
VERTEX
  8
型材断面
 10
-119.35
 20
-4.1
  0
VERTEX
  8
型材断面
 10
-119.375
 20
-4.075
  0
VERTEX
  8
型材断面
 10
-119.375
 20
-4.05
  0
VERTEX
  8
型材断面
 10
-119.4
 20
-4.05
  0
VERTEX
  8
型材断面
 10
-119.425
 20
-4.025
  0
VERTEX
  8
型材断面
 10
-119.425
 20
-4.025
  0
VERTEX
  8
型材断面
 10
-119.45
 20
-4.0
  0
VERTEX
  8
型材断面
 10
-119.475
 20
-3.975
  0
VERTEX
  8
型材断面
 10
-119.475
 20
-3.975
  0
VERTEX
  8
型材断面
 10
-119.5
 20
-3.95
  0
VERTEX
  8
型材断面
 10
-119.525
 20
-3.95
  0
VERTEX
  8
型材断面
 10
-119.55
 20
-3.925
  0
VERTEX
  8
型材断面
 10
-119.55
 20
-3.925
  0
VERTEX
  8
型材断面
 10
-119.575
 20
-3.9
  0
VERTEX
  8
型材断面
 10
-119.6
 20
-3.9
  0
VERTEX
  8
型材断面
 10
-119.625
 20
-3.9
  0
VERTEX
  8
型材断面
 10
-119.65
 20
-3.875
  0
VERTEX
  8
型材断面
 10
-119.675
 20
-3.875
  0
VERTEX
  8
型材断面
 10
-119.7
 20
-3.85
  0
VERTEX
  8
型材断面
 10
-119.725
 20
-3.85
  0
VERTEX
  8
型材断面
 10
-119.75
 20
-3.85
  0
VERTEX
  8
型材断面
 10
-119.775
 20
-3.825
  0
VERTEX
  8
型材断面
 10
-119.8
 20
-3.825
  0
VERTEX
  8
型材断面
 10
-119.825
 20
-3.825
  0
VERTEX
  8
型材断面
 10
-119.85
 20
-3.8
  0
VERTEX
  8
型材断面
 10
-119.875
 20
-3.8
  0
VERTEX
  8
型材断面
 10
-119.9
 20
-3.8
  0
VERTEX
  8
型材断面
 10
-119.95
 20
-3.8
  0
VERTEX
  8
型材断面
 10
-119.975
 20
-3.8
  0
VERTEX
  8
型材断面
 10
-120.0
 20
-3.775
  0
VERTEX
  8
型材断面
 10
-120.025
 20
-3.775
  0
VERTEX
  8
型材断面
 10
-120.05
 20
-3.775
  0
VERTEX
  8
型材断面
 10
-120.075
 20
-3.775
  0
VERTEX
  8
型材断面
 10
-120.1
 20
-3.775
  0
VERTEX
  8
型材断面
 10
-120.15
 20
-3.775
  0
VERTEX
  8
型材断面
 10
-120.175
 20
-3.775
  0
VERTEX
  8
型材断面
 10
-120.2
 20
-3.775
  0
SEQEND
  0
POLYLINE
  8
型材断面
  6
CONTINUOUS
 66
     1
  0
VERTEX
  8
型材断面
 10
-120.2
 20
-8.375
  0
VERTEX
  8
型材断面
 10
-120.175
 20
-8.375
  0
VERTEX
  8
型材断面
 10
-120.15
 20
-8.375
  0
VERTEX
  8
型材断面
 10
-120.1
 20
-8.375
  0
VERTEX
  8
型材断面
 10
-120.075
 20
-8.375
  0
VERTEX
  8
型材断面
 10
-120.05
 20
-8.35
  0
VERTEX
  8
型材断面
 10
-120.025
 20
-8.35
  0
VERTEX
  8
型材断面
 10
-120.0
 20
-8.35
  0
VERTEX
  8
型材断面
 10
-119.975
 20
-8.35
  0
VERTEX
  8
型材断面
 10
-119.95
 20
-8.35
  0
VERTEX
  8
型材断面
 10
-119.9
 20
-8.35
  0
VERTEX
  8
型材断面
 10
-119.875
 20
-8.325
  0
VERTEX
  8
型材断面
 10
-119.85
 20
-8.325
  0
VERTEX
  8
型材断面
 10
-119.825
 20
-8.325
  0
VERTEX
  8
型材断面
 10
-119.8
 20
-8.325
  0
VERTEX
  8
型材断面
 10
-119.775
 20
-8.3
  0
VERTEX
  8
型材断面
 10
-119.75
 20
-8.3
  0
VERTEX
  8
型材断面
 10
-119.725
 20
-8.3
  0
VERTEX
  8
型材断面
 10
-119.7
 20
-8.275
  0
VERTEX
  8
型材断面
 10
-119.675
 20
-8.275
  0
VERTEX
  8
型材断面
 10
-119.65
 20
-8.275
  0
VERTEX
  8
型材断面
 10
-119.625
 20
-8.25
  0
VERTEX
  8
型材断面
 10
-119.6
 20
-8.25
  0
VERTEX
  8
型材断面
 10
-119.575
 20
-8.225
  0
VERTEX
  8
型材断面
 10
-119.55
 20
-8.225
  0
VERTEX
  8
型材断面
 10
-119.55
 20
-8.2
  0
VERTEX
  8
型材断面
 10
-119.525
 20
-8.2
  0
VERTEX
  8
型材断面
 10
-119.5
 20
-8.175
  0
VERTEX
  8
型材断面
 10
-119.475
 20
-8.175
  0
VERTEX
  8
型材断面
 10
-119.475
 20
-8.15
  0
VERTEX
  8
型材断面
 10
-119.45
 20
-8.15
  0
VERTEX
  8
型材断面
 10
-119.425
 20
-8.125
  0
VERTEX
  8
型材断面
 10
-119.425
 20
-8.125
  0
VERTEX
  8
型材断面
 10
-119.4
 20
-8.1
  0
VERTEX
  8
型材断面
 10
-119.375
 20
-8.075
  0
VERTEX
  8
型材断面
 10
-119.375
 20
-8.075
  0
VERTEX
  8
型材断面
 10
-119.35
 20
-8.05
  0
VERTEX
  8
型材断面
 10
-119.35
 20
-8.025
  0
VERTEX
  8
型材断面
 10
-119.35
 20
-8.025
  0
VERTEX
  8
型材断面
 10
-119.325
 20
-8.0
  0
VERTEX
  8
型材断面
 10
-119.325
 20
-8.0
  0
VERTEX
  8
型材断面
 10
-119.3
 20
-7.975
  0
VERTEX
  8
型材断面
 10
-119.3
 20
-7.95
  0
VERTEX
  8
型材断面
 10
-119.3
 20
-7.95
  0
VERTEX
  8
型材断面
 10
-119.3
 20
-7.925
  0
VERTEX
  8
型材断面
 10
-119.3
 20
-7.9
  0
VERTEX
  8
型材断面
 10
-119.275
 20
-7.9
  0
VERTEX
  8
型材断面
 10
-119.275
 20
-7.875
  0
VERTEX
  8
型材断面
 10
-119.275
 20
-7.85
  0
VERTEX
  8
型材断面
 10
-119.275
 20
-7.85
  0
SEQEND
  0
LINE
  8
型材断面
  6
CONTINUOUS
 62
    47
 10
-125.006955
 20
-8.355747
 11
-119.269163
 21
-8.355747
  0
LINE
  8
型材断面
  6
CONTINUOUS
 10
-119.269163
 20
-8.355747
 11
-119.269163
 21
-3.759515
  0
LINE
  8
型材断面
  6
CONTINUOUS
 62
    47
 10
-125.006955
 20
-3.759515
 11
-119.269163
 21
-3.759515
  0
LINE
  8
St
  6
CONTINUOUS
 62
    47
 10
-119.958062
 20
-5.173743
 11
-119.958062
 21
-6.941525
  0
LINE
  8
St
  6
CONTINUOUS
 62
    47
 10
-119.728428
 20
-5.173743
 11
-119.728428
 21
-6.941525
  0
LINE
  8
St
  6
CONTINUOUS
 62
    47
 10
-119.498797
 20
-5.173743
 11
-119.498797
 21
-6.941525
  0
ENDBLK
  0
BLOCK
  2
*GRP_0058
 70
    65
 10
0.0
 20
0.0
  0
POLYLINE
  8
型材断面
  6
CONTINUOUS
 66
     1
  0
VERTEX
  8
型材断面
 10
-102.625
 20
-10.4
  0
VERTEX
  8
型材断面
 10
-102.625
 20
-10.375
  0
VERTEX
  8
型材断面
 10
-102.65
 20
-10.375
  0
VERTEX
  8
型材断面
 10
-102.675
 20
-10.35
  0
VERTEX
  8
型材断面
 10
-102.675
 20
-10.35
  0
VERTEX
  8
型材断面
 10
-102.675
 20
-10.325
  0
VERTEX
  8
型材断面
 10
-102.7
 20
-10.3
  0
VERTEX
  8
型材断面
 10
-102.7
 20
-10.3
  0
VERTEX
  8
型材断面
 10
-102.725
 20
-10.275
  0
VERTEX
  8
型材断面
 10
-102.725
 20
-10.25
  0
VERTEX
  8
型材断面
 10
-102.725
 20
-10.25
  0
VERTEX
  8
型材断面
 10
-102.725
 20
-10.225
  0
VERTEX
  8
型材断面
 10
-102.725
 20
-10.2
  0
VERTEX
  8
型材断面
 10
-102.75
 20
-10.2
  0
VERTEX
  8
型材断面
 10
-102.75
 20
-10.175
  0
VERTEX
  8
型材断面
 10
-102.75
 20
-10.15
  0
VERTEX
  8
型材断面
 10
-102.75
 20
-10.15
  0
VERTEX
  8
型材断面
 10
-102.75
 20
-10.125
  0
VERTEX
  8
型材断面
 10
-102.75
 20
-10.1
  0
VERTEX
  8
型材断面
 10
-102.75
 20
-10.1
  0
VERTEX
  8
型材断面
 10
-102.75
 20
-10.075
  0
VERTEX
  8
型材断面
 10
-102.725
 20
-10.05
  0
VERTEX
  8
型材断面
 10
-102.725
 20
-10.05
  0
VERTEX
  8
型材断面
 10
-102.725
 20
-10.025
  0
VERTEX
  8
型材断面
 10
-102.725
 20
-10.0
  0
VERTEX
  8
型材断面
 10
-102.7
 20
-10.0
  0
VERTEX
  8
型材断面
 10
-102.7
 20
-9.975
  0
VERTEX
  8
型材断面
 10
-102.7
 20
-9.95
  0
VERTEX
  8
型材断面
 10
-102.675
 20
-9.95
  0
VERTEX
  8
型材断面
 10
-102.675
 20
-9.925
  0
VERTEX
  8
型材断面
 10
-102.65
 20
-9.9
  0
VERTEX
  8
型材断面
 10
-102.65
 20
-9.9
  0
VERTEX
  8
型材断面
 10
-102.625
 20
-9.875
  0
VERTEX
  8
型材断面
 10
-102.625
 20
-9.875
  0
VERTEX
  8
型材断面
 10
-102.6
 20
-9.85
  0
VERTEX
  8
型材断面
 10
-102.575
 20
-9.825
  0
VERTEX
  8
型材断面
 10
-102.575
 20
-9.825
  0
VERTEX
  8
型材断面
 10
-102.55
 20
-9.8
  0
VERTEX
  8
型材断面
 10
-102.525
 20
-9.8
  0
VERTEX
  8
型材断面
 10
-102.5
 20
-9.775
  0
VERTEX
  8
型材断面
 10
-102.5
 20
-9.775
  0
VERTEX
  8
型材断面
 10
-102.475
 20
-9.75
  0
VERTEX
  8
型材断面
 10
-102.45
 20
-9.75
  0
VERTEX
  8
型材断面
 10
-102.425
 20
-9.725
  0
VERTEX
  8
型材断面
 10
-102.4
 20
-9.725
  0
VERTEX
  8
型材断面
 10
-102.375
 20
-9.7
  0
VERTEX
  8
型材断面
 10
-102.35
 20
-9.7
  0
VERTEX
  8
型材断面
 10
-102.325
 20
-9.7
  0
VERTEX
  8
型材断面
 10
-102.3
 20
-9.675
  0
VERTEX
  8
型材断面
 10
-102.275
 20
-9.675
  0
VERTEX
  8
型材断面
 10
-102.25
 20
-9.675
  0
VERTEX
  8
型材断面
 10
-102.225
 20
-9.65
  0
VERTEX
  8
型材断面
 10
-102.2
 20
-9.65
  0
VERTEX
  8
型材断面
 10
-102.175
 20
-9.65
  0
VERTEX
  8
型材断面
 10
-102.15
 20
-9.65
  0
VERTEX
  8
型材断面
 10
-102.125
 20
-9.625
  0
VERTEX
  8
型材断面
 10
-102.1
 20
-9.625
  0
VERTEX
  8
型材断面
 10
-102.05
 20
-9.625
  0
VERTEX
  8
型材断面
 10
-102.025
 20
-9.625
  0
VERTEX
  8
型材断面
 10
-102.0
 20
-9.625
  0
VERTEX
  8
型材断面
 10
-101.975
 20
-9.625
  0
VERTEX
  8
型材断面
 10
-101.95
 20
-9.6
  0
VERTEX
  8
型材断面
 10
-101.925
 20
-9.6
  0
VERTEX
  8
型材断面
 10
-101.875
 20
-9.6
  0
VERTEX
  8
型材断面
 10
-101.85
 20
-9.6
  0
VERTEX
  8
型材断面
 10
-101.825
 20
-9.6
  0
SEQEND
  0
LINE
  8
型材断面
  6
CONTINUOUS
 10
-104.025798
 20
-13.569228
 11
-103.56653
 21
-14.028507
  0
POLYLINE
  8
型材断面
  6
CONTINUOUS
 66
     1
  0
VERTEX
  8
型材断面
 10
-100.125
 20
-12.9
  0
VERTEX
  8
型材断面
 10
-100.1
 20
-12.875
  0
VERTEX
  8
型材断面
 10
-100.075
 20
-12.875
  0
VERTEX
  8
型材断面
 10
-100.05
 20
-12.875
  0
VERTEX
  8
型材断面
 10
-100.025
 20
-12.85
  0
VERTEX
  8
型材断面
 10
-100.0
 20
-12.85
  0
VERTEX
  8
型材断面
 10
-99.975
 20
-12.825
  0
VERTEX
  8
型材断面
 10
-99.975
 20
-12.825
  0
VERTEX
  8
型材断面
 10
-99.95
 20
-12.8
  0
VERTEX
  8
型材断面
 10
-99.925
 20
-12.8
  0
VERTEX
  8
型材断面
 10
-99.9
 20
-12.775
  0
VERTEX
  8
型材断面
 10
-99.875
 20
-12.775
  0
VERTEX
  8
型材断面
 10
-99.875
 20
-12.75
  0
VERTEX
  8
型材断面
 10
-99.85
 20
-12.75
  0
VERTEX
  8
型材断面
 10
-99.825
 20
-12.725
  0
VERTEX
  8
型材断面
 10
-99.8
 20
-12.725
  0
VERTEX
  8
型材断面
 10
-99.8
 20
-12.7
  0
VERTEX
  8
型材断面
 10
-99.775
 20
-12.675
  0
VERTEX
  8
型材断面
 10
-99.775
 20
-12.675
  0
VERTEX
  8
型材断面
 10
-99.75
 20
-12.65
  0
VERTEX
  8
型材断面
 10
-99.75
 20
-12.625
  0
VERTEX
  8
型材断面
 10
-99.725
 20
-12.625
  0
VERTEX
  8
型材断面
 10
-99.725
 20
-12.6
  0
VERTEX
  8
型材断面
 10
-99.7
 20
-12.575
  0
VERTEX
  8
型材断面
 10
-99.7
 20
-12.575
  0
VERTEX
  8
型材断面
 10
-99.7
 20
-12.55
  0
VERTEX
  8
型材断面
 10
-99.7
 20
-12.525
  0
VERTEX
  8
型材断面
 10
-99.675
 20
-12.525
  0
VERTEX
  8
型材断面
 10
-99.675
 20
-12.5
  0
VERTEX
  8
型材断面
 10
-99.675
 20
-12.475
  0
VERTEX
  8
型材断面
 10
-99.675
 20
-12.475
  0
VERTEX
  8
型材断面
 10
-99.675
 20
-12.45
  0
VERTEX
  8
型材断面
 10
-99.675
 20
-12.425
  0
VERTEX
  8
型材断面
 10
-99.675
 20
-12.425
  0
VERTEX
  8
型材断面
 10
-99.675
 20
-12.4
  0
VERTEX
  8
型材断面
 10
-99.675
 20
-12.375
  0
VERTEX
  8
型材断面
 10
-99.675
 20
-12.375
  0
VERTEX
  8
型材断面
 10
-99.675
 20
-12.35
  0
VERTEX
  8
型材断面
 10
-99.7
 20
-12.325
  0
VERTEX
  8
型材断面
 10
-99.7
 20
-12.3
  0
VERTEX
  8
型材断面
 10
-99.7
 20
-12.3
  0
VERTEX
  8
型材断面
 10
-99.7
 20
-12.275
  0
VERTEX
  8
型材断面
 10
-99.725
 20
-12.25
  0
VERTEX
  8
型材断面
 10
-99.725
 20
-12.25
  0
VERTEX
  8
型材断面
 10
-99.75
 20
-12.225
  0
VERTEX
  8
型材断面
 10
-99.75
 20
-12.225
  0
VERTEX
  8
型材断面
 10
-99.775
 20
-12.2
  0
VERTEX
  8
型材断面
 10
-99.775
 20
-12.175
  0
VERTEX
  8
型材断面
 10
-99.8
 20
-12.175
  0
SEQEND
  0
LINE
  8
型材断面
  6
CONTINUOUS
 10
-103.405615
 20
-9.593195
 11
-100.578773
 21
-12.42017
  0
LINE
  8
型材断面
  6
CONTINUOUS
 10
-104.025798
 20
-13.569228
 11
-100.578773
 21
-12.42017
  0
LINE
  8
型材断面
  6
CONTINUOUS
 10
-101.814682
 20
-10.123528
 11
-99.324047
 21
-12.614285
  0
LINE
  8
型材断面
  6
CONTINUOUS
 10
-103.56653
 20
-14.028507
 11
-99.324047
 21
-12.614285
  0
LINE
  8
型材断面
  6
CONTINUOUS
 10
-98.510483
 20
-10.123528
 11
-98.510483
 21
-9.593195
  0
LINE
  8
型材断面
  6
CONTINUOUS
 10
-95.938615
 20
-9.593195
 11
-95.938615
 21
-10.123528
  0
LINE
  8
型材断面
  6
CONTINUOUS
 10
-95.938615
 20
-9.725778
 11
-98.510483
 21
-9.725778
  0
LINE
  8
型材断面
  6
CONTINUOUS
 10
-95.938615
 20
-9.858363
 11
-98.510483
 21
-9.858363
  0
LINE
  8
型材断面
  6
CONTINUOUS
 10
-95.938615
 20
-9.990942
 11
-98.510483
 21
-9.990942
  0
LINE
  8
型材断面
  6
CONTINUOUS
 10
-94.77515
 20
-9.593195
 11
-103.405615
 21
-9.593195
  0
LINE
  8
型材断面
  6
CONTINUOUS
 10
-94.77515
 20
-10.123528
 11
-94.77515
 21
-9.593195
  0
LINE
  8
型材断面
  6
CONTINUOUS
 10
-101.814682
 20
-10.123528
 11
-94.77515
 21
-10.123528
  0
ENDBLK
  0
BLOCK
  2
*GRP_0059
 70
    65
 10
0.0
 20
0.0
  0
POLYLINE
  8
型材断面
  6
CONTINUOUS
 66
     1
  0
VERTEX
  8
型材断面
 10
-101.825
 20
-2.525
  0
VERTEX
  8
型材断面
 10
-101.85
 20
-2.525
  0
VERTEX
  8
型材断面
 10
-101.875
 20
-2.525
  0
VERTEX
  8
型材断面
 10
-101.925
 20
-2.525
  0
VERTEX
  8
型材断面
 10
-101.95
 20
-2.525
  0
VERTEX
  8
型材断面
 10
-101.975
 20
-2.525
  0
VERTEX
  8
型材断面
 10
-102.0
 20
-2.525
  0
VERTEX
  8
型材断面
 10
-102.025
 20
-2.525
  0
VERTEX
  8
型材断面
 10
-102.05
 20
-2.525
  0
VERTEX
  8
型材断面
 10
-102.1
 20
-2.5
  0
VERTEX
  8
型材断面
 10
-102.125
 20
-2.5
  0
VERTEX
  8
型材断面
 10
-102.15
 20
-2.5
  0
VERTEX
  8
型材断面
 10
-102.175
 20
-2.5
  0
VERTEX
  8
型材断面
 10
-102.2
 20
-2.5
  0
VERTEX
  8
型材断面
 10
-102.225
 20
-2.475
  0
VERTEX
  8
型材断面
 10
-102.25
 20
-2.475
  0
VERTEX
  8
型材断面
 10
-102.275
 20
-2.475
  0
VERTEX
  8
型材断面
 10
-102.3
 20
-2.45
  0
VERTEX
  8
型材断面
 10
-102.325
 20
-2.45
  0
VERTEX
  8
型材断面
 10
-102.35
 20
-2.45
  0
VERTEX
  8
型材断面
 10
-102.375
 20
-2.425
  0
VERTEX
  8
型材断面
 10
-102.4
 20
-2.425
  0
VERTEX
  8
型材断面
 10
-102.425
 20
-2.4
  0
VERTEX
  8
型材断面
 10
-102.45
 20
-2.4
  0
VERTEX
  8
型材断面
 10
-102.475
 20
-2.375
  0
VERTEX
  8
型材断面
 10
-102.5
 20
-2.375
  0
VERTEX
  8
型材断面
 10
-102.5
 20
-2.35
  0
VERTEX
  8
型材断面
 10
-102.525
 20
-2.35
  0
VERTEX
  8
型材断面
 10
-102.55
 20
-2.325
  0
VERTEX
  8
型材断面
 10
-102.575
 20
-2.325
  0
VERTEX
  8
型材断面
 10
-102.575
 20
-2.3
  0
VERTEX
  8
型材断面
 10
-102.6
 20
-2.3
  0
VERTEX
  8
型材断面
 10
-102.625
 20
-2.275
  0
VERTEX
  8
型材断面
 10
-102.625
 20
-2.25
  0
VERTEX
  8
型材断面
 10
-102.65
 20
-2.25
  0
VERTEX
  8
型材断面
 10
-102.65
 20
-2.225
  0
VERTEX
  8
型材断面
 10
-102.675
 20
-2.225
  0
VERTEX
  8
型材断面
 10
-102.675
 20
-2.2
  0
VERTEX
  8
型材断面
 10
-102.7
 20
-2.175
  0
VERTEX
  8
型材断面
 10
-102.7
 20
-2.175
  0
VERTEX
  8
型材断面
 10
-102.7
 20
-2.15
  0
VERTEX
  8
型材断面
 10
-102.725
 20
-2.125
  0
VERTEX
  8
型材断面
 10
-102.725
 20
-2.125
  0
VERTEX
  8
型材断面
 10
-102.725
 20
-2.1
  0
VERTEX
  8
型材断面
 10
-102.725
 20
-2.075
  0
VERTEX
  8
型材断面
 10
-102.75
 20
-2.075
  0
VERTEX
  8
型材断面
 10
-102.75
 20
-2.05
  0
VERTEX
  8
型材断面
 10
-102.75
 20
-2.025
  0
VERTEX
  8
型材断面
 10
-102.75
 20
-2.025
  0
VERTEX
  8
型材断面
 10
-102.75
 20
-2.0
  0
VERTEX
  8
型材断面
 10
-102.75
 20
-1.975
  0
VERTEX
  8
型材断面
 10
-102.75
 20
-1.975
  0
VERTEX
  8
型材断面
 10
-102.75
 20
-1.95
  0
VERTEX
  8
型材断面
 10
-102.725
 20
-1.925
  0
VERTEX
  8
型材断面
 10
-102.725
 20
-1.925
  0
VERTEX
  8
型材断面
 10
-102.725
 20
-1.9
  0
VERTEX
  8
型材断面
 10
-102.725
 20
-1.875
  0
VERTEX
  8
型材断面
 10
-102.725
 20
-1.875
  0
VERTEX
  8
型材断面
 10
-102.7
 20
-1.85
  0
VERTEX
  8
型材断面
 10
-102.7
 20
-1.825
  0
VERTEX
  8
型材断面
 10
-102.675
 20
-1.825
  0
VERTEX
  8
型材断面
 10
-102.675
 20
-1.8
  0
VERTEX
  8
型材断面
 10
-102.675
 20
-1.775
  0
VERTEX
  8
型材断面
 10
-102.65
 20
-1.775
  0
VERTEX
  8
型材断面
 10
-102.625
 20
-1.75
  0
VERTEX
  8
型材断面
 10
-102.625
 20
-1.75
  0
SEQEND
  0
LINE
  8
型材断面
  6
CONTINUOUS
 10
-104.025798
 20
1.45396
 11
-103.56653
 21
1.913245
  0
POLYLINE
  8
型材断面
  6
CONTINUOUS
 66
     1
  0
VERTEX
  8
型材断面
 10
-99.8
 20
0.025
  0
VERTEX
  8
型材断面
 10
-99.775
 20
0.05
  0
VERTEX
  8
型材断面
 10
-99.775
 20
0.05
  0
VERTEX
  8
型材断面
 10
-99.75
 20
0.075
  0
VERTEX
  8
型材断面
 10
-99.75
 20
0.1
  0
VERTEX
  8
型材断面
 10
-99.725
 20
0.1
  0
VERTEX
  8
型材断面
 10
-99.725
 20
0.125
  0
VERTEX
  8
型材断面
 10
-99.7
 20
0.15
  0
VERTEX
  8
型材断面
 10
-99.7
 20
0.15
  0
VERTEX
  8
型材断面
 10
-99.7
 20
0.175
  0
VERTEX
  8
型材断面
 10
-99.7
 20
0.2
  0
VERTEX
  8
型材断面
 10
-99.675
 20
0.2
  0
VERTEX
  8
型材断面
 10
-99.675
 20
0.225
  0
VERTEX
  8
型材断面
 10
-99.675
 20
0.25
  0
VERTEX
  8
型材断面
 10
-99.675
 20
0.25
  0
VERTEX
  8
型材断面
 10
-99.675
 20
0.275
  0
VERTEX
  8
型材断面
 10
-99.675
 20
0.3
  0
VERTEX
  8
型材断面
 10
-99.675
 20
0.3
  0
VERTEX
  8
型材断面
 10
-99.675
 20
0.325
  0
VERTEX
  8
型材断面
 10
-99.675
 20
0.35
  0
VERTEX
  8
型材断面
 10
-99.675
 20
0.35
  0
VERTEX
  8
型材断面
 10
-99.675
 20
0.375
  0
VERTEX
  8
型材断面
 10
-99.7
 20
0.4
  0
VERTEX
  8
型材断面
 10
-99.7
 20
0.425
  0
VERTEX
  8
型材断面
 10
-99.7
 20
0.425
  0
VERTEX
  8
型材断面
 10
-99.7
 20
0.45
  0
VERTEX
  8
型材断面
 10
-99.725
 20
0.475
  0
VERTEX
  8
型材断面
 10
-99.725
 20
0.475
  0
VERTEX
  8
型材断面
 10
-99.75
 20
0.5
  0
VERTEX
  8
型材断面
 10
-99.75
 20
0.5
  0
VERTEX
  8
型材断面
 10
-99.775
 20
0.525
  0
VERTEX
  8
型材断面
 10
-99.775
 20
0.55
  0
VERTEX
  8
型材断面
 10
-99.8
 20
0.55
  0
VERTEX
  8
型材断面
 10
-99.8
 20
0.575
  0
VERTEX
  8
型材断面
 10
-99.825
 20
0.575
  0
VERTEX
  8
型材断面
 10
-99.85
 20
0.6
  0
VERTEX
  8
型材断面
 10
-99.875
 20
0.625
  0
VERTEX
  8
型材断面
 10
-99.875
 20
0.625
  0
VERTEX
  8
型材断面
 10
-99.9
 20
0.65
  0
VERTEX
  8
型材断面
 10
-99.925
 20
0.65
  0
VERTEX
  8
型材断面
 10
-99.95
 20
0.675
  0
VERTEX
  8
型材断面
 10
-99.975
 20
0.675
  0
VERTEX
  8
型材断面
 10
-99.975
 20
0.7
  0
VERTEX
  8
型材断面
 10
-100.0
 20
0.7
  0
VERTEX
  8
型材断面
 10
-100.025
 20
0.725
  0
VERTEX
  8
型材断面
 10
-100.05
 20
0.725
  0
VERTEX
  8
型材断面
 10
-100.075
 20
0.725
  0
VERTEX
  8
型材断面
 10
-100.1
 20
0.75
  0
VERTEX
  8
型材断面
 10
-100.125
 20
0.75
  0
SEQEND
  0
LINE
  8
型材断面
  6
CONTINUOUS
 10
-103.405615
 20
-2.522067
 11
-100.578773
 21
0.304903
  0
LINE
  8
型材断面
  6
CONTINUOUS
 10
-104.025798
 20
1.45396
 11
-100.578773
 21
0.304903
  0
LINE
  8
型材断面
  6
CONTINUOUS
 10
-101.814682
 20
-1.991735
 11
-99.324047
 21
0.499022
  0
LINE
  8
型材断面
  6
CONTINUOUS
 10
-103.56653
 20
1.913245
 11
-99.324047
 21
0.499022
  0
LINE
  8
型材断面
  6
CONTINUOUS
 10
-98.510483
 20
-1.991735
 11
-98.510483
 21
-2.522067
  0
LINE
  8
型材断面
  6
CONTINUOUS
 10
-95.938615
 20
-2.522067
 11
-95.938615
 21
-1.991735
  0
LINE
  8
型材断面
  6
CONTINUOUS
 10
-95.938615
 20
-2.389487
 11
-98.510483
 21
-2.389487
  0
LINE
  8
型材断面
  6
CONTINUOUS
 10
-95.938615
 20
-2.256902
 11
-98.510483
 21
-2.256902
  0
LINE
  8
型材断面
  6
CONTINUOUS
 10
-95.938615
 20
-2.12432
 11
-98.510483
 21
-2.12432
  0
LINE
  8
型材断面
  6
CONTINUOUS
 10
-94.77515
 20
-2.522067
 11
-103.405615
 21
-2.522067
  0
LINE
  8
型材断面
  6
CONTINUOUS
 10
-94.77515
 20
-1.991735
 11
-94.77515
 21
-2.522067
  0
LINE
  8
型材断面
  6
CONTINUOUS
 10
-101.814682
 20
-1.991735
 11
-94.77515
 21
-1.991735
  0
ENDBLK
  0
BLOCK
  2
*GRP_0060
 70
    65
 10
0.0
 20
0.0
  0
POLYLINE
  8
型材断面
  6
CONTINUOUS
 66
     1
  0
VERTEX
  8
型材断面
 10
-93.875
 20
-10.125
  0
VERTEX
  8
型材断面
 10
-93.9
 20
-10.125
  0
VERTEX
  8
型材断面
 10
-93.925
 20
-10.125
  0
VERTEX
  8
型材断面
 10
-93.95
 20
-10.125
  0
VERTEX
  8
型材断面
 10
-93.975
 20
-10.125
  0
VERTEX
  8
型材断面
 10
-94.025
 20
-10.125
  0
VERTEX
  8
型材断面
 10
-94.05
 20
-10.125
  0
VERTEX
  8
型材断面
 10
-94.075
 20
-10.125
  0
VERTEX
  8
型材断面
 10
-94.1
 20
-10.125
  0
VERTEX
  8
型材断面
 10
-94.125
 20
-10.125
  0
VERTEX
  8
型材断面
 10
-94.15
 20
-10.1
  0
VERTEX
  8
型材断面
 10
-94.175
 20
-10.1
  0
VERTEX
  8
型材断面
 10
-94.225
 20
-10.1
  0
VERTEX
  8
型材断面
 10
-94.25
 20
-10.1
  0
VERTEX
  8
型材断面
 10
-94.275
 20
-10.075
  0
VERTEX
  8
型材断面
 10
-94.3
 20
-10.075
  0
VERTEX
  8
型材断面
 10
-94.325
 20
-10.075
  0
VERTEX
  8
型材断面
 10
-94.35
 20
-10.05
  0
VERTEX
  8
型材断面
 10
-94.375
 20
-10.05
  0
VERTEX
  8
型材断面
 10
-94.4
 20
-10.05
  0
VERTEX
  8
型材断面
 10
-94.425
 20
-10.025
  0
VERTEX
  8
型材断面
 10
-94.45
 20
-10.025
  0
VERTEX
  8
型材断面
 10
-94.475
 20
-10.0
  0
VERTEX
  8
型材断面
 10
-94.475
 20
-10.0
  0
VERTEX
  8
型材断面
 10
-94.5
 20
-9.975
  0
VERTEX
  8
型材断面
 10
-94.525
 20
-9.975
  0
VERTEX
  8
型材断面
 10
-94.55
 20
-9.95
  0
VERTEX
  8
型材断面
 10
-94.575
 20
-9.95
  0
VERTEX
  8
型材断面
 10
-94.575
 20
-9.925
  0
VERTEX
  8
型材断面
 10
-94.6
 20
-9.925
  0
VERTEX
  8
型材断面
 10
-94.625
 20
-9.9
  0
VERTEX
  8
型材断面
 10
-94.65
 20
-9.9
  0
VERTEX
  8
型材断面
 10
-94.65
 20
-9.875
  0
VERTEX
  8
型材断面
 10
-94.675
 20
-9.875
  0
VERTEX
  8
型材断面
 10
-94.675
 20
-9.85
  0
VERTEX
  8
型材断面
 10
-94.7
 20
-9.825
  0
VERTEX
  8
型材断面
 10
-94.7
 20
-9.825
  0
VERTEX
  8
型材断面
 10
-94.725
 20
-9.8
  0
VERTEX
  8
型材断面
 10
-94.725
 20
-9.8
  0
VERTEX
  8
型材断面
 10
-94.75
 20
-9.775
  0
VERTEX
  8
型材断面
 10
-94.75
 20
-9.75
  0
VERTEX
  8
型材断面
 10
-94.75
 20
-9.75
  0
VERTEX
  8
型材断面
 10
-94.775
 20
-9.725
  0
VERTEX
  8
型材断面
 10
-94.775
 20
-9.7
  0
VERTEX
  8
型材断面
 10
-94.775
 20
-9.7
  0
VERTEX
  8
型材断面
 10
-94.775
 20
-9.675
  0
VERTEX
  8
型材断面
 10
-94.775
 20
-9.65
  0
VERTEX
  8
型材断面
 10
-94.775
 20
-9.65
  0
VERTEX
  8
型材断面
 10
-94.775
 20
-9.625
  0
VERTEX
  8
型材断面
 10
-94.8
 20
-9.6
  0
SEQEND
  0
LINE
  8
型材断面
  6
CONTINUOUS
 10
-94.77515
 20
-6.057632
 11
-94.77515
 21
-10.123528
  0
LINE
  8
型材断面
  6
CONTINUOUS
 10
-93.856622
 20
-6.057632
 11
-93.856622
 21
-9.593195
  0
POLYLINE
  8
型材断面
  6
CONTINUOUS
 66
     1
  0
VERTEX
  8
型材断面
 10
-89.275
 20
-10.125
  0
VERTEX
  8
型材断面
 10
-89.275
 20
-10.125
  0
VERTEX
  8
型材断面
 10
-89.275
 20
-10.1
  0
VERTEX
  8
型材断面
 10
-89.275
 20
-10.075
  0
VERTEX
  8
型材断面
 10
-89.275
 20
-10.075
  0
VERTEX
  8
型材断面
 10
-89.3
 20
-10.05
  0
VERTEX
  8
型材断面
 10
-89.3
 20
-10.025
  0
VERTEX
  8
型材断面
 10
-89.3
 20
-10.025
  0
VERTEX
  8
型材断面
 10
-89.3
 20
-10.0
  0
VERTEX
  8
型材断面
 10
-89.325
 20
-9.975
  0
VERTEX
  8
型材断面
 10
-89.325
 20
-9.975
  0
VERTEX
  8
型材断面
 10
-89.325
 20
-9.95
  0
VERTEX
  8
型材断面
 10
-89.35
 20
-9.925
  0
VERTEX
  8
型材断面
 10
-89.35
 20
-9.925
  0
VERTEX
  8
型材断面
 10
-89.375
 20
-9.9
  0
VERTEX
  8
型材断面
 10
-89.375
 20
-9.9
  0
VERTEX
  8
型材断面
 10
-89.4
 20
-9.875
  0
VERTEX
  8
型材断面
 10
-89.4
 20
-9.85
  0
VERTEX
  8
型材断面
 10
-89.425
 20
-9.85
  0
VERTEX
  8
型材断面
 10
-89.45
 20
-9.825
  0
VERTEX
  8
型材断面
 10
-89.45
 20
-9.825
  0
VERTEX
  8
型材断面
 10
-89.475
 20
-9.8
  0
VERTEX
  8
型材断面
 10
-89.5
 20
-9.8
  0
VERTEX
  8
型材断面
 10
-89.525
 20
-9.775
  0
VERTEX
  8
型材断面
 10
-89.525
 20
-9.775
  0
VERTEX
  8
型材断面
 10
-89.55
 20
-9.75
  0
VERTEX
  8
型材断面
 10
-89.575
 20
-9.75
  0
VERTEX
  8
型材断面
 10
-89.6
 20
-9.725
  0
VERTEX
  8
型材断面
 10
-89.625
 20
-9.725
  0
VERTEX
  8
型材断面
 10
-89.65
 20
-9.7
  0
VERTEX
  8
型材断面
 10
-89.675
 20
-9.7
  0
VERTEX
  8
型材断面
 10
-89.7
 20
-9.7
  0
VERTEX
  8
型材断面
 10
-89.725
 20
-9.675
  0
VERTEX
  8
型材断面
 10
-89.75
 20
-9.675
  0
VERTEX
  8
型材断面
 10
-89.775
 20
-9.675
  0
VERTEX
  8
型材断面
 10
-89.8
 20
-9.65
  0
VERTEX
  8
型材断面
 10
-89.825
 20
-9.65
  0
VERTEX
  8
型材断面
 10
-89.85
 20
-9.65
  0
VERTEX
  8
型材断面
 10
-89.875
 20
-9.65
  0
VERTEX
  8
型材断面
 10
-89.9
 20
-9.625
  0
VERTEX
  8
型材断面
 10
-89.925
 20
-9.625
  0
VERTEX
  8
型材断面
 10
-89.95
 20
-9.625
  0
VERTEX
  8
型材断面
 10
-90.0
 20
-9.625
  0
VERTEX
  8
型材断面
 10
-90.025
 20
-9.625
  0
VERTEX
  8
型材断面
 10
-90.05
 20
-9.6
  0
VERTEX
  8
型材断面
 10
-90.075
 20
-9.6
  0
VERTEX
  8
型材断面
 10
-90.1
 20
-9.6
  0
VERTEX
  8
型材断面
 10
-90.125
 20
-9.6
  0
VERTEX
  8
型材断面
 10
-90.175
 20
-9.6
  0
VERTEX
  8
型材断面
 10
-90.2
 20
-9.6
  0
SEQEND
  0
POLYLINE
  8
型材断面
  6
CONTINUOUS
 66
     1
  0
VERTEX
  8
型材断面
 10
-90.2
 20
-10.325
  0
VERTEX
  8
型材断面
 10
-90.2
 20
-10.3
  0
VERTEX
  8
型材断面
 10
-90.2
 20
-10.3
  0
VERTEX
  8
型材断面
 10
-90.2
 20
-10.3
  0
VERTEX
  8
型材断面
 10
-90.2
 20
-10.3
  0
VERTEX
  8
型材断面
 10
-90.2
 20
-10.275
  0
VERTEX
  8
型材断面
 10
-90.2
 20
-10.275
  0
VERTEX
  8
型材断面
 10
-90.2
 20
-10.275
  0
VERTEX
  8
型材断面
 10
-90.2
 20
-10.275
  0
VERTEX
  8
型材断面
 10
-90.2
 20
-10.275
  0
VERTEX
  8
型材断面
 10
-90.2
 20
-10.25
  0
VERTEX
  8
型材断面
 10
-90.225
 20
-10.25
  0
VERTEX
  8
型材断面
 10
-90.225
 20
-10.25
  0
VERTEX
  8
型材断面
 10
-90.225
 20
-10.25
  0
VERTEX
  8
型材断面
 10
-90.225
 20
-10.225
  0
VERTEX
  8
型材断面
 10
-90.225
 20
-10.225
  0
VERTEX
  8
型材断面
 10
-90.225
 20
-10.225
  0
VERTEX
  8
型材断面
 10
-90.25
 20
-10.225
  0
VERTEX
  8
型材断面
 10
-90.25
 20
-10.225
  0
VERTEX
  8
型材断面
 10
-90.25
 20
-10.2
  0
VERTEX
  8
型材断面
 10
-90.25
 20
-10.2
  0
VERTEX
  8
型材断面
 10
-90.25
 20
-10.2
  0
VERTEX
  8
型材断面
 10
-90.275
 20
-10.2
  0
VERTEX
  8
型材断面
 10
-90.275
 20
-10.2
  0
VERTEX
  8
型材断面
 10
-90.275
 20
-10.2
  0
VERTEX
  8
型材断面
 10
-90.3
 20
-10.175
  0
VERTEX
  8
型材断面
 10
-90.3
 20
-10.175
  0
VERTEX
  8
型材断面
 10
-90.3
 20
-10.175
  0
VERTEX
  8
型材断面
 10
-90.3
 20
-10.175
  0
VERTEX
  8
型材断面
 10
-90.325
 20
-10.175
  0
VERTEX
  8
型材断面
 10
-90.325
 20
-10.175
  0
VERTEX
  8
型材断面
 10
-90.325
 20
-10.175
  0
VERTEX
  8
型材断面
 10
-90.35
 20
-10.15
  0
VERTEX
  8
型材断面
 10
-90.35
 20
-10.15
  0
VERTEX
  8
型材断面
 10
-90.35
 20
-10.15
  0
VERTEX
  8
型材断面
 10
-90.375
 20
-10.15
  0
VERTEX
  8
型材断面
 10
-90.375
 20
-10.15
  0
VERTEX
  8
型材断面
 10
-90.375
 20
-10.15
  0
VERTEX
  8
型材断面
 10
-90.4
 20
-10.15
  0
VERTEX
  8
型材断面
 10
-90.4
 20
-10.15
  0
VERTEX
  8
型材断面
 10
-90.425
 20
-10.15
  0
VERTEX
  8
型材断面
 10
-90.425
 20
-10.15
  0
VERTEX
  8
型材断面
 10
-90.425
 20
-10.15
  0
VERTEX
  8
型材断面
 10
-90.45
 20
-10.15
  0
VERTEX
  8
型材断面
 10
-90.45
 20
-10.15
  0
VERTEX
  8
型材断面
 10
-90.45
 20
-10.125
  0
VERTEX
  8
型材断面
 10
-90.475
 20
-10.125
  0
VERTEX
  8
型材断面
 10
-90.475
 20
-10.125
  0
VERTEX
  8
型材断面
 10
-90.5
 20
-10.125
  0
VERTEX
  8
型材断面
 10
-90.5
 20
-10.125
  0
SEQEND
  0
LINE
  8
型材断面
  6
CONTINUOUS
 10
-93.965747
 20
-14.0837
 11
-93.506485
 21
-14.542985
  0
LINE
  8
型材断面
  6
CONTINUOUS
 10
-93.965747
 20
-14.0837
 11
-90.182522
 21
-12.822567
  0
LINE
  8
型材断面
  6
CONTINUOUS
 10
-90.182522
 20
-10.30031
 11
-90.182522
 21
-12.822567
  0
LINE
  8
型材断面
  6
CONTINUOUS
 10
-94.77515
 20
-10.123528
 11
-90.488698
 21
-10.123528
  0
LINE
  8
型材断面
  6
CONTINUOUS
 10
-93.856622
 20
-9.593195
 11
-89.263998
 21
-9.593195
  0
POLYLINE
  8
型材断面
  6
CONTINUOUS
 66
     1
  0
VERTEX
  8
型材断面
 10
-89.725
 20
-13.3
  0
VERTEX
  8
型材断面
 10
-89.7
 20
-13.275
  0
VERTEX
  8
型材断面
 10
-89.675
 20
-13.275
  0
VERTEX
  8
型材断面
 10
-89.65
 20
-13.275
  0
VERTEX
  8
型材断面
 10
-89.625
 20
-13.25
  0
VERTEX
  8
型材断面
 10
-89.6
 20
-13.25
  0
VERTEX
  8
型材断面
 10
-89.6
 20
-13.225
  0
VERTEX
  8
型材断面
 10
-89.575
 20
-13.225
  0
VERTEX
  8
型材断面
 10
-89.55
 20
-13.2
  0
VERTEX
  8
型材断面
 10
-89.525
 20
-13.2
  0
VERTEX
  8
型材断面
 10
-89.5
 20
-13.175
  0
VERTEX
  8
型材断面
 10
-89.475
 20
-13.175
  0
VERTEX
  8
型材断面
 10
-89.475
 20
-13.15
  0
VERTEX
  8
型材断面
 10
-89.45
 20
-13.15
  0
VERTEX
  8
型材断面
 10
-89.425
 20
-13.125
  0
VERTEX
  8
型材断面
 10
-89.425
 20
-13.125
  0
VERTEX
  8
型材断面
 10
-89.4
 20
-13.1
  0
VERTEX
  8
型材断面
 10
-89.375
 20
-13.075
  0
VERTEX
  8
型材断面
 10
-89.375
 20
-13.075
  0
VERTEX
  8
型材断面
 10
-89.35
 20
-13.05
  0
VERTEX
  8
型材断面
 10
-89.35
 20
-13.05
  0
VERTEX
  8
型材断面
 10
-89.325
 20
-13.025
  0
VERTEX
  8
型材断面
 10
-89.325
 20
-13.0
  0
VERTEX
  8
型材断面
 10
-89.325
 20
-13.0
  0
VERTEX
  8
型材断面
 10
-89.3
 20
-12.975
  0
VERTEX
  8
型材断面
 10
-89.3
 20
-12.95
  0
VERTEX
  8
型材断面
 10
-89.3
 20
-12.95
  0
VERTEX
  8
型材断面
 10
-89.3
 20
-12.925
  0
VERTEX
  8
型材断面
 10
-89.275
 20
-12.9
  0
VERTEX
  8
型材断面
 10
-89.275
 20
-12.875
  0
VERTEX
  8
型材断面
 10
-89.275
 20
-12.875
  0
VERTEX
  8
型材断面
 10
-89.275
 20
-12.85
  0
VERTEX
  8
型材断面
 10
-89.275
 20
-12.825
  0
SEQEND
  0
LINE
  8
型材断面
  6
CONTINUOUS
 10
-93.506485
 20
-14.542985
 11
-89.263998
 21
-13.128755
  0
LINE
  8
型材断面
  6
CONTINUOUS
 10
-89.263998
 20
-9.593195
 11
-89.263998
 21
-13.128755
  0
POLYLINE
  8
型材断面
  6
CONTINUOUS
 66
     1
  0
VERTEX
  8
型材断面
 10
-94.8
 20
-2.525
  0
VERTEX
  8
型材断面
 10
-94.775
 20
-2.525
  0
VERTEX
  8
型材断面
 10
-94.775
 20
-2.5
  0
VERTEX
  8
型材断面
 10
-94.775
 20
-2.475
  0
VERTEX
  8
型材断面
 10
-94.775
 20
-2.475
  0
VERTEX
  8
型材断面
 10
-94.775
 20
-2.45
  0
VERTEX
  8
型材断面
 10
-94.775
 20
-2.425
  0
VERTEX
  8
型材断面
 10
-94.775
 20
-2.425
  0
VERTEX
  8
型材断面
 10
-94.75
 20
-2.4
  0
VERTEX
  8
型材断面
 10
-94.75
 20
-2.375
  0
VERTEX
  8
型材断面
 10
-94.75
 20
-2.375
  0
VERTEX
  8
型材断面
 10
-94.725
 20
-2.35
  0
VERTEX
  8
型材断面
 10
-94.725
 20
-2.325
  0
VERTEX
  8
型材断面
 10
-94.7
 20
-2.325
  0
VERTEX
  8
型材断面
 10
-94.7
 20
-2.3
  0
VERTEX
  8
型材断面
 10
-94.675
 20
-2.3
  0
VERTEX
  8
型材断面
 10
-94.675
 20
-2.275
  0
VERTEX
  8
型材断面
 10
-94.65
 20
-2.25
  0
VERTEX
  8
型材断面
 10
-94.65
 20
-2.25
  0
VERTEX
  8
型材断面
 10
-94.625
 20
-2.225
  0
VERTEX
  8
型材断面
 10
-94.6
 20
-2.225
  0
VERTEX
  8
型材断面
 10
-94.575
 20
-2.2
  0
VERTEX
  8
型材断面
 10
-94.575
 20
-2.2
  0
VERTEX
  8
型材断面
 10
-94.55
 20
-2.175
  0
VERTEX
  8
型材断面
 10
-94.525
 20
-2.175
  0
VERTEX
  8
型材断面
 10
-94.5
 20
-2.15
  0
VERTEX
  8
型材断面
 10
-94.475
 20
-2.15
  0
VERTEX
  8
型材断面
 10
-94.475
 20
-2.125
  0
VERTEX
  8
型材断面
 10
-94.45
 20
-2.125
  0
VERTEX
  8
型材断面
 10
-94.425
 20
-2.1
  0
VERTEX
  8
型材断面
 10
-94.4
 20
-2.1
  0
VERTEX
  8
型材断面
 10
-94.375
 20
-2.1
  0
VERTEX
  8
型材断面
 10
-94.35
 20
-2.075
  0
VERTEX
  8
型材断面
 10
-94.325
 20
-2.075
  0
VERTEX
  8
型材断面
 10
-94.3
 20
-2.075
  0
VERTEX
  8
型材断面
 10
-94.275
 20
-2.05
  0
VERTEX
  8
型材断面
 10
-94.25
 20
-2.05
  0
VERTEX
  8
型材断面
 10
-94.225
 20
-2.05
  0
VERTEX
  8
型材断面
 10
-94.175
 20
-2.025
  0
VERTEX
  8
型材断面
 10
-94.15
 20
-2.025
  0
VERTEX
  8
型材断面
 10
-94.125
 20
-2.025
  0
VERTEX
  8
型材断面
 10
-94.1
 20
-2.025
  0
VERTEX
  8
型材断面
 10
-94.075
 20
-2.025
  0
VERTEX
  8
型材断面
 10
-94.05
 20
-2.025
  0
VERTEX
  8
型材断面
 10
-94.025
 20
-2.0
  0
VERTEX
  8
型材断面
 10
-93.975
 20
-2.0
  0
VERTEX
  8
型材断面
 10
-93.95
 20
-2.0
  0
VERTEX
  8
型材断面
 10
-93.925
 20
-2.0
  0
VERTEX
  8
型材断面
 10
-93.9
 20
-2.0
  0
VERTEX
  8
型材断面
 10
-93.875
 20
-2.0
  0
SEQEND
  0
LINE
  8
型材断面
  6
CONTINUOUS
 10
-94.77515
 20
-6.057632
 11
-94.77515
 21
-1.991735
  0
LINE
  8
型材断面
  6
CONTINUOUS
 10
-93.856622
 20
-6.057632
 11
-93.856622
 21
-2.522067
  0
POLYLINE
  8
型材断面
  6
CONTINUOUS
 66
     1
  0
VERTEX
  8
型材断面
 10
-90.2
 20
-2.525
  0
VERTEX
  8
型材断面
 10
-90.175
 20
-2.525
  0
VERTEX
  8
型材断面
 10
-90.125
 20
-2.525
  0
VERTEX
  8
型材断面
 10
-90.1
 20
-2.525
  0
VERTEX
  8
型材断面
 10
-90.075
 20
-2.525
  0
VERTEX
  8
型材断面
 10
-90.05
 20
-2.525
  0
VERTEX
  8
型材断面
 10
-90.025
 20
-2.525
  0
VERTEX
  8
型材断面
 10
-90.0
 20
-2.525
  0
VERTEX
  8
型材断面
 10
-89.95
 20
-2.525
  0
VERTEX
  8
型材断面
 10
-89.925
 20
-2.525
  0
VERTEX
  8
型材断面
 10
-89.9
 20
-2.5
  0
VERTEX
  8
型材断面
 10
-89.875
 20
-2.5
  0
VERTEX
  8
型材断面
 10
-89.85
 20
-2.5
  0
VERTEX
  8
型材断面
 10
-89.825
 20
-2.5
  0
VERTEX
  8
型材断面
 10
-89.8
 20
-2.475
  0
VERTEX
  8
型材断面
 10
-89.775
 20
-2.475
  0
VERTEX
  8
型材断面
 10
-89.75
 20
-2.475
  0
VERTEX
  8
型材断面
 10
-89.725
 20
-2.45
  0
VERTEX
  8
型材断面
 10
-89.7
 20
-2.45
  0
VERTEX
  8
型材断面
 10
-89.675
 20
-2.45
  0
VERTEX
  8
型材断面
 10
-89.65
 20
-2.425
  0
VERTEX
  8
型材断面
 10
-89.625
 20
-2.425
  0
VERTEX
  8
型材断面
 10
-89.6
 20
-2.4
  0
VERTEX
  8
型材断面
 10
-89.575
 20
-2.4
  0
VERTEX
  8
型材断面
 10
-89.55
 20
-2.375
  0
VERTEX
  8
型材断面
 10
-89.525
 20
-2.375
  0
VERTEX
  8
型材断面
 10
-89.525
 20
-2.35
  0
VERTEX
  8
型材断面
 10
-89.5
 20
-2.35
  0
VERTEX
  8
型材断面
 10
-89.475
 20
-2.325
  0
VERTEX
  8
型材断面
 10
-89.45
 20
-2.325
  0
VERTEX
  8
型材断面
 10
-89.45
 20
-2.3
  0
VERTEX
  8
型材断面
 10
-89.425
 20
-2.3
  0
VERTEX
  8
型材断面
 10
-89.4
 20
-2.275
  0
VERTEX
  8
型材断面
 10
-89.4
 20
-2.275
  0
VERTEX
  8
型材断面
 10
-89.375
 20
-2.25
  0
VERTEX
  8
型材断面
 10
-89.375
 20
-2.225
  0
VERTEX
  8
型材断面
 10
-89.35
 20
-2.225
  0
VERTEX
  8
型材断面
 10
-89.35
 20
-2.2
  0
VERTEX
  8
型材断面
 10
-89.325
 20
-2.175
  0
VERTEX
  8
型材断面
 10
-89.325
 20
-2.175
  0
VERTEX
  8
型材断面
 10
-89.325
 20
-2.15
  0
VERTEX
  8
型材断面
 10
-89.3
 20
-2.15
  0
VERTEX
  8
型材断面
 10
-89.3
 20
-2.125
  0
VERTEX
  8
型材断面
 10
-89.3
 20
-2.1
  0
VERTEX
  8
型材断面
 10
-89.3
 20
-2.1
  0
VERTEX
  8
型材断面
 10
-89.275
 20
-2.075
  0
VERTEX
  8
型材断面
 10
-89.275
 20
-2.05
  0
VERTEX
  8
型材断面
 10
-89.275
 20
-2.05
  0
VERTEX
  8
型材断面
 10
-89.275
 20
-2.025
  0
VERTEX
  8
型材断面
 10
-89.275
 20
-2.0
  0
SEQEND
  0
POLYLINE
  8
型材断面
  6
CONTINUOUS
 66
     1
  0
VERTEX
  8
型材断面
 10
-90.5
 20
-2.0
  0
VERTEX
  8
型材断面
 10
-90.5
 20
-2.0
  0
VERTEX
  8
型材断面
 10
-90.475
 20
-2.0
  0
VERTEX
  8
型材断面
 10
-90.475
 20
-2.0
  0
VERTEX
  8
型材断面
 10
-90.45
 20
-2.0
  0
VERTEX
  8
型材断面
 10
-90.45
 20
-2.0
  0
VERTEX
  8
型材断面
 10
-90.45
 20
-2.0
  0
VERTEX
  8
型材断面
 10
-90.425
 20
-2.0
  0
VERTEX
  8
型材断面
 10
-90.425
 20
-2.0
  0
VERTEX
  8
型材断面
 10
-90.425
 20
-2.0
  0
VERTEX
  8
型材断面
 10
-90.4
 20
-2.0
  0
VERTEX
  8
型材断面
 10
-90.4
 20
-2.0
  0
VERTEX
  8
型材断面
 10
-90.375
 20
-2.0
  0
VERTEX
  8
型材断面
 10
-90.375
 20
-2.0
  0
VERTEX
  8
型材断面
 10
-90.375
 20
-1.975
  0
VERTEX
  8
型材断面
 10
-90.35
 20
-1.975
  0
VERTEX
  8
型材断面
 10
-90.35
 20
-1.975
  0
VERTEX
  8
型材断面
 10
-90.35
 20
-1.975
  0
VERTEX
  8
型材断面
 10
-90.325
 20
-1.975
  0
VERTEX
  8
型材断面
 10
-90.325
 20
-1.975
  0
VERTEX
  8
型材断面
 10
-90.325
 20
-1.975
  0
VERTEX
  8
型材断面
 10
-90.3
 20
-1.975
  0
VERTEX
  8
型材断面
 10
-90.3
 20
-1.95
  0
VERTEX
  8
型材断面
 10
-90.3
 20
-1.95
  0
VERTEX
  8
型材断面
 10
-90.3
 20
-1.95
  0
VERTEX
  8
型材断面
 10
-90.275
 20
-1.95
  0
VERTEX
  8
型材断面
 10
-90.275
 20
-1.95
  0
VERTEX
  8
型材断面
 10
-90.275
 20
-1.95
  0
VERTEX
  8
型材断面
 10
-90.25
 20
-1.95
  0
VERTEX
  8
型材断面
 10
-90.25
 20
-1.925
  0
VERTEX
  8
型材断面
 10
-90.25
 20
-1.925
  0
VERTEX
  8
型材断面
 10
-90.25
 20
-1.925
  0
VERTEX
  8
型材断面
 10
-90.25
 20
-1.925
  0
VERTEX
  8
型材断面
 10
-90.225
 20
-1.925
  0
VERTEX
  8
型材断面
 10
-90.225
 20
-1.9
  0
VERTEX
  8
型材断面
 10
-90.225
 20
-1.9
  0
VERTEX
  8
型材断面
 10
-90.225
 20
-1.9
  0
VERTEX
  8
型材断面
 10
-90.225
 20
-1.9
  0
VERTEX
  8
型材断面
 10
-90.225
 20
-1.9
  0
VERTEX
  8
型材断面
 10
-90.2
 20
-1.875
  0
VERTEX
  8
型材断面
 10
-90.2
 20
-1.875
  0
VERTEX
  8
型材断面
 10
-90.2
 20
-1.875
  0
VERTEX
  8
型材断面
 10
-90.2
 20
-1.875
  0
VERTEX
  8
型材断面
 10
-90.2
 20
-1.85
  0
VERTEX
  8
型材断面
 10
-90.2
 20
-1.85
  0
VERTEX
  8
型材断面
 10
-90.2
 20
-1.85
  0
VERTEX
  8
型材断面
 10
-90.2
 20
-1.85
  0
VERTEX
  8
型材断面
 10
-90.2
 20
-1.85
  0
VERTEX
  8
型材断面
 10
-90.2
 20
-1.825
  0
VERTEX
  8
型材断面
 10
-90.2
 20
-1.825
  0
SEQEND
  0
LINE
  8
型材断面
  6
CONTINUOUS
 10
-93.965747
 20
1.968438
 11
-93.506485
 21
2.427722
  0
LINE
  8
型材断面
  6
CONTINUOUS
 10
-93.965747
 20
1.968438
 11
-90.182522
 21
0.707305
  0
LINE
  8
型材断面
  6
CONTINUOUS
 10
-90.182522
 20
-1.814958
 11
-90.182522
 21
0.707305
  0
LINE
  8
型材断面
  6
CONTINUOUS
 10
-94.77515
 20
-1.991735
 11
-90.488698
 21
-1.991735
  0
LINE
  8
型材断面
  6
CONTINUOUS
 10
-93.856622
 20
-2.522067
 11
-89.263998
 21
-2.522067
  0
POLYLINE
  8
型材断面
  6
CONTINUOUS
 66
     1
  0
VERTEX
  8
型材断面
 10
-89.275
 20
0.7
  0
VERTEX
  8
型材断面
 10
-89.275
 20
0.7
  0
VERTEX
  8
型材断面
 10
-89.275
 20
0.725
  0
VERTEX
  8
型材断面
 10
-89.275
 20
0.75
  0
VERTEX
  8
型材断面
 10
-89.275
 20
0.775
  0
VERTEX
  8
型材断面
 10
-89.3
 20
0.775
  0
VERTEX
  8
型材断面
 10
-89.3
 20
0.8
  0
VERTEX
  8
型材断面
 10
-89.3
 20
0.825
  0
VERTEX
  8
型材断面
 10
-89.3
 20
0.825
  0
VERTEX
  8
型材断面
 10
-89.325
 20
0.85
  0
VERTEX
  8
型材断面
 10
-89.325
 20
0.875
  0
VERTEX
  8
型材断面
 10
-89.325
 20
0.875
  0
VERTEX
  8
型材断面
 10
-89.35
 20
0.9
  0
VERTEX
  8
型材断面
 10
-89.35
 20
0.925
  0
VERTEX
  8
型材断面
 10
-89.375
 20
0.925
  0
VERTEX
  8
型材断面
 10
-89.375
 20
0.95
  0
VERTEX
  8
型材断面
 10
-89.4
 20
0.95
  0
VERTEX
  8
型材断面
 10
-89.425
 20
0.975
  0
VERTEX
  8
型材断面
 10
-89.425
 20
1.0
  0
VERTEX
  8
型材断面
 10
-89.45
 20
1.0
  0
VERTEX
  8
型材断面
 10
-89.475
 20
1.025
  0
VERTEX
  8
型材断面
 10
-89.475
 20
1.025
  0
VERTEX
  8
型材断面
 10
-89.5
 20
1.05
  0
VERTEX
  8
型材断面
 10
-89.525
 20
1.05
  0
VERTEX
  8
型材断面
 10
-89.55
 20
1.075
  0
VERTEX
  8
型材断面
 10
-89.575
 20
1.075
  0
VERTEX
  8
型材断面
 10
-89.6
 20
1.1
  0
VERTEX
  8
型材断面
 10
-89.6
 20
1.1
  0
VERTEX
  8
型材断面
 10
-89.625
 20
1.125
  0
VERTEX
  8
型材断面
 10
-89.65
 20
1.125
  0
VERTEX
  8
型材断面
 10
-89.675
 20
1.125
  0
VERTEX
  8
型材断面
 10
-89.7
 20
1.15
  0
VERTEX
  8
型材断面
 10
-89.725
 20
1.15
  0
SEQEND
  0
LINE
  8
型材断面
  6
CONTINUOUS
 10
-93.506485
 20
2.427722
 11
-89.263998
 21
1.013493
  0
LINE
  8
型材断面
  6
CONTINUOUS
 10
-89.263998
 20
-2.522067
 11
-89.263998
 21
1.013493
  0
ENDBLK
  0
BLOCK
  2
*GRP_0061
 70
    65
 10
0.0
 20
0.0
  0
LINE
  8
ゴム等
  6
CONTINUOUS
 10
-103.18125
 20
-9.817565
 11
-108.21921
 21
-11.496958
  0
LINE
  8
ゴム等
  6
CONTINUOUS
 10
-108.21921
 20
-11.496958
 11
-105.157465
 21
-14.558847
  0
LINE
  8
ゴム等
  6
CONTINUOUS
 10
-103.56653
 20
-14.028507
 11
-104.025798
 21
-13.569228
  0
LINE
  8
ゴム等
  6
CONTINUOUS
 10
-100.57877
 20
-12.420175
 11
-104.025798
 21
-13.569228
  0
LINE
  8
ゴム等
  6
CONTINUOUS
 10
-105.157465
 20
-14.558847
 11
-103.56653
 21
-14.028507
  0
LINE
  8
ゴム等
  6
CONTINUOUS
 10
-103.18125
 20
-9.817565
 11
-100.57877
 21
-12.420175
  0
INSERT
  2
*HAT_0005
  8
ゴム等
 10
0.0
 20
0.0
  0
ENDBLK
  0
BLOCK
  2
*GRP_0062
 70
    65
 10
0.0
 20
0.0
  0
LINE
  8
ゴム等
  6
CONTINUOUS
 10
-103.18125
 20
-2.297697
 11
-108.21921
 21
-0.618305
  0
LINE
  8
ゴム等
  6
CONTINUOUS
 10
-108.21921
 20
-0.618305
 11
-105.157465
 21
2.443585
  0
LINE
  8
ゴム等
  6
CONTINUOUS
 10
-103.56653
 20
1.913245
 11
-104.025798
 21
1.453967
  0
LINE
  8
ゴム等
  6
CONTINUOUS
 10
-100.57877
 20
0.30491
 11
-104.025798
 21
1.453967
  0
LINE
  8
ゴム等
  6
CONTINUOUS
 10
-105.157465
 20
2.443585
 11
-103.56653
 21
1.913245
  0
LINE
  8
ゴム等
  6
CONTINUOUS
 10
-103.18125
 20
-2.297697
 11
-100.57877
 21
0.30491
  0
INSERT
  2
*HAT_0006
  8
ゴム等
 10
0.0
 20
0.0
  0
ENDBLK
  0
BLOCK
  2
*GRP_0063
 70
    65
 10
0.0
 20
0.0
  0
LINE
  8
ゴム等
  6
CONTINUOUS
 10
-118.301125
 20
-15.06187
 11
-115.851728
 21
-17.51138
  0
LINE
  8
ゴム等
  6
CONTINUOUS
 10
-115.851728
 20
-17.51138
 11
-112.404702
 21
-16.36232
  0
LINE
  8
ゴム等
  6
CONTINUOUS
 10
-112.404702
 20
-16.36232
 11
-114.854103
 21
-13.912813
  0
LINE
  8
ゴム等
  6
CONTINUOUS
 10
-118.301125
 20
-15.06187
 11
-114.854103
 21
-13.912813
  0
INSERT
  2
*HAT_0007
  8
ゴム等
 10
0.0
 20
0.0
  0
ENDBLK
  0
BLOCK
  2
*GRP_0064
 70
    65
 10
0.0
 20
0.0
  0
LINE
  8
ゴム等
  6
CONTINUOUS
 10
-118.301125
 20
2.946605
 11
-115.851728
 21
5.396118
  0
LINE
  8
ゴム等
  6
CONTINUOUS
 10
-115.851728
 20
5.396118
 11
-112.404702
 21
4.24706
  0
LINE
  8
ゴム等
  6
CONTINUOUS
 10
-112.404702
 20
4.24706
 11
-114.854103
 21
1.79755
  0
LINE
  8
ゴム等
  6
CONTINUOUS
 10
-118.301125
 20
2.946605
 11
-114.854103
 21
1.79755
  0
INSERT
  2
*HAT_0008
  8
ゴム等
 10
0.0
 20
0.0
  0
ENDBLK
  0
BLOCK
  2
*GRP_0065
 70
    65
 10
0.0
 20
0.0
  0
LINE
  8
型材断面
  6
CONTINUOUS
 62
    47
 10
-120.18769
 20
-43.887813
 11
-120.18769
 21
-42.120032
  0
LINE
  8
型材断面
  6
CONTINUOUS
 62
    47
 10
-120.18769
 20
-43.887813
 11
-120.18769
 21
-45.655592
  0
POLYLINE
  8
型材断面
  6
CONTINUOUS
 62
    47
 66
     1
  0
VERTEX
  8
型材断面
 10
-125.825
 20
-41.325
  0
VERTEX
  8
型材断面
 10
-125.825
 20
-41.35
  0
VERTEX
  8
型材断面
 10
-125.85
 20
-41.375
  0
VERTEX
  8
型材断面
 10
-125.85
 20
-41.375
  0
VERTEX
  8
型材断面
 10
-125.875
 20
-41.4
  0
VERTEX
  8
型材断面
 10
-125.875
 20
-41.425
  0
VERTEX
  8
型材断面
 10
-125.9
 20
-41.425
  0
VERTEX
  8
型材断面
 10
-125.9
 20
-41.45
  0
VERTEX
  8
型材断面
 10
-125.9
 20
-41.475
  0
VERTEX
  8
型材断面
 10
-125.925
 20
-41.475
  0
VERTEX
  8
型材断面
 10
-125.925
 20
-41.5
  0
VERTEX
  8
型材断面
 10
-125.925
 20
-41.525
  0
VERTEX
  8
型材断面
 10
-125.925
 20
-41.525
  0
VERTEX
  8
型材断面
 10
-125.925
 20
-41.55
  0
VERTEX
  8
型材断面
 10
-125.925
 20
-41.575
  0
VERTEX
  8
型材断面
 10
-125.925
 20
-41.575
  0
VERTEX
  8
型材断面
 10
-125.95
 20
-41.6
  0
VERTEX
  8
型材断面
 10
-125.95
 20
-41.625
  0
VERTEX
  8
型材断面
 10
-125.925
 20
-41.625
  0
VERTEX
  8
型材断面
 10
-125.925
 20
-41.65
  0
VERTEX
  8
型材断面
 10
-125.925
 20
-41.675
  0
VERTEX
  8
型材断面
 10
-125.925
 20
-41.675
  0
VERTEX
  8
型材断面
 10
-125.925
 20
-41.7
  0
VERTEX
  8
型材断面
 10
-125.925
 20
-41.725
  0
VERTEX
  8
型材断面
 10
-125.9
 20
-41.725
  0
VERTEX
  8
型材断面
 10
-125.9
 20
-41.75
  0
VERTEX
  8
型材断面
 10
-125.9
 20
-41.775
  0
VERTEX
  8
型材断面
 10
-125.875
 20
-41.775
  0
VERTEX
  8
型材断面
 10
-125.875
 20
-41.8
  0
VERTEX
  8
型材断面
 10
-125.85
 20
-41.825
  0
VERTEX
  8
型材断面
 10
-125.85
 20
-41.825
  0
VERTEX
  8
型材断面
 10
-125.825
 20
-41.85
  0
VERTEX
  8
型材断面
 10
-125.825
 20
-41.85
  0
VERTEX
  8
型材断面
 10
-125.8
 20
-41.875
  0
VERTEX
  8
型材断面
 10
-125.8
 20
-41.9
  0
VERTEX
  8
型材断面
 10
-125.775
 20
-41.9
  0
VERTEX
  8
型材断面
 10
-125.75
 20
-41.925
  0
VERTEX
  8
型材断面
 10
-125.75
 20
-41.925
  0
VERTEX
  8
型材断面
 10
-125.725
 20
-41.95
  0
VERTEX
  8
型材断面
 10
-125.7
 20
-41.95
  0
VERTEX
  8
型材断面
 10
-125.675
 20
-41.975
  0
VERTEX
  8
型材断面
 10
-125.65
 20
-41.975
  0
VERTEX
  8
型材断面
 10
-125.65
 20
-42.0
  0
VERTEX
  8
型材断面
 10
-125.625
 20
-42.0
  0
VERTEX
  8
型材断面
 10
-125.6
 20
-42.025
  0
VERTEX
  8
型材断面
 10
-125.575
 20
-42.025
  0
VERTEX
  8
型材断面
 10
-125.55
 20
-42.025
  0
VERTEX
  8
型材断面
 10
-125.525
 20
-42.05
  0
VERTEX
  8
型材断面
 10
-125.5
 20
-42.05
  0
VERTEX
  8
型材断面
 10
-125.475
 20
-42.075
  0
VERTEX
  8
型材断面
 10
-125.45
 20
-42.075
  0
VERTEX
  8
型材断面
 10
-125.425
 20
-42.075
  0
VERTEX
  8
型材断面
 10
-125.4
 20
-42.075
  0
VERTEX
  8
型材断面
 10
-125.375
 20
-42.1
  0
VERTEX
  8
型材断面
 10
-125.35
 20
-42.1
  0
VERTEX
  8
型材断面
 10
-125.3
 20
-42.1
  0
VERTEX
  8
型材断面
 10
-125.275
 20
-42.1
  0
VERTEX
  8
型材断面
 10
-125.25
 20
-42.125
  0
VERTEX
  8
型材断面
 10
-125.225
 20
-42.125
  0
VERTEX
  8
型材断面
 10
-125.2
 20
-42.125
  0
VERTEX
  8
型材断面
 10
-125.175
 20
-42.125
  0
VERTEX
  8
型材断面
 10
-125.15
 20
-42.125
  0
VERTEX
  8
型材断面
 10
-125.1
 20
-42.125
  0
VERTEX
  8
型材断面
 10
-125.075
 20
-42.125
  0
VERTEX
  8
型材断面
 10
-125.05
 20
-42.125
  0
VERTEX
  8
型材断面
 10
-125.025
 20
-42.125
  0
SEQEND
  0
LINE
  8
型材断面
  6
CONTINUOUS
 62
    47
 10
-115.851728
 20
-32.434065
 11
-112.40471
 21
-33.583125
  0
POLYLINE
  8
型材断面
  6
CONTINUOUS
 62
    47
 66
     1
  0
VERTEX
  8
型材断面
 10
-116.65
 20
-32.175
  0
VERTEX
  8
型材断面
 10
-116.65
 20
-32.175
  0
VERTEX
  8
型材断面
 10
-116.625
 20
-32.15
  0
VERTEX
  8
型材断面
 10
-116.6
 20
-32.15
  0
VERTEX
  8
型材断面
 10
-116.6
 20
-32.125
  0
VERTEX
  8
型材断面
 10
-116.575
 20
-32.1
  0
VERTEX
  8
型材断面
 10
-116.55
 20
-32.1
  0
VERTEX
  8
型材断面
 10
-116.55
 20
-32.075
  0
VERTEX
  8
型材断面
 10
-116.525
 20
-32.075
  0
VERTEX
  8
型材断面
 10
-116.5
 20
-32.05
  0
VERTEX
  8
型材断面
 10
-116.475
 20
-32.05
  0
VERTEX
  8
型材断面
 10
-116.45
 20
-32.05
  0
VERTEX
  8
型材断面
 10
-116.425
 20
-32.025
  0
VERTEX
  8
型材断面
 10
-116.4
 20
-32.025
  0
VERTEX
  8
型材断面
 10
-116.375
 20
-32.0
  0
VERTEX
  8
型材断面
 10
-116.35
 20
-32.0
  0
VERTEX
  8
型材断面
 10
-116.325
 20
-32.0
  0
VERTEX
  8
型材断面
 10
-116.3
 20
-31.975
  0
VERTEX
  8
型材断面
 10
-116.275
 20
-31.975
  0
VERTEX
  8
型材断面
 10
-116.25
 20
-31.975
  0
VERTEX
  8
型材断面
 10
-116.225
 20
-31.95
  0
VERTEX
  8
型材断面
 10
-116.2
 20
-31.95
  0
VERTEX
  8
型材断面
 10
-116.175
 20
-31.95
  0
VERTEX
  8
型材断面
 10
-116.15
 20
-31.95
  0
VERTEX
  8
型材断面
 10
-116.125
 20
-31.925
  0
VERTEX
  8
型材断面
 10
-116.1
 20
-31.925
  0
VERTEX
  8
型材断面
 10
-116.05
 20
-31.925
  0
VERTEX
  8
型材断面
 10
-116.025
 20
-31.925
  0
VERTEX
  8
型材断面
 10
-116.0
 20
-31.925
  0
VERTEX
  8
型材断面
 10
-115.975
 20
-31.925
  0
VERTEX
  8
型材断面
 10
-115.95
 20
-31.925
  0
VERTEX
  8
型材断面
 10
-115.925
 20
-31.925
  0
VERTEX
  8
型材断面
 10
-115.875
 20
-31.925
  0
VERTEX
  8
型材断面
 10
-115.85
 20
-31.925
  0
VERTEX
  8
型材断面
 10
-115.825
 20
-31.925
  0
VERTEX
  8
型材断面
 10
-115.8
 20
-31.925
  0
VERTEX
  8
型材断面
 10
-115.775
 20
-31.925
  0
VERTEX
  8
型材断面
 10
-115.725
 20
-31.925
  0
VERTEX
  8
型材断面
 10
-115.7
 20
-31.925
  0
VERTEX
  8
型材断面
 10
-115.675
 20
-31.925
  0
VERTEX
  8
型材断面
 10
-115.65
 20
-31.925
  0
VERTEX
  8
型材断面
 10
-115.625
 20
-31.925
  0
VERTEX
  8
型材断面
 10
-115.6
 20
-31.95
  0
VERTEX
  8
型材断面
 10
-115.575
 20
-31.95
  0
VERTEX
  8
型材断面
 10
-115.55
 20
-31.95
  0
VERTEX
  8
型材断面
 10
-115.5
 20
-31.95
  0
VERTEX
  8
型材断面
 10
-115.475
 20
-31.975
  0
VERTEX
  8
型材断面
 10
-115.45
 20
-31.975
  0
VERTEX
  8
型材断面
 10
-115.425
 20
-31.975
  0
VERTEX
  8
型材断面
 10
-115.4
 20
-31.975
  0
SEQEND
  0
LINE
  8
型材断面
  6
CONTINUOUS
 62
    47
 10
-111.945447
 20
-33.12384
 11
-116.18793
 21
-31.709617
  0
LINE
  8
型材断面
  6
CONTINUOUS
 62
    47
 10
-112.40471
 20
-33.583125
 11
-111.945447
 21
-33.12384
  0
LINE
  8
型材断面
  6
CONTINUOUS
 62
    47
 10
-120.18769
 20
-42.120032
 11
-126.597885
 21
-42.120032
  0
LINE
  8
型材断面
  6
CONTINUOUS
 62
    47
 10
-116.18793
 20
-31.709617
 11
-126.597885
 21
-42.120032
  0
LINE
  8
型材断面
  6
CONTINUOUS
 62
    47
 10
-115.851728
 20
-32.434065
 11
-125.006955
 21
-41.589697
  0
POLYLINE
  8
型材断面
  6
CONTINUOUS
 62
    47
 66
     1
  0
VERTEX
  8
型材断面
 10
-125.025
 20
-45.675
  0
VERTEX
  8
型材断面
 10
-125.05
 20
-45.675
  0
VERTEX
  8
型材断面
 10
-125.075
 20
-45.675
  0
VERTEX
  8
型材断面
 10
-125.1
 20
-45.675
  0
VERTEX
  8
型材断面
 10
-125.15
 20
-45.675
  0
VERTEX
  8
型材断面
 10
-125.175
 20
-45.675
  0
VERTEX
  8
型材断面
 10
-125.2
 20
-45.675
  0
VERTEX
  8
型材断面
 10
-125.225
 20
-45.675
  0
VERTEX
  8
型材断面
 10
-125.25
 20
-45.675
  0
VERTEX
  8
型材断面
 10
-125.275
 20
-45.7
  0
VERTEX
  8
型材断面
 10
-125.3
 20
-45.7
  0
VERTEX
  8
型材断面
 10
-125.35
 20
-45.7
  0
VERTEX
  8
型材断面
 10
-125.375
 20
-45.7
  0
VERTEX
  8
型材断面
 10
-125.4
 20
-45.725
  0
VERTEX
  8
型材断面
 10
-125.425
 20
-45.725
  0
VERTEX
  8
型材断面
 10
-125.45
 20
-45.725
  0
VERTEX
  8
型材断面
 10
-125.475
 20
-45.725
  0
VERTEX
  8
型材断面
 10
-125.5
 20
-45.75
  0
VERTEX
  8
型材断面
 10
-125.525
 20
-45.75
  0
VERTEX
  8
型材断面
 10
-125.55
 20
-45.775
  0
VERTEX
  8
型材断面
 10
-125.575
 20
-45.775
  0
VERTEX
  8
型材断面
 10
-125.6
 20
-45.775
  0
VERTEX
  8
型材断面
 10
-125.625
 20
-45.8
  0
VERTEX
  8
型材断面
 10
-125.65
 20
-45.8
  0
VERTEX
  8
型材断面
 10
-125.65
 20
-45.825
  0
VERTEX
  8
型材断面
 10
-125.675
 20
-45.825
  0
VERTEX
  8
型材断面
 10
-125.7
 20
-45.85
  0
VERTEX
  8
型材断面
 10
-125.725
 20
-45.85
  0
VERTEX
  8
型材断面
 10
-125.75
 20
-45.875
  0
VERTEX
  8
型材断面
 10
-125.75
 20
-45.875
  0
VERTEX
  8
型材断面
 10
-125.775
 20
-45.9
  0
VERTEX
  8
型材断面
 10
-125.8
 20
-45.9
  0
VERTEX
  8
型材断面
 10
-125.8
 20
-45.925
  0
VERTEX
  8
型材断面
 10
-125.825
 20
-45.95
  0
VERTEX
  8
型材断面
 10
-125.825
 20
-45.95
  0
VERTEX
  8
型材断面
 10
-125.85
 20
-45.975
  0
VERTEX
  8
型材断面
 10
-125.85
 20
-45.975
  0
VERTEX
  8
型材断面
 10
-125.875
 20
-46.0
  0
VERTEX
  8
型材断面
 10
-125.875
 20
-46.025
  0
VERTEX
  8
型材断面
 10
-125.9
 20
-46.025
  0
VERTEX
  8
型材断面
 10
-125.9
 20
-46.05
  0
VERTEX
  8
型材断面
 10
-125.9
 20
-46.075
  0
VERTEX
  8
型材断面
 10
-125.925
 20
-46.075
  0
VERTEX
  8
型材断面
 10
-125.925
 20
-46.1
  0
VERTEX
  8
型材断面
 10
-125.925
 20
-46.125
  0
VERTEX
  8
型材断面
 10
-125.925
 20
-46.125
  0
VERTEX
  8
型材断面
 10
-125.925
 20
-46.15
  0
VERTEX
  8
型材断面
 10
-125.925
 20
-46.175
  0
VERTEX
  8
型材断面
 10
-125.95
 20
-46.175
  0
VERTEX
  8
型材断面
 10
-125.95
 20
-46.2
  0
VERTEX
  8
型材断面
 10
-125.925
 20
-46.225
  0
VERTEX
  8
型材断面
 10
-125.925
 20
-46.225
  0
VERTEX
  8
型材断面
 10
-125.925
 20
-46.25
  0
VERTEX
  8
型材断面
 10
-125.925
 20
-46.275
  0
VERTEX
  8
型材断面
 10
-125.925
 20
-46.3
  0
VERTEX
  8
型材断面
 10
-125.925
 20
-46.3
  0
VERTEX
  8
型材断面
 10
-125.925
 20
-46.325
  0
VERTEX
  8
型材断面
 10
-125.9
 20
-46.35
  0
VERTEX
  8
型材断面
 10
-125.9
 20
-46.35
  0
VERTEX
  8
型材断面
 10
-125.9
 20
-46.375
  0
VERTEX
  8
型材断面
 10
-125.875
 20
-46.375
  0
VERTEX
  8
型材断面
 10
-125.875
 20
-46.4
  0
VERTEX
  8
型材断面
 10
-125.85
 20
-46.425
  0
VERTEX
  8
型材断面
 10
-125.85
 20
-46.425
  0
VERTEX
  8
型材断面
 10
-125.825
 20
-46.45
  0
VERTEX
  8
型材断面
 10
-125.825
 20
-46.475
  0
SEQEND
  0
LINE
  8
型材断面
  6
CONTINUOUS
 62
    47
 10
-115.851728
 20
-55.341558
 11
-112.40471
 21
-54.192502
  0
POLYLINE
  8
型材断面
  6
CONTINUOUS
 62
    47
 66
     1
  0
VERTEX
  8
型材断面
 10
-115.4
 20
-55.825
  0
VERTEX
  8
型材断面
 10
-115.425
 20
-55.825
  0
VERTEX
  8
型材断面
 10
-115.45
 20
-55.825
  0
VERTEX
  8
型材断面
 10
-115.475
 20
-55.825
  0
VERTEX
  8
型材断面
 10
-115.5
 20
-55.85
  0
VERTEX
  8
型材断面
 10
-115.55
 20
-55.85
  0
VERTEX
  8
型材断面
 10
-115.575
 20
-55.85
  0
VERTEX
  8
型材断面
 10
-115.6
 20
-55.85
  0
VERTEX
  8
型材断面
 10
-115.625
 20
-55.875
  0
VERTEX
  8
型材断面
 10
-115.65
 20
-55.875
  0
VERTEX
  8
型材断面
 10
-115.675
 20
-55.875
  0
VERTEX
  8
型材断面
 10
-115.7
 20
-55.875
  0
VERTEX
  8
型材断面
 10
-115.725
 20
-55.875
  0
VERTEX
  8
型材断面
 10
-115.775
 20
-55.875
  0
VERTEX
  8
型材断面
 10
-115.8
 20
-55.875
  0
VERTEX
  8
型材断面
 10
-115.825
 20
-55.875
  0
VERTEX
  8
型材断面
 10
-115.85
 20
-55.875
  0
VERTEX
  8
型材断面
 10
-115.875
 20
-55.875
  0
VERTEX
  8
型材断面
 10
-115.925
 20
-55.875
  0
VERTEX
  8
型材断面
 10
-115.95
 20
-55.875
  0
VERTEX
  8
型材断面
 10
-115.975
 20
-55.875
  0
VERTEX
  8
型材断面
 10
-116.0
 20
-55.875
  0
VERTEX
  8
型材断面
 10
-116.025
 20
-55.875
  0
VERTEX
  8
型材断面
 10
-116.05
 20
-55.875
  0
VERTEX
  8
型材断面
 10
-116.1
 20
-55.875
  0
VERTEX
  8
型材断面
 10
-116.125
 20
-55.875
  0
VERTEX
  8
型材断面
 10
-116.15
 20
-55.85
  0
VERTEX
  8
型材断面
 10
-116.175
 20
-55.85
  0
VERTEX
  8
型材断面
 10
-116.2
 20
-55.85
  0
VERTEX
  8
型材断面
 10
-116.225
 20
-55.85
  0
VERTEX
  8
型材断面
 10
-116.25
 20
-55.825
  0
VERTEX
  8
型材断面
 10
-116.275
 20
-55.825
  0
VERTEX
  8
型材断面
 10
-116.3
 20
-55.825
  0
VERTEX
  8
型材断面
 10
-116.325
 20
-55.8
  0
VERTEX
  8
型材断面
 10
-116.35
 20
-55.8
  0
VERTEX
  8
型材断面
 10
-116.375
 20
-55.8
  0
VERTEX
  8
型材断面
 10
-116.4
 20
-55.775
  0
VERTEX
  8
型材断面
 10
-116.425
 20
-55.775
  0
VERTEX
  8
型材断面
 10
-116.45
 20
-55.75
  0
VERTEX
  8
型材断面
 10
-116.475
 20
-55.75
  0
VERTEX
  8
型材断面
 10
-116.5
 20
-55.75
  0
VERTEX
  8
型材断面
 10
-116.525
 20
-55.725
  0
VERTEX
  8
型材断面
 10
-116.55
 20
-55.725
  0
VERTEX
  8
型材断面
 10
-116.55
 20
-55.7
  0
VERTEX
  8
型材断面
 10
-116.575
 20
-55.7
  0
VERTEX
  8
型材断面
 10
-116.6
 20
-55.675
  0
VERTEX
  8
型材断面
 10
-116.6
 20
-55.65
  0
VERTEX
  8
型材断面
 10
-116.625
 20
-55.65
  0
VERTEX
  8
型材断面
 10
-116.65
 20
-55.625
  0
VERTEX
  8
型材断面
 10
-116.65
 20
-55.625
  0
SEQEND
  0
LINE
  8
型材断面
  6
CONTINUOUS
 62
    47
 10
-111.945447
 20
-54.651787
 11
-116.18793
 21
-56.06601
  0
LINE
  8
型材断面
  6
CONTINUOUS
 62
    47
 10
-112.40471
 20
-54.192502
 11
-111.945447
 21
-54.651787
  0
LINE
  8
型材断面
  6
CONTINUOUS
 62
    47
 10
-116.18793
 20
-56.06601
 11
-126.597885
 21
-45.655592
  0
LINE
  8
型材断面
  6
CONTINUOUS
 62
    47
 10
-120.18769
 20
-45.655592
 11
-126.597885
 21
-45.655592
  0
LINE
  8
型材断面
  6
CONTINUOUS
 62
    47
 10
-115.851728
 20
-55.341562
 11
-125.006955
 21
-46.18593
  0
LINE
  8
型材断面
  6
CONTINUOUS
 10
-120.18769
 20
-43.00392
 11
-119.269163
 21
-43.00392
  0
LINE
  8
型材断面
  6
CONTINUOUS
 10
-120.18769
 20
-44.771702
 11
-119.269163
 21
-44.771702
  0
POLYLINE
  8
型材断面
  6
CONTINUOUS
 66
     1
  0
VERTEX
  8
型材断面
 10
-120.2
 20
-46.2
  0
VERTEX
  8
型材断面
 10
-120.175
 20
-46.2
  0
VERTEX
  8
型材断面
 10
-120.15
 20
-46.2
  0
VERTEX
  8
型材断面
 10
-120.1
 20
-46.2
  0
VERTEX
  8
型材断面
 10
-120.075
 20
-46.2
  0
VERTEX
  8
型材断面
 10
-120.05
 20
-46.2
  0
VERTEX
  8
型材断面
 10
-120.025
 20
-46.2
  0
VERTEX
  8
型材断面
 10
-120.0
 20
-46.175
  0
VERTEX
  8
型材断面
 10
-119.975
 20
-46.175
  0
VERTEX
  8
型材断面
 10
-119.95
 20
-46.175
  0
VERTEX
  8
型材断面
 10
-119.9
 20
-46.175
  0
VERTEX
  8
型材断面
 10
-119.875
 20
-46.175
  0
VERTEX
  8
型材断面
 10
-119.85
 20
-46.15
  0
VERTEX
  8
型材断面
 10
-119.825
 20
-46.15
  0
VERTEX
  8
型材断面
 10
-119.8
 20
-46.15
  0
VERTEX
  8
型材断面
 10
-119.775
 20
-46.15
  0
VERTEX
  8
型材断面
 10
-119.75
 20
-46.125
  0
VERTEX
  8
型材断面
 10
-119.725
 20
-46.125
  0
VERTEX
  8
型材断面
 10
-119.7
 20
-46.125
  0
VERTEX
  8
型材断面
 10
-119.675
 20
-46.1
  0
VERTEX
  8
型材断面
 10
-119.65
 20
-46.1
  0
VERTEX
  8
型材断面
 10
-119.625
 20
-46.075
  0
VERTEX
  8
型材断面
 10
-119.6
 20
-46.075
  0
VERTEX
  8
型材断面
 10
-119.575
 20
-46.05
  0
VERTEX
  8
型材断面
 10
-119.55
 20
-46.05
  0
VERTEX
  8
型材断面
 10
-119.55
 20
-46.025
  0
VERTEX
  8
型材断面
 10
-119.525
 20
-46.025
  0
VERTEX
  8
型材断面
 10
-119.5
 20
-46.0
  0
VERTEX
  8
型材断面
 10
-119.475
 20
-46.0
  0
VERTEX
  8
型材断面
 10
-119.475
 20
-45.975
  0
VERTEX
  8
型材断面
 10
-119.45
 20
-45.975
  0
VERTEX
  8
型材断面
 10
-119.425
 20
-45.95
  0
VERTEX
  8
型材断面
 10
-119.425
 20
-45.95
  0
VERTEX
  8
型材断面
 10
-119.4
 20
-45.925
  0
VERTEX
  8
型材断面
 10
-119.375
 20
-45.925
  0
VERTEX
  8
型材断面
 10
-119.375
 20
-45.9
  0
VERTEX
  8
型材断面
 10
-119.35
 20
-45.875
  0
VERTEX
  8
型材断面
 10
-119.35
 20
-45.875
  0
VERTEX
  8
型材断面
 10
-119.35
 20
-45.85
  0
VERTEX
  8
型材断面
 10
-119.325
 20
-45.825
  0
VERTEX
  8
型材断面
 10
-119.325
 20
-45.825
  0
VERTEX
  8
型材断面
 10
-119.3
 20
-45.8
  0
VERTEX
  8
型材断面
 10
-119.3
 20
-45.775
  0
VERTEX
  8
型材断面
 10
-119.3
 20
-45.775
  0
VERTEX
  8
型材断面
 10
-119.3
 20
-45.75
  0
VERTEX
  8
型材断面
 10
-119.3
 20
-45.725
  0
VERTEX
  8
型材断面
 10
-119.275
 20
-45.725
  0
VERTEX
  8
型材断面
 10
-119.275
 20
-45.7
  0
VERTEX
  8
型材断面
 10
-119.275
 20
-45.675
  0
VERTEX
  8
型材断面
 10
-119.275
 20
-45.675
  0
SEQEND
  0
POLYLINE
  8
型材断面
  6
CONTINUOUS
 66
     1
  0
VERTEX
  8
型材断面
 10
-119.275
 20
-42.125
  0
VERTEX
  8
型材断面
 10
-119.275
 20
-42.125
  0
VERTEX
  8
型材断面
 10
-119.275
 20
-42.1
  0
VERTEX
  8
型材断面
 10
-119.275
 20
-42.075
  0
VERTEX
  8
型材断面
 10
-119.3
 20
-42.075
  0
VERTEX
  8
型材断面
 10
-119.3
 20
-42.05
  0
VERTEX
  8
型材断面
 10
-119.3
 20
-42.025
  0
VERTEX
  8
型材断面
 10
-119.3
 20
-42.025
  0
VERTEX
  8
型材断面
 10
-119.3
 20
-42.0
  0
VERTEX
  8
型材断面
 10
-119.325
 20
-41.975
  0
VERTEX
  8
型材断面
 10
-119.325
 20
-41.975
  0
VERTEX
  8
型材断面
 10
-119.35
 20
-41.95
  0
VERTEX
  8
型材断面
 10
-119.35
 20
-41.925
  0
VERTEX
  8
型材断面
 10
-119.35
 20
-41.925
  0
VERTEX
  8
型材断面
 10
-119.375
 20
-41.9
  0
VERTEX
  8
型材断面
 10
-119.375
 20
-41.875
  0
VERTEX
  8
型材断面
 10
-119.4
 20
-41.875
  0
VERTEX
  8
型材断面
 10
-119.425
 20
-41.85
  0
VERTEX
  8
型材断面
 10
-119.425
 20
-41.85
  0
VERTEX
  8
型材断面
 10
-119.45
 20
-41.825
  0
VERTEX
  8
型材断面
 10
-119.475
 20
-41.825
  0
VERTEX
  8
型材断面
 10
-119.475
 20
-41.8
  0
VERTEX
  8
型材断面
 10
-119.5
 20
-41.8
  0
VERTEX
  8
型材断面
 10
-119.525
 20
-41.775
  0
VERTEX
  8
型材断面
 10
-119.55
 20
-41.775
  0
VERTEX
  8
型材断面
 10
-119.55
 20
-41.75
  0
VERTEX
  8
型材断面
 10
-119.575
 20
-41.75
  0
VERTEX
  8
型材断面
 10
-119.6
 20
-41.725
  0
VERTEX
  8
型材断面
 10
-119.625
 20
-41.725
  0
VERTEX
  8
型材断面
 10
-119.65
 20
-41.7
  0
VERTEX
  8
型材断面
 10
-119.675
 20
-41.7
  0
VERTEX
  8
型材断面
 10
-119.7
 20
-41.7
  0
VERTEX
  8
型材断面
 10
-119.725
 20
-41.675
  0
VERTEX
  8
型材断面
 10
-119.75
 20
-41.675
  0
VERTEX
  8
型材断面
 10
-119.775
 20
-41.65
  0
VERTEX
  8
型材断面
 10
-119.8
 20
-41.65
  0
VERTEX
  8
型材断面
 10
-119.825
 20
-41.65
  0
VERTEX
  8
型材断面
 10
-119.85
 20
-41.65
  0
VERTEX
  8
型材断面
 10
-119.875
 20
-41.625
  0
VERTEX
  8
型材断面
 10
-119.9
 20
-41.625
  0
VERTEX
  8
型材断面
 10
-119.95
 20
-41.625
  0
VERTEX
  8
型材断面
 10
-119.975
 20
-41.625
  0
VERTEX
  8
型材断面
 10
-120.0
 20
-41.625
  0
VERTEX
  8
型材断面
 10
-120.025
 20
-41.6
  0
VERTEX
  8
型材断面
 10
-120.05
 20
-41.6
  0
VERTEX
  8
型材断面
 10
-120.075
 20
-41.6
  0
VERTEX
  8
型材断面
 10
-120.1
 20
-41.6
  0
VERTEX
  8
型材断面
 10
-120.15
 20
-41.6
  0
VERTEX
  8
型材断面
 10
-120.175
 20
-41.6
  0
VERTEX
  8
型材断面
 10
-120.2
 20
-41.6
  0
SEQEND
  0
LINE
  8
型材断面
  6
CONTINUOUS
 62
    47
 10
-125.006955
 20
-41.589697
 11
-119.269163
 21
-41.589697
  0
LINE
  8
型材断面
  6
CONTINUOUS
 10
-119.269163
 20
-41.589697
 11
-119.269163
 21
-46.18593
  0
LINE
  8
型材断面
  6
CONTINUOUS
 62
    47
 10
-125.006955
 20
-46.18593
 11
-119.269163
 21
-46.18593
  0
LINE
  8
St
  6
CONTINUOUS
 62
    47
 10
-119.958062
 20
-44.771702
 11
-119.958062
 21
-43.00392
  0
LINE
  8
St
  6
CONTINUOUS
 62
    47
 10
-119.728428
 20
-44.771702
 11
-119.728428
 21
-43.00392
  0
LINE
  8
St
  6
CONTINUOUS
 62
    47
 10
-119.498797
 20
-44.771702
 11
-119.498797
 21
-43.00392
  0
ENDBLK
  0
BLOCK
  2
*GRP_0066
 70
    65
 10
0.0
 20
0.0
  0
POLYLINE
  8
型材断面
  6
CONTINUOUS
 66
     1
  0
VERTEX
  8
型材断面
 10
-101.825
 20
-40.375
  0
VERTEX
  8
型材断面
 10
-101.85
 20
-40.375
  0
VERTEX
  8
型材断面
 10
-101.875
 20
-40.375
  0
VERTEX
  8
型材断面
 10
-101.925
 20
-40.35
  0
VERTEX
  8
型材断面
 10
-101.95
 20
-40.35
  0
VERTEX
  8
型材断面
 10
-101.975
 20
-40.35
  0
VERTEX
  8
型材断面
 10
-102.0
 20
-40.35
  0
VERTEX
  8
型材断面
 10
-102.025
 20
-40.35
  0
VERTEX
  8
型材断面
 10
-102.05
 20
-40.35
  0
VERTEX
  8
型材断面
 10
-102.1
 20
-40.35
  0
VERTEX
  8
型材断面
 10
-102.125
 20
-40.325
  0
VERTEX
  8
型材断面
 10
-102.15
 20
-40.325
  0
VERTEX
  8
型材断面
 10
-102.175
 20
-40.325
  0
VERTEX
  8
型材断面
 10
-102.2
 20
-40.325
  0
VERTEX
  8
型材断面
 10
-102.225
 20
-40.3
  0
VERTEX
  8
型材断面
 10
-102.25
 20
-40.3
  0
VERTEX
  8
型材断面
 10
-102.275
 20
-40.3
  0
VERTEX
  8
型材断面
 10
-102.3
 20
-40.275
  0
VERTEX
  8
型材断面
 10
-102.325
 20
-40.275
  0
VERTEX
  8
型材断面
 10
-102.35
 20
-40.275
  0
VERTEX
  8
型材断面
 10
-102.375
 20
-40.25
  0
VERTEX
  8
型材断面
 10
-102.4
 20
-40.25
  0
VERTEX
  8
型材断面
 10
-102.425
 20
-40.225
  0
VERTEX
  8
型材断面
 10
-102.45
 20
-40.225
  0
VERTEX
  8
型材断面
 10
-102.475
 20
-40.225
  0
VERTEX
  8
型材断面
 10
-102.5
 20
-40.2
  0
VERTEX
  8
型材断面
 10
-102.5
 20
-40.2
  0
VERTEX
  8
型材断面
 10
-102.525
 20
-40.175
  0
VERTEX
  8
型材断面
 10
-102.55
 20
-40.175
  0
VERTEX
  8
型材断面
 10
-102.575
 20
-40.15
  0
VERTEX
  8
型材断面
 10
-102.575
 20
-40.125
  0
VERTEX
  8
型材断面
 10
-102.6
 20
-40.125
  0
VERTEX
  8
型材断面
 10
-102.625
 20
-40.1
  0
VERTEX
  8
型材断面
 10
-102.625
 20
-40.1
  0
VERTEX
  8
型材断面
 10
-102.65
 20
-40.075
  0
VERTEX
  8
型材断面
 10
-102.65
 20
-40.05
  0
VERTEX
  8
型材断面
 10
-102.675
 20
-40.05
  0
VERTEX
  8
型材断面
 10
-102.675
 20
-40.025
  0
VERTEX
  8
型材断面
 10
-102.7
 20
-40.025
  0
VERTEX
  8
型材断面
 10
-102.7
 20
-40.0
  0
VERTEX
  8
型材断面
 10
-102.7
 20
-39.975
  0
VERTEX
  8
型材断面
 10
-102.725
 20
-39.975
  0
VERTEX
  8
型材断面
 10
-102.725
 20
-39.95
  0
VERTEX
  8
型材断面
 10
-102.725
 20
-39.925
  0
VERTEX
  8
型材断面
 10
-102.725
 20
-39.925
  0
VERTEX
  8
型材断面
 10
-102.75
 20
-39.9
  0
VERTEX
  8
型材断面
 10
-102.75
 20
-39.875
  0
VERTEX
  8
型材断面
 10
-102.75
 20
-39.875
  0
VERTEX
  8
型材断面
 10
-102.75
 20
-39.85
  0
VERTEX
  8
型材断面
 10
-102.75
 20
-39.825
  0
VERTEX
  8
型材断面
 10
-102.75
 20
-39.825
  0
VERTEX
  8
型材断面
 10
-102.75
 20
-39.8
  0
VERTEX
  8
型材断面
 10
-102.75
 20
-39.775
  0
VERTEX
  8
型材断面
 10
-102.725
 20
-39.75
  0
VERTEX
  8
型材断面
 10
-102.725
 20
-39.75
  0
VERTEX
  8
型材断面
 10
-102.725
 20
-39.725
  0
VERTEX
  8
型材断面
 10
-102.725
 20
-39.7
  0
VERTEX
  8
型材断面
 10
-102.725
 20
-39.7
  0
VERTEX
  8
型材断面
 10
-102.7
 20
-39.675
  0
VERTEX
  8
型材断面
 10
-102.7
 20
-39.65
  0
VERTEX
  8
型材断面
 10
-102.675
 20
-39.65
  0
VERTEX
  8
型材断面
 10
-102.675
 20
-39.625
  0
VERTEX
  8
型材断面
 10
-102.675
 20
-39.625
  0
VERTEX
  8
型材断面
 10
-102.65
 20
-39.6
  0
VERTEX
  8
型材断面
 10
-102.625
 20
-39.575
  0
VERTEX
  8
型材断面
 10
-102.625
 20
-39.575
  0
SEQEND
  0
LINE
  8
型材断面
  6
CONTINUOUS
 10
-104.025798
 20
-36.376217
 11
-103.56653
 21
-35.916938
  0
POLYLINE
  8
型材断面
  6
CONTINUOUS
 66
     1
  0
VERTEX
  8
型材断面
 10
-99.8
 20
-37.8
  0
VERTEX
  8
型材断面
 10
-99.775
 20
-37.8
  0
VERTEX
  8
型材断面
 10
-99.775
 20
-37.775
  0
VERTEX
  8
型材断面
 10
-99.75
 20
-37.75
  0
VERTEX
  8
型材断面
 10
-99.75
 20
-37.75
  0
VERTEX
  8
型材断面
 10
-99.725
 20
-37.725
  0
VERTEX
  8
型材断面
 10
-99.725
 20
-37.7
  0
VERTEX
  8
型材断面
 10
-99.7
 20
-37.7
  0
VERTEX
  8
型材断面
 10
-99.7
 20
-37.675
  0
VERTEX
  8
型材断面
 10
-99.7
 20
-37.65
  0
VERTEX
  8
型材断面
 10
-99.7
 20
-37.65
  0
VERTEX
  8
型材断面
 10
-99.675
 20
-37.625
  0
VERTEX
  8
型材断面
 10
-99.675
 20
-37.6
  0
VERTEX
  8
型材断面
 10
-99.675
 20
-37.6
  0
VERTEX
  8
型材断面
 10
-99.675
 20
-37.575
  0
VERTEX
  8
型材断面
 10
-99.675
 20
-37.55
  0
VERTEX
  8
型材断面
 10
-99.675
 20
-37.55
  0
VERTEX
  8
型材断面
 10
-99.675
 20
-37.525
  0
VERTEX
  8
型材断面
 10
-99.675
 20
-37.5
  0
VERTEX
  8
型材断面
 10
-99.675
 20
-37.475
  0
VERTEX
  8
型材断面
 10
-99.675
 20
-37.475
  0
VERTEX
  8
型材断面
 10
-99.675
 20
-37.45
  0
VERTEX
  8
型材断面
 10
-99.7
 20
-37.425
  0
VERTEX
  8
型材断面
 10
-99.7
 20
-37.425
  0
VERTEX
  8
型材断面
 10
-99.7
 20
-37.4
  0
VERTEX
  8
型材断面
 10
-99.7
 20
-37.375
  0
VERTEX
  8
型材断面
 10
-99.725
 20
-37.375
  0
VERTEX
  8
型材断面
 10
-99.725
 20
-37.35
  0
VERTEX
  8
型材断面
 10
-99.75
 20
-37.325
  0
VERTEX
  8
型材断面
 10
-99.75
 20
-37.325
  0
VERTEX
  8
型材断面
 10
-99.775
 20
-37.3
  0
VERTEX
  8
型材断面
 10
-99.775
 20
-37.3
  0
VERTEX
  8
型材断面
 10
-99.8
 20
-37.275
  0
VERTEX
  8
型材断面
 10
-99.8
 20
-37.25
  0
VERTEX
  8
型材断面
 10
-99.825
 20
-37.25
  0
VERTEX
  8
型材断面
 10
-99.85
 20
-37.225
  0
VERTEX
  8
型材断面
 10
-99.875
 20
-37.225
  0
VERTEX
  8
型材断面
 10
-99.875
 20
-37.2
  0
VERTEX
  8
型材断面
 10
-99.9
 20
-37.2
  0
VERTEX
  8
型材断面
 10
-99.925
 20
-37.175
  0
VERTEX
  8
型材断面
 10
-99.95
 20
-37.175
  0
VERTEX
  8
型材断面
 10
-99.975
 20
-37.15
  0
VERTEX
  8
型材断面
 10
-99.975
 20
-37.15
  0
VERTEX
  8
型材断面
 10
-100.0
 20
-37.125
  0
VERTEX
  8
型材断面
 10
-100.025
 20
-37.125
  0
VERTEX
  8
型材断面
 10
-100.05
 20
-37.1
  0
VERTEX
  8
型材断面
 10
-100.075
 20
-37.1
  0
VERTEX
  8
型材断面
 10
-100.1
 20
-37.075
  0
VERTEX
  8
型材断面
 10
-100.125
 20
-37.075
  0
SEQEND
  0
LINE
  8
型材断面
  6
CONTINUOUS
 10
-103.405615
 20
-40.35225
 11
-100.578773
 21
-37.525275
  0
LINE
  8
型材断面
  6
CONTINUOUS
 10
-104.025798
 20
-36.376217
 11
-100.578773
 21
-37.525275
  0
LINE
  8
型材断面
  6
CONTINUOUS
 10
-101.814682
 20
-39.821918
 11
-99.324047
 21
-37.33116
  0
LINE
  8
型材断面
  6
CONTINUOUS
 10
-103.56653
 20
-35.916938
 11
-99.324047
 21
-37.33116
  0
LINE
  8
型材断面
  6
CONTINUOUS
 10
-98.510483
 20
-39.821918
 11
-98.510483
 21
-40.35225
  0
LINE
  8
型材断面
  6
CONTINUOUS
 10
-95.938615
 20
-40.35225
 11
-95.938615
 21
-39.821918
  0
LINE
  8
型材断面
  6
CONTINUOUS
 10
-95.938615
 20
-40.219668
 11
-98.510483
 21
-40.219668
  0
LINE
  8
型材断面
  6
CONTINUOUS
 10
-95.938615
 20
-40.087082
 11
-98.510483
 21
-40.087082
  0
LINE
  8
型材断面
  6
CONTINUOUS
 10
-95.938615
 20
-39.954503
 11
-98.510483
 21
-39.954503
  0
LINE
  8
型材断面
  6
CONTINUOUS
 10
-94.77515
 20
-40.35225
 11
-103.405615
 21
-40.35225
  0
LINE
  8
型材断面
  6
CONTINUOUS
 10
-94.77515
 20
-39.821918
 11
-94.77515
 21
-40.35225
  0
LINE
  8
型材断面
  6
CONTINUOUS
 10
-101.814682
 20
-39.821918
 11
-94.77515
 21
-39.821918
  0
ENDBLK
  0
BLOCK
  2
*GRP_0067
 70
    65
 10
0.0
 20
0.0
  0
POLYLINE
  8
型材断面
  6
CONTINUOUS
 66
     1
  0
VERTEX
  8
型材断面
 10
-102.625
 20
-48.225
  0
VERTEX
  8
型材断面
 10
-102.625
 20
-48.225
  0
VERTEX
  8
型材断面
 10
-102.65
 20
-48.2
  0
VERTEX
  8
型材断面
 10
-102.675
 20
-48.175
  0
VERTEX
  8
型材断面
 10
-102.675
 20
-48.175
  0
VERTEX
  8
型材断面
 10
-102.675
 20
-48.15
  0
VERTEX
  8
型材断面
 10
-102.7
 20
-48.15
  0
VERTEX
  8
型材断面
 10
-102.7
 20
-48.125
  0
VERTEX
  8
型材断面
 10
-102.725
 20
-48.1
  0
VERTEX
  8
型材断面
 10
-102.725
 20
-48.1
  0
VERTEX
  8
型材断面
 10
-102.725
 20
-48.075
  0
VERTEX
  8
型材断面
 10
-102.725
 20
-48.05
  0
VERTEX
  8
型材断面
 10
-102.725
 20
-48.05
  0
VERTEX
  8
型材断面
 10
-102.75
 20
-48.025
  0
VERTEX
  8
型材断面
 10
-102.75
 20
-48.0
  0
VERTEX
  8
型材断面
 10
-102.75
 20
-48.0
  0
VERTEX
  8
型材断面
 10
-102.75
 20
-47.975
  0
VERTEX
  8
型材断面
 10
-102.75
 20
-47.95
  0
VERTEX
  8
型材断面
 10
-102.75
 20
-47.925
  0
VERTEX
  8
型材断面
 10
-102.75
 20
-47.925
  0
VERTEX
  8
型材断面
 10
-102.75
 20
-47.9
  0
VERTEX
  8
型材断面
 10
-102.725
 20
-47.875
  0
VERTEX
  8
型材断面
 10
-102.725
 20
-47.875
  0
VERTEX
  8
型材断面
 10
-102.725
 20
-47.85
  0
VERTEX
  8
型材断面
 10
-102.725
 20
-47.825
  0
VERTEX
  8
型材断面
 10
-102.7
 20
-47.825
  0
VERTEX
  8
型材断面
 10
-102.7
 20
-47.8
  0
VERTEX
  8
型材断面
 10
-102.7
 20
-47.775
  0
VERTEX
  8
型材断面
 10
-102.675
 20
-47.775
  0
VERTEX
  8
型材断面
 10
-102.675
 20
-47.75
  0
VERTEX
  8
型材断面
 10
-102.65
 20
-47.75
  0
VERTEX
  8
型材断面
 10
-102.65
 20
-47.725
  0
VERTEX
  8
型材断面
 10
-102.625
 20
-47.7
  0
VERTEX
  8
型材断面
 10
-102.625
 20
-47.7
  0
VERTEX
  8
型材断面
 10
-102.6
 20
-47.675
  0
VERTEX
  8
型材断面
 10
-102.575
 20
-47.675
  0
VERTEX
  8
型材断面
 10
-102.575
 20
-47.65
  0
VERTEX
  8
型材断面
 10
-102.55
 20
-47.625
  0
VERTEX
  8
型材断面
 10
-102.525
 20
-47.625
  0
VERTEX
  8
型材断面
 10
-102.5
 20
-47.6
  0
VERTEX
  8
型材断面
 10
-102.5
 20
-47.6
  0
VERTEX
  8
型材断面
 10
-102.475
 20
-47.575
  0
VERTEX
  8
型材断面
 10
-102.45
 20
-47.575
  0
VERTEX
  8
型材断面
 10
-102.425
 20
-47.575
  0
VERTEX
  8
型材断面
 10
-102.4
 20
-47.55
  0
VERTEX
  8
型材断面
 10
-102.375
 20
-47.55
  0
VERTEX
  8
型材断面
 10
-102.35
 20
-47.525
  0
VERTEX
  8
型材断面
 10
-102.325
 20
-47.525
  0
VERTEX
  8
型材断面
 10
-102.3
 20
-47.525
  0
VERTEX
  8
型材断面
 10
-102.275
 20
-47.5
  0
VERTEX
  8
型材断面
 10
-102.25
 20
-47.5
  0
VERTEX
  8
型材断面
 10
-102.225
 20
-47.5
  0
VERTEX
  8
型材断面
 10
-102.2
 20
-47.475
  0
VERTEX
  8
型材断面
 10
-102.175
 20
-47.475
  0
VERTEX
  8
型材断面
 10
-102.15
 20
-47.475
  0
VERTEX
  8
型材断面
 10
-102.125
 20
-47.475
  0
VERTEX
  8
型材断面
 10
-102.1
 20
-47.45
  0
VERTEX
  8
型材断面
 10
-102.05
 20
-47.45
  0
VERTEX
  8
型材断面
 10
-102.025
 20
-47.45
  0
VERTEX
  8
型材断面
 10
-102.0
 20
-47.45
  0
VERTEX
  8
型材断面
 10
-101.975
 20
-47.45
  0
VERTEX
  8
型材断面
 10
-101.95
 20
-47.45
  0
VERTEX
  8
型材断面
 10
-101.925
 20
-47.45
  0
VERTEX
  8
型材断面
 10
-101.875
 20
-47.425
  0
VERTEX
  8
型材断面
 10
-101.85
 20
-47.425
  0
VERTEX
  8
型材断面
 10
-101.825
 20
-47.425
  0
SEQEND
  0
LINE
  8
型材断面
  6
CONTINUOUS
 10
-104.025798
 20
-51.399405
 11
-103.56653
 21
-51.85869
  0
POLYLINE
  8
型材断面
  6
CONTINUOUS
 66
     1
  0
VERTEX
  8
型材断面
 10
-100.125
 20
-50.725
  0
VERTEX
  8
型材断面
 10
-100.1
 20
-50.725
  0
VERTEX
  8
型材断面
 10
-100.075
 20
-50.7
  0
VERTEX
  8
型材断面
 10
-100.05
 20
-50.7
  0
VERTEX
  8
型材断面
 10
-100.025
 20
-50.675
  0
VERTEX
  8
型材断面
 10
-100.0
 20
-50.675
  0
VERTEX
  8
型材断面
 10
-99.975
 20
-50.65
  0
VERTEX
  8
型材断面
 10
-99.975
 20
-50.65
  0
VERTEX
  8
型材断面
 10
-99.95
 20
-50.65
  0
VERTEX
  8
型材断面
 10
-99.925
 20
-50.625
  0
VERTEX
  8
型材断面
 10
-99.9
 20
-50.625
  0
VERTEX
  8
型材断面
 10
-99.875
 20
-50.6
  0
VERTEX
  8
型材断面
 10
-99.875
 20
-50.575
  0
VERTEX
  8
型材断面
 10
-99.85
 20
-50.575
  0
VERTEX
  8
型材断面
 10
-99.825
 20
-50.55
  0
VERTEX
  8
型材断面
 10
-99.8
 20
-50.55
  0
VERTEX
  8
型材断面
 10
-99.8
 20
-50.525
  0
VERTEX
  8
型材断面
 10
-99.775
 20
-50.525
  0
VERTEX
  8
型材断面
 10
-99.775
 20
-50.5
  0
VERTEX
  8
型材断面
 10
-99.75
 20
-50.475
  0
VERTEX
  8
型材断面
 10
-99.75
 20
-50.475
  0
VERTEX
  8
型材断面
 10
-99.725
 20
-50.45
  0
VERTEX
  8
型材断面
 10
-99.725
 20
-50.425
  0
VERTEX
  8
型材断面
 10
-99.7
 20
-50.425
  0
VERTEX
  8
型材断面
 10
-99.7
 20
-50.4
  0
VERTEX
  8
型材断面
 10
-99.7
 20
-50.375
  0
VERTEX
  8
型材断面
 10
-99.7
 20
-50.375
  0
VERTEX
  8
型材断面
 10
-99.675
 20
-50.35
  0
VERTEX
  8
型材断面
 10
-99.675
 20
-50.325
  0
VERTEX
  8
型材断面
 10
-99.675
 20
-50.325
  0
VERTEX
  8
型材断面
 10
-99.675
 20
-50.3
  0
VERTEX
  8
型材断面
 10
-99.675
 20
-50.275
  0
VERTEX
  8
型材断面
 10
-99.675
 20
-50.275
  0
VERTEX
  8
型材断面
 10
-99.675
 20
-50.25
  0
VERTEX
  8
型材断面
 10
-99.675
 20
-50.225
  0
VERTEX
  8
型材断面
 10
-99.675
 20
-50.2
  0
VERTEX
  8
型材断面
 10
-99.675
 20
-50.2
  0
VERTEX
  8
型材断面
 10
-99.675
 20
-50.175
  0
VERTEX
  8
型材断面
 10
-99.7
 20
-50.15
  0
VERTEX
  8
型材断面
 10
-99.7
 20
-50.15
  0
VERTEX
  8
型材断面
 10
-99.7
 20
-50.125
  0
VERTEX
  8
型材断面
 10
-99.7
 20
-50.1
  0
VERTEX
  8
型材断面
 10
-99.725
 20
-50.1
  0
VERTEX
  8
型材断面
 10
-99.725
 20
-50.075
  0
VERTEX
  8
型材断面
 10
-99.75
 20
-50.05
  0
VERTEX
  8
型材断面
 10
-99.75
 20
-50.05
  0
VERTEX
  8
型材断面
 10
-99.775
 20
-50.025
  0
VERTEX
  8
型材断面
 10
-99.775
 20
-50.025
  0
VERTEX
  8
型材断面
 10
-99.8
 20
-50.0
  0
SEQEND
  0
LINE
  8
型材断面
  6
CONTINUOUS
 10
-103.405615
 20
-47.423377
 11
-100.578773
 21
-50.250348
  0
LINE
  8
型材断面
  6
CONTINUOUS
 10
-104.025798
 20
-51.399405
 11
-100.578773
 21
-50.250348
  0
LINE
  8
型材断面
  6
CONTINUOUS
 10
-101.814682
 20
-47.95371
 11
-99.324047
 21
-50.444467
  0
LINE
  8
型材断面
  6
CONTINUOUS
 10
-103.56653
 20
-51.85869
 11
-99.324047
 21
-50.444467
  0
LINE
  8
型材断面
  6
CONTINUOUS
 10
-98.510483
 20
-47.95371
 11
-98.510483
 21
-47.423377
  0
LINE
  8
型材断面
  6
CONTINUOUS
 10
-95.938615
 20
-47.423377
 11
-95.938615
 21
-47.95371
  0
LINE
  8
型材断面
  6
CONTINUOUS
 10
-95.938615
 20
-47.555958
 11
-98.510483
 21
-47.555958
  0
LINE
  8
型材断面
  6
CONTINUOUS
 10
-95.938615
 20
-47.688543
 11
-98.510483
 21
-47.688543
  0
LINE
  8
型材断面
  6
CONTINUOUS
 10
-95.938615
 20
-47.821125
 11
-98.510483
 21
-47.821125
  0
LINE
  8
型材断面
  6
CONTINUOUS
 10
-94.77515
 20
-47.423377
 11
-103.405615
 21
-47.423377
  0
LINE
  8
型材断面
  6
CONTINUOUS
 10
-94.77515
 20
-47.95371
 11
-94.77515
 21
-47.423377
  0
LINE
  8
型材断面
  6
CONTINUOUS
 10
-101.814682
 20
-47.95371
 11
-94.77515
 21
-47.95371
  0
ENDBLK
  0
BLOCK
  2
*GRP_0068
 70
    65
 10
0.0
 20
0.0
  0
POLYLINE
  8
型材断面
  6
CONTINUOUS
 66
     1
  0
VERTEX
  8
型材断面
 10
-94.8
 20
-40.375
  0
VERTEX
  8
型材断面
 10
-94.775
 20
-40.35
  0
VERTEX
  8
型材断面
 10
-94.775
 20
-40.325
  0
VERTEX
  8
型材断面
 10
-94.775
 20
-40.325
  0
VERTEX
  8
型材断面
 10
-94.775
 20
-40.3
  0
VERTEX
  8
型材断面
 10
-94.775
 20
-40.275
  0
VERTEX
  8
型材断面
 10
-94.775
 20
-40.275
  0
VERTEX
  8
型材断面
 10
-94.775
 20
-40.25
  0
VERTEX
  8
型材断面
 10
-94.75
 20
-40.225
  0
VERTEX
  8
型材断面
 10
-94.75
 20
-40.225
  0
VERTEX
  8
型材断面
 10
-94.75
 20
-40.2
  0
VERTEX
  8
型材断面
 10
-94.725
 20
-40.175
  0
VERTEX
  8
型材断面
 10
-94.725
 20
-40.175
  0
VERTEX
  8
型材断面
 10
-94.7
 20
-40.15
  0
VERTEX
  8
型材断面
 10
-94.7
 20
-40.125
  0
VERTEX
  8
型材断面
 10
-94.675
 20
-40.125
  0
VERTEX
  8
型材断面
 10
-94.675
 20
-40.1
  0
VERTEX
  8
型材断面
 10
-94.65
 20
-40.1
  0
VERTEX
  8
型材断面
 10
-94.65
 20
-40.075
  0
VERTEX
  8
型材断面
 10
-94.625
 20
-40.05
  0
VERTEX
  8
型材断面
 10
-94.6
 20
-40.05
  0
VERTEX
  8
型材断面
 10
-94.575
 20
-40.025
  0
VERTEX
  8
型材断面
 10
-94.575
 20
-40.025
  0
VERTEX
  8
型材断面
 10
-94.55
 20
-40.0
  0
VERTEX
  8
型材断面
 10
-94.525
 20
-40.0
  0
VERTEX
  8
型材断面
 10
-94.5
 20
-39.975
  0
VERTEX
  8
型材断面
 10
-94.475
 20
-39.975
  0
VERTEX
  8
型材断面
 10
-94.475
 20
-39.95
  0
VERTEX
  8
型材断面
 10
-94.45
 20
-39.95
  0
VERTEX
  8
型材断面
 10
-94.425
 20
-39.95
  0
VERTEX
  8
型材断面
 10
-94.4
 20
-39.925
  0
VERTEX
  8
型材断面
 10
-94.375
 20
-39.925
  0
VERTEX
  8
型材断面
 10
-94.35
 20
-39.9
  0
VERTEX
  8
型材断面
 10
-94.325
 20
-39.9
  0
VERTEX
  8
型材断面
 10
-94.3
 20
-39.9
  0
VERTEX
  8
型材断面
 10
-94.275
 20
-39.875
  0
VERTEX
  8
型材断面
 10
-94.25
 20
-39.875
  0
VERTEX
  8
型材断面
 10
-94.225
 20
-39.875
  0
VERTEX
  8
型材断面
 10
-94.175
 20
-39.875
  0
VERTEX
  8
型材断面
 10
-94.15
 20
-39.85
  0
VERTEX
  8
型材断面
 10
-94.125
 20
-39.85
  0
VERTEX
  8
型材断面
 10
-94.1
 20
-39.85
  0
VERTEX
  8
型材断面
 10
-94.075
 20
-39.85
  0
VERTEX
  8
型材断面
 10
-94.05
 20
-39.85
  0
VERTEX
  8
型材断面
 10
-94.025
 20
-39.85
  0
VERTEX
  8
型材断面
 10
-93.975
 20
-39.85
  0
VERTEX
  8
型材断面
 10
-93.95
 20
-39.825
  0
VERTEX
  8
型材断面
 10
-93.925
 20
-39.825
  0
VERTEX
  8
型材断面
 10
-93.9
 20
-39.825
  0
VERTEX
  8
型材断面
 10
-93.875
 20
-39.825
  0
SEQEND
  0
LINE
  8
型材断面
  6
CONTINUOUS
 10
-94.77515
 20
-43.887813
 11
-94.77515
 21
-39.821918
  0
LINE
  8
型材断面
  6
CONTINUOUS
 10
-93.856622
 20
-43.887813
 11
-93.856622
 21
-40.35225
  0
POLYLINE
  8
型材断面
  6
CONTINUOUS
 66
     1
  0
VERTEX
  8
型材断面
 10
-90.2
 20
-40.375
  0
VERTEX
  8
型材断面
 10
-90.175
 20
-40.375
  0
VERTEX
  8
型材断面
 10
-90.125
 20
-40.375
  0
VERTEX
  8
型材断面
 10
-90.1
 20
-40.35
  0
VERTEX
  8
型材断面
 10
-90.075
 20
-40.35
  0
VERTEX
  8
型材断面
 10
-90.05
 20
-40.35
  0
VERTEX
  8
型材断面
 10
-90.025
 20
-40.35
  0
VERTEX
  8
型材断面
 10
-90.0
 20
-40.35
  0
VERTEX
  8
型材断面
 10
-89.95
 20
-40.35
  0
VERTEX
  8
型材断面
 10
-89.925
 20
-40.35
  0
VERTEX
  8
型材断面
 10
-89.9
 20
-40.35
  0
VERTEX
  8
型材断面
 10
-89.875
 20
-40.325
  0
VERTEX
  8
型材断面
 10
-89.85
 20
-40.325
  0
VERTEX
  8
型材断面
 10
-89.825
 20
-40.325
  0
VERTEX
  8
型材断面
 10
-89.8
 20
-40.3
  0
VERTEX
  8
型材断面
 10
-89.775
 20
-40.3
  0
VERTEX
  8
型材断面
 10
-89.75
 20
-40.3
  0
VERTEX
  8
型材断面
 10
-89.725
 20
-40.3
  0
VERTEX
  8
型材断面
 10
-89.7
 20
-40.275
  0
VERTEX
  8
型材断面
 10
-89.675
 20
-40.275
  0
VERTEX
  8
型材断面
 10
-89.65
 20
-40.25
  0
VERTEX
  8
型材断面
 10
-89.625
 20
-40.25
  0
VERTEX
  8
型材断面
 10
-89.6
 20
-40.25
  0
VERTEX
  8
型材断面
 10
-89.575
 20
-40.225
  0
VERTEX
  8
型材断面
 10
-89.55
 20
-40.225
  0
VERTEX
  8
型材断面
 10
-89.525
 20
-40.2
  0
VERTEX
  8
型材断面
 10
-89.525
 20
-40.2
  0
VERTEX
  8
型材断面
 10
-89.5
 20
-40.175
  0
VERTEX
  8
型材断面
 10
-89.475
 20
-40.175
  0
VERTEX
  8
型材断面
 10
-89.45
 20
-40.15
  0
VERTEX
  8
型材断面
 10
-89.45
 20
-40.15
  0
VERTEX
  8
型材断面
 10
-89.425
 20
-40.125
  0
VERTEX
  8
型材断面
 10
-89.4
 20
-40.1
  0
VERTEX
  8
型材断面
 10
-89.4
 20
-40.1
  0
VERTEX
  8
型材断面
 10
-89.375
 20
-40.075
  0
VERTEX
  8
型材断面
 10
-89.375
 20
-40.075
  0
VERTEX
  8
型材断面
 10
-89.35
 20
-40.05
  0
VERTEX
  8
型材断面
 10
-89.35
 20
-40.025
  0
VERTEX
  8
型材断面
 10
-89.325
 20
-40.025
  0
VERTEX
  8
型材断面
 10
-89.325
 20
-40.0
  0
VERTEX
  8
型材断面
 10
-89.325
 20
-39.975
  0
VERTEX
  8
型材断面
 10
-89.3
 20
-39.975
  0
VERTEX
  8
型材断面
 10
-89.3
 20
-39.95
  0
VERTEX
  8
型材断面
 10
-89.3
 20
-39.925
  0
VERTEX
  8
型材断面
 10
-89.3
 20
-39.925
  0
VERTEX
  8
型材断面
 10
-89.275
 20
-39.9
  0
VERTEX
  8
型材断面
 10
-89.275
 20
-39.875
  0
VERTEX
  8
型材断面
 10
-89.275
 20
-39.875
  0
VERTEX
  8
型材断面
 10
-89.275
 20
-39.85
  0
VERTEX
  8
型材断面
 10
-89.275
 20
-39.825
  0
SEQEND
  0
POLYLINE
  8
型材断面
  6
CONTINUOUS
 66
     1
  0
VERTEX
  8
型材断面
 10
-90.5
 20
-39.825
  0
VERTEX
  8
型材断面
 10
-90.5
 20
-39.825
  0
VERTEX
  8
型材断面
 10
-90.475
 20
-39.825
  0
VERTEX
  8
型材断面
 10
-90.475
 20
-39.825
  0
VERTEX
  8
型材断面
 10
-90.45
 20
-39.825
  0
VERTEX
  8
型材断面
 10
-90.45
 20
-39.825
  0
VERTEX
  8
型材断面
 10
-90.45
 20
-39.825
  0
VERTEX
  8
型材断面
 10
-90.425
 20
-39.825
  0
VERTEX
  8
型材断面
 10
-90.425
 20
-39.825
  0
VERTEX
  8
型材断面
 10
-90.425
 20
-39.825
  0
VERTEX
  8
型材断面
 10
-90.4
 20
-39.825
  0
VERTEX
  8
型材断面
 10
-90.4
 20
-39.825
  0
VERTEX
  8
型材断面
 10
-90.375
 20
-39.825
  0
VERTEX
  8
型材断面
 10
-90.375
 20
-39.825
  0
VERTEX
  8
型材断面
 10
-90.375
 20
-39.825
  0
VERTEX
  8
型材断面
 10
-90.35
 20
-39.825
  0
VERTEX
  8
型材断面
 10
-90.35
 20
-39.8
  0
VERTEX
  8
型材断面
 10
-90.35
 20
-39.8
  0
VERTEX
  8
型材断面
 10
-90.325
 20
-39.8
  0
VERTEX
  8
型材断面
 10
-90.325
 20
-39.8
  0
VERTEX
  8
型材断面
 10
-90.325
 20
-39.8
  0
VERTEX
  8
型材断面
 10
-90.3
 20
-39.8
  0
VERTEX
  8
型材断面
 10
-90.3
 20
-39.8
  0
VERTEX
  8
型材断面
 10
-90.3
 20
-39.8
  0
VERTEX
  8
型材断面
 10
-90.3
 20
-39.775
  0
VERTEX
  8
型材断面
 10
-90.275
 20
-39.775
  0
VERTEX
  8
型材断面
 10
-90.275
 20
-39.775
  0
VERTEX
  8
型材断面
 10
-90.275
 20
-39.775
  0
VERTEX
  8
型材断面
 10
-90.25
 20
-39.775
  0
VERTEX
  8
型材断面
 10
-90.25
 20
-39.775
  0
VERTEX
  8
型材断面
 10
-90.25
 20
-39.75
  0
VERTEX
  8
型材断面
 10
-90.25
 20
-39.75
  0
VERTEX
  8
型材断面
 10
-90.25
 20
-39.75
  0
VERTEX
  8
型材断面
 10
-90.225
 20
-39.75
  0
VERTEX
  8
型材断面
 10
-90.225
 20
-39.75
  0
VERTEX
  8
型材断面
 10
-90.225
 20
-39.725
  0
VERTEX
  8
型材断面
 10
-90.225
 20
-39.725
  0
VERTEX
  8
型材断面
 10
-90.225
 20
-39.725
  0
VERTEX
  8
型材断面
 10
-90.225
 20
-39.725
  0
VERTEX
  8
型材断面
 10
-90.2
 20
-39.725
  0
VERTEX
  8
型材断面
 10
-90.2
 20
-39.7
  0
VERTEX
  8
型材断面
 10
-90.2
 20
-39.7
  0
VERTEX
  8
型材断面
 10
-90.2
 20
-39.7
  0
VERTEX
  8
型材断面
 10
-90.2
 20
-39.7
  0
VERTEX
  8
型材断面
 10
-90.2
 20
-39.675
  0
VERTEX
  8
型材断面
 10
-90.2
 20
-39.675
  0
VERTEX
  8
型材断面
 10
-90.2
 20
-39.675
  0
VERTEX
  8
型材断面
 10
-90.2
 20
-39.675
  0
VERTEX
  8
型材断面
 10
-90.2
 20
-39.675
  0
VERTEX
  8
型材断面
 10
-90.2
 20
-39.65
  0
SEQEND
  0
LINE
  8
型材断面
  6
CONTINUOUS
 10
-93.965747
 20
-35.861745
 11
-93.506485
 21
-35.40246
  0
LINE
  8
型材断面
  6
CONTINUOUS
 10
-93.965747
 20
-35.861745
 11
-90.182522
 21
-37.122877
  0
LINE
  8
型材断面
  6
CONTINUOUS
 10
-90.182522
 20
-39.645135
 11
-90.182522
 21
-37.122877
  0
LINE
  8
型材断面
  6
CONTINUOUS
 10
-94.77515
 20
-39.821918
 11
-90.488698
 21
-39.821918
  0
LINE
  8
型材断面
  6
CONTINUOUS
 10
-93.856622
 20
-40.35225
 11
-89.263998
 21
-40.35225
  0
POLYLINE
  8
型材断面
  6
CONTINUOUS
 66
     1
  0
VERTEX
  8
型材断面
 10
-89.275
 20
-37.125
  0
VERTEX
  8
型材断面
 10
-89.275
 20
-37.125
  0
VERTEX
  8
型材断面
 10
-89.275
 20
-37.1
  0
VERTEX
  8
型材断面
 10
-89.275
 20
-37.075
  0
VERTEX
  8
型材断面
 10
-89.275
 20
-37.075
  0
VERTEX
  8
型材断面
 10
-89.3
 20
-37.05
  0
VERTEX
  8
型材断面
 10
-89.3
 20
-37.025
  0
VERTEX
  8
型材断面
 10
-89.3
 20
-37.025
  0
VERTEX
  8
型材断面
 10
-89.3
 20
-37.0
  0
VERTEX
  8
型材断面
 10
-89.325
 20
-36.975
  0
VERTEX
  8
型材断面
 10
-89.325
 20
-36.975
  0
VERTEX
  8
型材断面
 10
-89.325
 20
-36.95
  0
VERTEX
  8
型材断面
 10
-89.35
 20
-36.925
  0
VERTEX
  8
型材断面
 10
-89.35
 20
-36.925
  0
VERTEX
  8
型材断面
 10
-89.375
 20
-36.9
  0
VERTEX
  8
型材断面
 10
-89.375
 20
-36.875
  0
VERTEX
  8
型材断面
 10
-89.4
 20
-36.875
  0
VERTEX
  8
型材断面
 10
-89.425
 20
-36.85
  0
VERTEX
  8
型材断面
 10
-89.425
 20
-36.85
  0
VERTEX
  8
型材断面
 10
-89.45
 20
-36.825
  0
VERTEX
  8
型材断面
 10
-89.475
 20
-36.825
  0
VERTEX
  8
型材断面
 10
-89.475
 20
-36.8
  0
VERTEX
  8
型材断面
 10
-89.5
 20
-36.775
  0
VERTEX
  8
型材断面
 10
-89.525
 20
-36.775
  0
VERTEX
  8
型材断面
 10
-89.55
 20
-36.75
  0
VERTEX
  8
型材断面
 10
-89.575
 20
-36.75
  0
VERTEX
  8
型材断面
 10
-89.6
 20
-36.725
  0
VERTEX
  8
型材断面
 10
-89.6
 20
-36.725
  0
VERTEX
  8
型材断面
 10
-89.625
 20
-36.725
  0
VERTEX
  8
型材断面
 10
-89.65
 20
-36.7
  0
VERTEX
  8
型材断面
 10
-89.675
 20
-36.7
  0
VERTEX
  8
型材断面
 10
-89.7
 20
-36.675
  0
VERTEX
  8
型材断面
 10
-89.725
 20
-36.675
  0
SEQEND
  0
LINE
  8
型材断面
  6
CONTINUOUS
 10
-93.506485
 20
-35.40246
 11
-89.263998
 21
-36.81669
  0
LINE
  8
型材断面
  6
CONTINUOUS
 10
-89.263998
 20
-40.35225
 11
-89.263998
 21
-36.81669
  0
POLYLINE
  8
型材断面
  6
CONTINUOUS
 66
     1
  0
VERTEX
  8
型材断面
 10
-93.875
 20
-47.975
  0
VERTEX
  8
型材断面
 10
-93.9
 20
-47.975
  0
VERTEX
  8
型材断面
 10
-93.925
 20
-47.975
  0
VERTEX
  8
型材断面
 10
-93.95
 20
-47.975
  0
VERTEX
  8
型材断面
 10
-93.975
 20
-47.95
  0
VERTEX
  8
型材断面
 10
-94.025
 20
-47.95
  0
VERTEX
  8
型材断面
 10
-94.05
 20
-47.95
  0
VERTEX
  8
型材断面
 10
-94.075
 20
-47.95
  0
VERTEX
  8
型材断面
 10
-94.1
 20
-47.95
  0
VERTEX
  8
型材断面
 10
-94.125
 20
-47.95
  0
VERTEX
  8
型材断面
 10
-94.15
 20
-47.95
  0
VERTEX
  8
型材断面
 10
-94.175
 20
-47.925
  0
VERTEX
  8
型材断面
 10
-94.225
 20
-47.925
  0
VERTEX
  8
型材断面
 10
-94.25
 20
-47.925
  0
VERTEX
  8
型材断面
 10
-94.275
 20
-47.925
  0
VERTEX
  8
型材断面
 10
-94.3
 20
-47.9
  0
VERTEX
  8
型材断面
 10
-94.325
 20
-47.9
  0
VERTEX
  8
型材断面
 10
-94.35
 20
-47.9
  0
VERTEX
  8
型材断面
 10
-94.375
 20
-47.875
  0
VERTEX
  8
型材断面
 10
-94.4
 20
-47.875
  0
VERTEX
  8
型材断面
 10
-94.425
 20
-47.85
  0
VERTEX
  8
型材断面
 10
-94.45
 20
-47.85
  0
VERTEX
  8
型材断面
 10
-94.475
 20
-47.85
  0
VERTEX
  8
型材断面
 10
-94.475
 20
-47.825
  0
VERTEX
  8
型材断面
 10
-94.5
 20
-47.825
  0
VERTEX
  8
型材断面
 10
-94.525
 20
-47.8
  0
VERTEX
  8
型材断面
 10
-94.55
 20
-47.8
  0
VERTEX
  8
型材断面
 10
-94.575
 20
-47.775
  0
VERTEX
  8
型材断面
 10
-94.575
 20
-47.775
  0
VERTEX
  8
型材断面
 10
-94.6
 20
-47.75
  0
VERTEX
  8
型材断面
 10
-94.625
 20
-47.75
  0
VERTEX
  8
型材断面
 10
-94.65
 20
-47.725
  0
VERTEX
  8
型材断面
 10
-94.65
 20
-47.7
  0
VERTEX
  8
型材断面
 10
-94.675
 20
-47.7
  0
VERTEX
  8
型材断面
 10
-94.675
 20
-47.675
  0
VERTEX
  8
型材断面
 10
-94.7
 20
-47.675
  0
VERTEX
  8
型材断面
 10
-94.7
 20
-47.65
  0
VERTEX
  8
型材断面
 10
-94.725
 20
-47.625
  0
VERTEX
  8
型材断面
 10
-94.725
 20
-47.625
  0
VERTEX
  8
型材断面
 10
-94.75
 20
-47.6
  0
VERTEX
  8
型材断面
 10
-94.75
 20
-47.575
  0
VERTEX
  8
型材断面
 10
-94.75
 20
-47.575
  0
VERTEX
  8
型材断面
 10
-94.775
 20
-47.55
  0
VERTEX
  8
型材断面
 10
-94.775
 20
-47.525
  0
VERTEX
  8
型材断面
 10
-94.775
 20
-47.525
  0
VERTEX
  8
型材断面
 10
-94.775
 20
-47.5
  0
VERTEX
  8
型材断面
 10
-94.775
 20
-47.475
  0
VERTEX
  8
型材断面
 10
-94.775
 20
-47.475
  0
VERTEX
  8
型材断面
 10
-94.775
 20
-47.45
  0
VERTEX
  8
型材断面
 10
-94.8
 20
-47.425
  0
SEQEND
  0
LINE
  8
型材断面
  6
CONTINUOUS
 10
-94.77515
 20
-43.887813
 11
-94.77515
 21
-47.95371
  0
LINE
  8
型材断面
  6
CONTINUOUS
 10
-93.856622
 20
-43.887813
 11
-93.856622
 21
-47.423377
  0
POLYLINE
  8
型材断面
  6
CONTINUOUS
 66
     1
  0
VERTEX
  8
型材断面
 10
-89.275
 20
-47.975
  0
VERTEX
  8
型材断面
 10
-89.275
 20
-47.95
  0
VERTEX
  8
型材断面
 10
-89.275
 20
-47.925
  0
VERTEX
  8
型材断面
 10
-89.275
 20
-47.925
  0
VERTEX
  8
型材断面
 10
-89.275
 20
-47.9
  0
VERTEX
  8
型材断面
 10
-89.3
 20
-47.875
  0
VERTEX
  8
型材断面
 10
-89.3
 20
-47.875
  0
VERTEX
  8
型材断面
 10
-89.3
 20
-47.85
  0
VERTEX
  8
型材断面
 10
-89.3
 20
-47.825
  0
VERTEX
  8
型材断面
 10
-89.325
 20
-47.825
  0
VERTEX
  8
型材断面
 10
-89.325
 20
-47.8
  0
VERTEX
  8
型材断面
 10
-89.325
 20
-47.775
  0
VERTEX
  8
型材断面
 10
-89.35
 20
-47.775
  0
VERTEX
  8
型材断面
 10
-89.35
 20
-47.75
  0
VERTEX
  8
型材断面
 10
-89.375
 20
-47.725
  0
VERTEX
  8
型材断面
 10
-89.375
 20
-47.725
  0
VERTEX
  8
型材断面
 10
-89.4
 20
-47.7
  0
VERTEX
  8
型材断面
 10
-89.4
 20
-47.7
  0
VERTEX
  8
型材断面
 10
-89.425
 20
-47.675
  0
VERTEX
  8
型材断面
 10
-89.45
 20
-47.675
  0
VERTEX
  8
型材断面
 10
-89.45
 20
-47.65
  0
VERTEX
  8
型材断面
 10
-89.475
 20
-47.625
  0
VERTEX
  8
型材断面
 10
-89.5
 20
-47.625
  0
VERTEX
  8
型材断面
 10
-89.525
 20
-47.6
  0
VERTEX
  8
型材断面
 10
-89.525
 20
-47.6
  0
VERTEX
  8
型材断面
 10
-89.55
 20
-47.575
  0
VERTEX
  8
型材断面
 10
-89.575
 20
-47.575
  0
VERTEX
  8
型材断面
 10
-89.6
 20
-47.55
  0
VERTEX
  8
型材断面
 10
-89.625
 20
-47.55
  0
VERTEX
  8
型材断面
 10
-89.65
 20
-47.55
  0
VERTEX
  8
型材断面
 10
-89.675
 20
-47.525
  0
VERTEX
  8
型材断面
 10
-89.7
 20
-47.525
  0
VERTEX
  8
型材断面
 10
-89.725
 20
-47.525
  0
VERTEX
  8
型材断面
 10
-89.75
 20
-47.5
  0
VERTEX
  8
型材断面
 10
-89.775
 20
-47.5
  0
VERTEX
  8
型材断面
 10
-89.8
 20
-47.5
  0
VERTEX
  8
型材断面
 10
-89.825
 20
-47.475
  0
VERTEX
  8
型材断面
 10
-89.85
 20
-47.475
  0
VERTEX
  8
型材断面
 10
-89.875
 20
-47.475
  0
VERTEX
  8
型材断面
 10
-89.9
 20
-47.475
  0
VERTEX
  8
型材断面
 10
-89.925
 20
-47.45
  0
VERTEX
  8
型材断面
 10
-89.95
 20
-47.45
  0
VERTEX
  8
型材断面
 10
-90.0
 20
-47.45
  0
VERTEX
  8
型材断面
 10
-90.025
 20
-47.45
  0
VERTEX
  8
型材断面
 10
-90.05
 20
-47.45
  0
VERTEX
  8
型材断面
 10
-90.075
 20
-47.45
  0
VERTEX
  8
型材断面
 10
-90.1
 20
-47.45
  0
VERTEX
  8
型材断面
 10
-90.125
 20
-47.425
  0
VERTEX
  8
型材断面
 10
-90.175
 20
-47.425
  0
VERTEX
  8
型材断面
 10
-90.2
 20
-47.425
  0
SEQEND
  0
POLYLINE
  8
型材断面
  6
CONTINUOUS
 66
     1
  0
VERTEX
  8
型材断面
 10
-90.2
 20
-48.15
  0
VERTEX
  8
型材断面
 10
-90.2
 20
-48.125
  0
VERTEX
  8
型材断面
 10
-90.2
 20
-48.125
  0
VERTEX
  8
型材断面
 10
-90.2
 20
-48.125
  0
VERTEX
  8
型材断面
 10
-90.2
 20
-48.125
  0
VERTEX
  8
型材断面
 10
-90.2
 20
-48.125
  0
VERTEX
  8
型材断面
 10
-90.2
 20
-48.1
  0
VERTEX
  8
型材断面
 10
-90.2
 20
-48.1
  0
VERTEX
  8
型材断面
 10
-90.2
 20
-48.1
  0
VERTEX
  8
型材断面
 10
-90.2
 20
-48.1
  0
VERTEX
  8
型材断面
 10
-90.2
 20
-48.075
  0
VERTEX
  8
型材断面
 10
-90.225
 20
-48.075
  0
VERTEX
  8
型材断面
 10
-90.225
 20
-48.075
  0
VERTEX
  8
型材断面
 10
-90.225
 20
-48.075
  0
VERTEX
  8
型材断面
 10
-90.225
 20
-48.075
  0
VERTEX
  8
型材断面
 10
-90.225
 20
-48.05
  0
VERTEX
  8
型材断面
 10
-90.225
 20
-48.05
  0
VERTEX
  8
型材断面
 10
-90.25
 20
-48.05
  0
VERTEX
  8
型材断面
 10
-90.25
 20
-48.05
  0
VERTEX
  8
型材断面
 10
-90.25
 20
-48.05
  0
VERTEX
  8
型材断面
 10
-90.25
 20
-48.025
  0
VERTEX
  8
型材断面
 10
-90.25
 20
-48.025
  0
VERTEX
  8
型材断面
 10
-90.275
 20
-48.025
  0
VERTEX
  8
型材断面
 10
-90.275
 20
-48.025
  0
VERTEX
  8
型材断面
 10
-90.275
 20
-48.025
  0
VERTEX
  8
型材断面
 10
-90.3
 20
-48.025
  0
VERTEX
  8
型材断面
 10
-90.3
 20
-48.0
  0
VERTEX
  8
型材断面
 10
-90.3
 20
-48.0
  0
VERTEX
  8
型材断面
 10
-90.3
 20
-48.0
  0
VERTEX
  8
型材断面
 10
-90.325
 20
-48.0
  0
VERTEX
  8
型材断面
 10
-90.325
 20
-48.0
  0
VERTEX
  8
型材断面
 10
-90.325
 20
-48.0
  0
VERTEX
  8
型材断面
 10
-90.35
 20
-48.0
  0
VERTEX
  8
型材断面
 10
-90.35
 20
-48.0
  0
VERTEX
  8
型材断面
 10
-90.35
 20
-47.975
  0
VERTEX
  8
型材断面
 10
-90.375
 20
-47.975
  0
VERTEX
  8
型材断面
 10
-90.375
 20
-47.975
  0
VERTEX
  8
型材断面
 10
-90.375
 20
-47.975
  0
VERTEX
  8
型材断面
 10
-90.4
 20
-47.975
  0
VERTEX
  8
型材断面
 10
-90.4
 20
-47.975
  0
VERTEX
  8
型材断面
 10
-90.425
 20
-47.975
  0
VERTEX
  8
型材断面
 10
-90.425
 20
-47.975
  0
VERTEX
  8
型材断面
 10
-90.425
 20
-47.975
  0
VERTEX
  8
型材断面
 10
-90.45
 20
-47.975
  0
VERTEX
  8
型材断面
 10
-90.45
 20
-47.975
  0
VERTEX
  8
型材断面
 10
-90.45
 20
-47.975
  0
VERTEX
  8
型材断面
 10
-90.475
 20
-47.975
  0
VERTEX
  8
型材断面
 10
-90.475
 20
-47.975
  0
VERTEX
  8
型材断面
 10
-90.5
 20
-47.975
  0
VERTEX
  8
型材断面
 10
-90.5
 20
-47.975
  0
SEQEND
  0
LINE
  8
型材断面
  6
CONTINUOUS
 10
-93.965747
 20
-51.913883
 11
-93.506485
 21
-52.373168
  0
LINE
  8
型材断面
  6
CONTINUOUS
 10
-93.965747
 20
-51.913883
 11
-90.182522
 21
-50.65275
  0
LINE
  8
型材断面
  6
CONTINUOUS
 10
-90.182522
 20
-48.130487
 11
-90.182522
 21
-50.65275
  0
LINE
  8
型材断面
  6
CONTINUOUS
 10
-94.77515
 20
-47.95371
 11
-90.488698
 21
-47.95371
  0
LINE
  8
型材断面
  6
CONTINUOUS
 10
-93.856622
 20
-47.423377
 11
-89.263998
 21
-47.423377
  0
POLYLINE
  8
型材断面
  6
CONTINUOUS
 66
     1
  0
VERTEX
  8
型材断面
 10
-89.725
 20
-51.125
  0
VERTEX
  8
型材断面
 10
-89.7
 20
-51.125
  0
VERTEX
  8
型材断面
 10
-89.675
 20
-51.1
  0
VERTEX
  8
型材断面
 10
-89.65
 20
-51.1
  0
VERTEX
  8
型材断面
 10
-89.625
 20
-51.075
  0
VERTEX
  8
型材断面
 10
-89.6
 20
-51.075
  0
VERTEX
  8
型材断面
 10
-89.6
 20
-51.075
  0
VERTEX
  8
型材断面
 10
-89.575
 20
-51.05
  0
VERTEX
  8
型材断面
 10
-89.55
 20
-51.05
  0
VERTEX
  8
型材断面
 10
-89.525
 20
-51.025
  0
VERTEX
  8
型材断面
 10
-89.5
 20
-51.025
  0
VERTEX
  8
型材断面
 10
-89.475
 20
-51.0
  0
VERTEX
  8
型材断面
 10
-89.475
 20
-51.0
  0
VERTEX
  8
型材断面
 10
-89.45
 20
-50.975
  0
VERTEX
  8
型材断面
 10
-89.425
 20
-50.95
  0
VERTEX
  8
型材断面
 10
-89.425
 20
-50.95
  0
VERTEX
  8
型材断面
 10
-89.4
 20
-50.925
  0
VERTEX
  8
型材断面
 10
-89.375
 20
-50.925
  0
VERTEX
  8
型材断面
 10
-89.375
 20
-50.9
  0
VERTEX
  8
型材断面
 10
-89.35
 20
-50.875
  0
VERTEX
  8
型材断面
 10
-89.35
 20
-50.875
  0
VERTEX
  8
型材断面
 10
-89.325
 20
-50.85
  0
VERTEX
  8
型材断面
 10
-89.325
 20
-50.825
  0
VERTEX
  8
型材断面
 10
-89.325
 20
-50.825
  0
VERTEX
  8
型材断面
 10
-89.3
 20
-50.8
  0
VERTEX
  8
型材断面
 10
-89.3
 20
-50.775
  0
VERTEX
  8
型材断面
 10
-89.3
 20
-50.775
  0
VERTEX
  8
型材断面
 10
-89.3
 20
-50.75
  0
VERTEX
  8
型材断面
 10
-89.275
 20
-50.725
  0
VERTEX
  8
型材断面
 10
-89.275
 20
-50.725
  0
VERTEX
  8
型材断面
 10
-89.275
 20
-50.7
  0
VERTEX
  8
型材断面
 10
-89.275
 20
-50.675
  0
VERTEX
  8
型材断面
 10
-89.275
 20
-50.675
  0
SEQEND
  0
LINE
  8
型材断面
  6
CONTINUOUS
 10
-93.506485
 20
-52.373168
 11
-89.263998
 21
-50.958937
  0
LINE
  8
型材断面
  6
CONTINUOUS
 10
-89.263998
 20
-47.423377
 11
-89.263998
 21
-50.958937
  0
ENDBLK
  0
BLOCK
  2
*GRP_0069
 70
    65
 10
0.0
 20
0.0
  0
LINE
  8
ゴム等
  6
CONTINUOUS
 10
-103.18125
 20
-40.12788
 11
-108.21921
 21
-38.448488
  0
LINE
  8
ゴム等
  6
CONTINUOUS
 10
-108.21921
 20
-38.448488
 11
-105.157465
 21
-35.386597
  0
LINE
  8
ゴム等
  6
CONTINUOUS
 10
-103.56653
 20
-35.916938
 11
-104.025798
 21
-36.376217
  0
LINE
  8
ゴム等
  6
CONTINUOUS
 10
-100.57877
 20
-37.52527
 11
-104.025798
 21
-36.376217
  0
LINE
  8
ゴム等
  6
CONTINUOUS
 10
-105.157465
 20
-35.386597
 11
-103.56653
 21
-35.916938
  0
LINE
  8
ゴム等
  6
CONTINUOUS
 10
-103.18125
 20
-40.12788
 11
-100.57877
 21
-37.52527
  0
INSERT
  2
*HAT_0009
  8
ゴム等
 10
0.0
 20
0.0
  0
ENDBLK
  0
BLOCK
  2
*GRP_0070
 70
    65
 10
0.0
 20
0.0
  0
LINE
  8
ゴム等
  6
CONTINUOUS
 10
-103.18125
 20
-47.647747
 11
-108.21921
 21
-49.32714
  0
LINE
  8
ゴム等
  6
CONTINUOUS
 10
-108.21921
 20
-49.32714
 11
-105.157465
 21
-52.38903
  0
LINE
  8
ゴム等
  6
CONTINUOUS
 10
-103.56653
 20
-51.85869
 11
-104.025798
 21
-51.399413
  0
LINE
  8
ゴム等
  6
CONTINUOUS
 10
-100.57877
 20
-50.250355
 11
-104.025798
 21
-51.399413
  0
LINE
  8
ゴム等
  6
CONTINUOUS
 10
-105.157465
 20
-52.38903
 11
-103.56653
 21
-51.85869
  0
LINE
  8
ゴム等
  6
CONTINUOUS
 10
-103.18125
 20
-47.647747
 11
-100.57877
 21
-50.250355
  0
INSERT
  2
*HAT_0010
  8
ゴム等
 10
0.0
 20
0.0
  0
ENDBLK
  0
BLOCK
  2
*GRP_0071
 70
    65
 10
0.0
 20
0.0
  0
LINE
  8
ゴム等
  6
CONTINUOUS
 10
-118.301125
 20
-34.883575
 11
-115.851728
 21
-32.434065
  0
LINE
  8
ゴム等
  6
CONTINUOUS
 10
-115.851728
 20
-32.434065
 11
-112.404702
 21
-33.583125
  0
LINE
  8
ゴム等
  6
CONTINUOUS
 10
-112.404702
 20
-33.583125
 11
-114.854103
 21
-36.032632
  0
LINE
  8
ゴム等
  6
CONTINUOUS
 10
-118.301125
 20
-34.883575
 11
-114.854103
 21
-36.032632
  0
INSERT
  2
*HAT_0011
  8
ゴム等
 10
0.0
 20
0.0
  0
ENDBLK
  0
BLOCK
  2
*GRP_0072
 70
    65
 10
0.0
 20
0.0
  0
LINE
  8
ゴム等
  6
CONTINUOUS
 10
-118.301125
 20
-52.89205
 11
-115.851728
 21
-55.341562
  0
LINE
  8
ゴム等
  6
CONTINUOUS
 10
-115.851728
 20
-55.341562
 11
-112.404702
 21
-54.192505
  0
LINE
  8
ゴム等
  6
CONTINUOUS
 10
-112.404702
 20
-54.192505
 11
-114.854103
 21
-51.742995
  0
LINE
  8
ゴム等
  6
CONTINUOUS
 10
-118.301125
 20
-52.89205
 11
-114.854103
 21
-51.742995
  0
INSERT
  2
*HAT_0012
  8
ゴム等
 10
0.0
 20
0.0
  0
ENDBLK
  0
BLOCK
  2
*GRP_0073
 70
    65
 10
0.0
 20
0.0
  0
LINE
  8
補助線
  6
BYBLOCK
 62
     0
 10
36.150128
 20
-23.722722
 11
36.150128
 21
-26.22272
  0
LINE
  8
補助線
  6
BYBLOCK
 62
     0
 10
34.90013
 20
-24.972722
 11
37.400128
 21
-24.972722
  0
ENDBLK
  0
BLOCK
  2
*GRP_0074
 70
    65
 10
0.0
 20
0.0
  0
LINE
  8
補助線
  6
BYBLOCK
 62
     0
 10
60.898868
 20
1.026017
 11
60.898868
 21
-1.47398
  0
LINE
  8
補助線
  6
BYBLOCK
 62
     0
 10
59.64887
 20
-0.223982
 11
62.148868
 21
-0.223982
  0
ENDBLK
  0
BLOCK
  2
*GRP_0075
 70
    65
 10
0.0
 20
0.0
  0
LINE
  8
補助線
  6
BYBLOCK
 62
     0
 10
85.647608
 20
-23.722722
 11
85.647608
 21
-26.22272
  0
LINE
  8
補助線
  6
BYBLOCK
 62
     0
 10
84.39761
 20
-24.972722
 11
86.897608
 21
-24.972722
  0
ENDBLK
  0
BLOCK
  2
*GRP_0076
 70
    65
 10
0.0
 20
0.0
  0
LINE
  8
補助線
  6
BYBLOCK
 62
     0
 10
60.898868
 20
-48.471462
 11
60.898868
 21
-50.97146
  0
LINE
  8
補助線
  6
BYBLOCK
 62
     0
 10
59.64887
 20
-49.721462
 11
62.148868
 21
-49.721462
  0
ENDBLK
  0
BLOCK
  2
M6頭
 70
    64
 10
-180.218008
 20
149.01779
  0
POLYLINE
  8
ボルト／ビス
 66
     1
  0
VERTEX
  8
ボルト／ビス
 10
-182.718008
 20
153.347918
  0
VERTEX
  8
ボルト／ビス
 10
-177.718008
 20
153.347918
  0
VERTEX
  8
ボルト／ビス
 10
-175.218008
 20
149.01779
  0
VERTEX
  8
ボルト／ビス
 10
-177.718008
 20
144.687663
  0
VERTEX
  8
ボルト／ビス
 10
-182.718008
 20
144.687663
  0
VERTEX
  8
ボルト／ビス
 10
-185.218008
 20
149.01779
  0
VERTEX
  8
ボルト／ビス
 10
-182.718008
 20
153.347918
  0
SEQEND
  0
CIRCLE
  8
ボルト／ビス
 10
-180.218008
 20
149.01779
 40
4.330127
  0
ENDBLK
  0
ENDSEC
  0
SECTION
  2
ENTITIES
  0
POLYLINE
  8
通り芯
  6
CONTINUOUS
 66
     1
 70
     1
  0
VERTEX
  8
通り芯
 10
-210.0
 20
-148.5
  0
VERTEX
  8
通り芯
 10
210.0
 20
-148.5
  0
VERTEX
  8
通り芯
 10
210.0
 20
148.5
  0
VERTEX
  8
通り芯
 10
-210.0
 20
148.5
  0
SEQEND
  0
INSERT
  2
*GRP_0002
  8
補助線
  6
CONTINUOUS
 10
0.0
 20
0.0
  0
INSERT
  2
*GRP_0003
  8
補助線
  6
CONTINUOUS
 10
0.0
 20
0.0
  0
INSERT
  2
*GRP_0001
  8
型材断面
  6
CONTINUOUS
 10
0.0
 20
0.0
  0
INSERT
  2
M6頭
  8
型材断面
  6
CONTINUOUS
 10
-100.038998
 20
-43.887813
 50
90.0
 41
0.5
 42
0.5
  0
INSERT
  2
M6頭
  8
型材断面
  6
CONTINUOUS
 10
-100.038998
 20
-6.057632
 50
270.0
 41
0.5
 42
-0.5
  0
ARC
  8
型材断面
  6
CONTINUOUS
 10
60.898869
 20
8.261296
 40
1.5
 50
45.0
 51
135.0
  0
LINE
  8
型材断面
  6
DASHDOT
 10
75.371877
 20
-10.499712
 11
80.060592
 21
-5.810998
  0
LINE
  8
型材断面
  6
CONTINUOUS
 10
97.744275
 20
-68.889192
 11
76.101668
 21
-47.246585
  0
LINE
  8
型材断面
  6
CONTINUOUS
 10
104.815343
 20
-61.81813
 11
83.172732
 21
-40.175522
  0
LINE
  8
型材断面
  6
DOT
 10
98.274605
 20
-68.358865
 11
76.631998
 21
-46.716258
  0
LINE
  8
型材断面
  6
DOT
 10
104.285015
 20
-62.348458
 11
82.642403
 21
-40.70585
  0
LINE
  8
型材断面
  6
CONTINUOUS
 10
97.744275
 20
18.94375
 11
76.101668
 21
-2.698858
  0
LINE
  8
型材断面
  6
CONTINUOUS
 10
104.815343
 20
11.872685
 11
83.172732
 21
-9.769923
  0
LINE
  8
型材断面
  6
DOT
 10
98.274605
 20
18.41342
 11
76.631998
 21
-3.229187
  0
LINE
  8
型材断面
  6
DOT
 10
104.285015
 20
12.403015
 11
82.642403
 21
-9.239592
  0
LINE
  8
型材断面
  6
CONTINUOUS
 10
24.05346
 20
18.94375
 11
45.696068
 21
-2.698858
  0
LINE
  8
型材断面
  6
CONTINUOUS
 10
16.982393
 20
11.872685
 11
38.625005
 21
-9.769923
  0
LINE
  8
型材断面
  6
DOT
 10
23.523133
 20
18.41342
 11
45.16574
 21
-3.229187
  0
LINE
  8
型材断面
  6
DOT
 10
17.512723
 20
12.403015
 11
39.155333
 21
-9.239592
  0
LINE
  8
型材断面
  6
CONTINUOUS
 10
24.05346
 20
-68.889192
 11
45.696068
 21
-47.246585
  0
LINE
  8
型材断面
  6
CONTINUOUS
 10
16.982393
 20
-61.81813
 11
38.625005
 21
-40.175522
  0
LINE
  8
型材断面
  6
DOT
 10
23.523133
 20
-68.358865
 11
45.16574
 21
-46.716258
  0
LINE
  8
型材断面
  6
DOT
 10
17.512723
 20
-62.348458
 11
39.155333
 21
-40.70585
  0
LINE
  8
型材断面
  6
CONTINUOUS
 10
87.148733
 20
-36.19952
 11
108.791343
 21
-57.842127
  0
LINE
  8
型材断面
  6
CONTINUOUS
 10
87.608015
 20
-35.74024
 11
109.250622
 21
-57.382848
  0
LINE
  8
型材断面
  6
CONTINUOUS
 10
88.122485
 20
-35.22577
 11
109.765092
 21
-56.868378
  0
LINE
  8
型材断面
  6
CONTINUOUS
 10
71.66639
 20
-51.681865
 11
93.308998
 21
-73.324472
  0
LINE
  8
型材断面
  6
CONTINUOUS
 10
72.12567
 20
-51.222583
 11
93.768277
 21
-72.86519
  0
LINE
  8
型材断面
  6
CONTINUOUS
 10
71.15192
 20
-52.196335
 11
92.794528
 21
-73.838943
  0
LINE
  8
型材断面
  6
CONTINUOUS
 10
88.122485
 20
-35.22577
 11
71.15192
 21
-52.196335
  0
LINE
  8
型材断面
  6
CONTINUOUS
 10
87.148733
 20
-13.745922
 11
108.791343
 21
7.896685
  0
LINE
  8
型材断面
  6
CONTINUOUS
 10
87.608015
 20
-14.205205
 11
109.250622
 21
7.437402
  0
LINE
  8
型材断面
  6
CONTINUOUS
 10
88.122485
 20
-14.719675
 11
109.765092
 21
6.922933
  0
LINE
  8
型材断面
  6
CONTINUOUS
 10
71.66639
 20
1.73642
 11
93.308998
 21
23.379027
  0
LINE
  8
型材断面
  6
CONTINUOUS
 10
72.12567
 20
1.27714
 11
93.768277
 21
22.919748
  0
LINE
  8
型材断面
  6
CONTINUOUS
 10
71.15192
 20
2.25089
 11
92.794528
 21
23.893498
  0
LINE
  8
型材断面
  6
CONTINUOUS
 10
88.122485
 20
-14.719675
 11
71.15192
 21
2.25089
  0
LINE
  8
型材断面
  6
CONTINUOUS
 10
34.649002
 20
-13.745922
 11
13.006397
 21
7.896685
  0
LINE
  8
型材断面
  6
CONTINUOUS
 10
34.189723
 20
-14.205205
 11
12.547115
 21
7.437402
  0
LINE
  8
型材断面
  6
CONTINUOUS
 10
33.675252
 20
-14.719675
 11
12.032645
 21
6.922933
  0
LINE
  8
型材断面
  6
CONTINUOUS
 10
50.131348
 20
1.73642
 11
28.48874
 21
23.379027
  0
LINE
  8
型材断面
  6
CONTINUOUS
 10
49.672065
 20
1.27714
 11
28.029457
 21
22.919748
  0
LINE
  8
型材断面
  6
CONTINUOUS
 10
50.645817
 20
2.25089
 11
29.00321
 21
23.893498
  0
LINE
  8
型材断面
  6
CONTINUOUS
 10
33.675252
 20
-14.719675
 11
50.645817
 21
2.25089
  0
LINE
  8
型材断面
  6
CONTINUOUS
 10
34.649002
 20
-36.19952
 11
13.006397
 21
-57.842127
  0
LINE
  8
型材断面
  6
CONTINUOUS
 10
34.189723
 20
-35.74024
 11
12.547115
 21
-57.382848
  0
LINE
  8
型材断面
  6
CONTINUOUS
 10
33.675252
 20
-35.22577
 11
12.032645
 21
-56.868378
  0
LINE
  8
型材断面
  6
CONTINUOUS
 10
50.131348
 20
-51.681865
 11
28.48874
 21
-73.324472
  0
LINE
  8
型材断面
  6
CONTINUOUS
 10
49.672065
 20
-51.222583
 11
28.029457
 21
-72.86519
  0
LINE
  8
型材断面
  6
CONTINUOUS
 10
50.645817
 20
-52.196335
 11
29.00321
 21
-73.838943
  0
LINE
  8
型材断面
  6
CONTINUOUS
 10
33.675252
 20
-35.22577
 11
50.645817
 21
-52.196335
  0
LINE
  8
型材断面
  6
CONTINUOUS
 10
-81.790693
 20
-44.29174
 11
-18.468837
 21
-107.613595
  0
LINE
  8
型材断面
  6
CONTINUOUS
 10
-81.790693
 20
-47.827272
 11
-20.236605
 21
-109.381362
  0
LINE
  8
型材断面
  6
CONTINUOUS
 10
-81.790693
 20
-52.420068
 11
-22.533
 21
-111.677758
  0
LINE
  8
型材断面
  6
CONTINUOUS
 10
-81.790693
 20
-54.89834
 11
-23.772138
 21
-112.916895
  0
LINE
  8
型材断面
  6
CONTINUOUS
 10
-81.790693
 20
-58.43387
 11
-25.539902
 21
-114.68466
  0
LINE
  8
型材断面
  6
CONTINUOUS
 10
-81.790693
 20
-64.090727
 11
-28.36833
 21
-117.513087
  0
LINE
  8
型材断面
  6
CONTINUOUS
 10
-82.371388
 20
-67.399122
 11
-30.312878
 21
-119.457635
  0
LINE
  8
型材断面
  6
CONTINUOUS
 10
-103.568843
 20
-51.85889
 11
-33.141488
 21
-122.286245
  0
LINE
  8
型材断面
  6
CONTINUOUS
 10
-111.94784
 20
-54.65201
 11
-38.727545
 21
-127.872303
  0
INSERT
  2
*GRP_0004
  8
型材断面
  6
CONTINUOUS
 10
0.0
 20
0.0
  0
INSERT
  2
*GRP_0005
  8
型材断面
  6
CONTINUOUS
 10
0.0
 20
0.0
  0
INSERT
  2
*GRP_0006
  8
型材断面
  6
CONTINUOUS
 10
0.0
 20
0.0
  0
INSERT
  2
*GRP_0007
  8
型材断面
  6
CONTINUOUS
 10
0.0
 20
0.0
  0
LINE
  8
型材断面
  6
DASHDOT
 10
-18.230108
 20
60.245565
 11
-27.530695
 21
94.955838
  0
LINE
  8
型材断面
  6
DASHDOT
 10
-17.643435
 20
71.131742
 11
-14.466398
 21
71.983028
  0
LINE
  8
型材断面
  6
DASHDOT
 10
-24.18127
 20
69.379935
 11
-27.358307
 21
68.52865
  0
LINE
  8
型材断面
  6
CONTINUOUS
 10
-81.788998
 20
-5.65201
 11
-9.571732
 21
66.565255
  0
LINE
  8
型材断面
  6
CONTINUOUS
 10
-81.788998
 20
-2.116475
 11
-14.401365
 21
65.271157
  0
LINE
  8
型材断面
  6
CONTINUOUS
 10
-81.790693
 20
2.474623
 11
-15.371123
 21
68.894195
  0
LINE
  8
型材断面
  6
CONTINUOUS
 10
-81.790693
 20
4.952897
 11
-24.06062
 21
62.682968
  0
LINE
  8
型材断面
  6
CONTINUOUS
 10
-81.790693
 20
8.488428
 11
-28.88964
 21
61.38948
  0
LINE
  8
型材断面
  6
CONTINUOUS
 10
-81.790693
 20
14.145283
 11
-31.718067
 21
64.217907
  0
LINE
  8
型材断面
  6
CONTINUOUS
 10
-82.371388
 20
17.45368
 11
-30.312878
 21
69.51219
  0
LINE
  8
型材断面
  6
CONTINUOUS
 10
-103.568843
 20
1.913448
 11
-33.141493
 21
72.3408
  0
LINE
  8
型材断面
  6
CONTINUOUS
 10
-111.94784
 20
4.706567
 11
-38.727548
 21
77.92686
  0
POLYLINE
  8
型材断面
  6
CONTINUOUS
 66
     1
 70
     1
  0
VERTEX
  8
型材断面
 10
15.616408
 20
60.936085
  0
VERTEX
  8
型材断面
 10
-12.801485
 20
60.936085
  0
VERTEX
  8
型材断面
 10
-12.801485
 20
55.141065
  0
VERTEX
  8
型材断面
 10
15.616408
 20
55.141065
  0
SEQEND
  0
LINE
  8
型材断面
  6
CONTINUOUS
 10
-41.55552
 20
80.754832
 11
-105.312915
 21
16.997437
  0
LINE
  8
型材断面
  6
CONTINUOUS
 10
-41.555518
 20
-130.700275
 11
-105.312913
 21
-66.94288
  0
INSERT
  2
*GRP_0008
  8
型材断面
  6
CONTINUOUS
 10
0.0
 20
0.0
  0
INSERT
  2
*GRP_0009
  8
型材断面
  6
CONTINUOUS
 10
0.0
 20
0.0
  0
INSERT
  2
*GRP_0010
  8
型材断面
  6
CONTINUOUS
 10
0.0
 20
0.0
  0
LINE
  8
ガラス
  6
CONTINUOUS
 10
-98.064085
 20
-64.29293
 11
-36.606127
 21
-125.750885
  0
LINE
  8
ガラス
  6
CONTINUOUS
 10
-110.448618
 20
-51.554845
 11
-36.429353
 21
-125.57411
  0
LINE
  8
ガラス
  6
CONTINUOUS
 10
-95.65992
 20
-61.888767
 11
-34.201965
 21
-123.346723
  0
LINE
  8
ガラス
  6
CONTINUOUS
 10
-108.398015
 20
-49.504242
 11
-34.378745
 21
-123.523502
  0
LINE
  8
ガラス
  6
CONTINUOUS
 10
-31.019982
 20
76.583262
 11
-33.424147
 21
78.987425
  0
LINE
  8
ガラス
  6
CONTINUOUS
 10
-98.064085
 20
14.347487
 11
-33.424147
 21
78.987425
  0
LINE
  8
ガラス
  6
CONTINUOUS
 10
-110.448618
 20
1.6094
 11
-33.24737
 21
78.810648
  0
LINE
  8
ガラス
  6
CONTINUOUS
 10
-95.65992
 20
11.943325
 11
-31.019982
 21
76.583262
  0
LINE
  8
ガラス
  6
CONTINUOUS
 10
-108.398015
 20
-0.4412
 11
-31.19676
 21
76.76004
  0
LINE
  8
ガラス
  6
CONTINUOUS
 10
-15.322592
 20
80.789363
 11
-14.442608
 21
84.073512
  0
LINE
  8
ガラス
  6
CONTINUOUS
 10
-4.739675
 20
81.214797
 11
-14.507312
 21
83.83203
  0
LINE
  8
ガラス
  6
CONTINUOUS
 10
-4.67497
 20
81.45628
 11
-14.442608
 21
84.073512
  0
LINE
  8
ガラス
  6
CONTINUOUS
 10
-5.554955
 20
78.17213
 11
-15.322592
 21
80.789363
  0
LINE
  8
ガラス
  6
CONTINUOUS
 10
-5.49025
 20
78.413613
 11
-15.257888
 21
81.030845
  0
INSERT
  2
*GRP_0011
  8
ゴム等
  6
CONTINUOUS
 10
0.0
 20
0.0
  0
INSERT
  2
*GRP_0012
  8
ゴム等
  6
CONTINUOUS
 10
0.0
 20
0.0
  0
INSERT
  2
*GRP_0013
  8
ゴム等
  6
CONTINUOUS
 10
0.0
 20
0.0
  0
INSERT
  2
*GRP_0014
  8
ゴム等
  6
CONTINUOUS
 10
0.0
 20
0.0
  0
CIRCLE
  8
ボルト／ビス
  6
CONTINUOUS
 10
85.647608
 20
-24.972722
 40
2.88675
  0
CIRCLE
  8
ボルト／ビス
  6
CONTINUOUS
 10
85.647608
 20
-24.972722
 40
3.516905
  0
CIRCLE
  8
ボルト／ビス
  6
CONTINUOUS
 10
60.898868
 20
-0.223982
 40
2.88675
  0
CIRCLE
  8
ボルト／ビス
  6
CONTINUOUS
 10
60.898868
 20
-0.223982
 40
3.516905
  0
CIRCLE
  8
ボルト／ビス
  6
CONTINUOUS
 10
36.150128
 20
-24.972722
 40
2.88675
  0
CIRCLE
  8
ボルト／ビス
  6
CONTINUOUS
 10
36.150128
 20
-24.972722
 40
3.516905
  0
CIRCLE
  8
ボルト／ビス
  6
CONTINUOUS
 10
60.898868
 20
-49.721462
 40
2.88675
  0
CIRCLE
  8
ボルト／ビス
  6
CONTINUOUS
 10
60.898868
 20
-49.721462
 40
3.516905
  0
INSERT
  2
*GRP_0015
  8
ボルト／ビス
  6
CONTINUOUS
 10
0.0
 20
0.0
  0
INSERT
  2
*GRP_0016
  8
ボルト／ビス
  6
CONTINUOUS
 10
0.0
 20
0.0
  0
INSERT
  2
*GRP_0017
  8
ボルト／ビス
  6
CONTINUOUS
 10
0.0
 20
0.0
  0
INSERT
  2
*GRP_0018
  8
ボルト／ビス
  6
CONTINUOUS
 10
0.0
 20
0.0
  0
INSERT
  2
*GRP_0019
  8
ボルト／ビス
  6
CONTINUOUS
 10
0.0
 20
0.0
  0
INSERT
  2
*GRP_0020
  8
ボルト／ビス
  6
CONTINUOUS
 10
0.0
 20
0.0
  0
INSERT
  2
*GRP_0021
  8
ボルト／ビス
  6
CONTINUOUS
 10
0.0
 20
0.0
  0
INSERT
  2
*GRP_0022
  8
ボルト／ビス
  6
CONTINUOUS
 10
0.0
 20
0.0
  0
INSERT
  2
*GRP_0023
  8
ボルト／ビス
  6
CONTINUOUS
 10
0.0
 20
0.0
  0
INSERT
  2
*GRP_0024
  8
ボルト／ビス
  6
CONTINUOUS
 10
0.0
 20
0.0
  0
INSERT
  2
*GRP_0025
  8
ボルト／ビス
  6
CONTINUOUS
 10
0.0
 20
0.0
  0
TEXT
  7
TextStyle03
  8
文字
  6
CONTINUOUS
 10
8.45
 20
100.325
  1
ＮＳコード：ＮＳ４ＣＳ　ＮＳ４ＣＫＳ
 40
5.0
 72
     5
 11
109.075
 21
100.325
  0
INSERT
  2
*GRP_0026
  8
文字
  6
CONTINUOUS
 10
0.0
 20
0.0
  0
INSERT
  2
*GRP_0027
  8
文字
  6
CONTINUOUS
 10
0.0
 20
0.0
  0
INSERT
  2
*GRP_0028
  8
文字
  6
CONTINUOUS
 10
0.0
 20
0.0
  0
INSERT
  2
*GRP_0029
  8
文字
  6
CONTINUOUS
 10
0.0
 20
0.0
  0
TEXT
  7
TextStyle03
  8
文字
  6
CONTINUOUS
 10
-11.3
 20
56.325
  1
稜線フレーム
 40
4.0
 72
     5
 11
15.2
 21
56.325
  0
TEXT
  7
TextStyle03
  8
文字
  6
CONTINUOUS
 10
-15.85
 20
-13.3
  1
M6×10ｽﾀｯﾄﾞﾎﾞﾙﾄ
 40
4.0
 72
     5
 11
17.65
 21
-13.3
  0
TEXT
  7
TextStyle03
  8
文字
  6
CONTINUOUS
 10
-38.325
 20
-1.25
  1
M6ﾎﾞﾙﾄ．ﾅｯﾄ.ﾜｯｼｬ.Ｓﾜｯｼｬ
 40
4.0
 72
     5
 11
13.175
 21
-1.25
  0
TEXT
  7
TextStyle03
  8
文字
  6
CONTINUOUS
 10
-11.025
 20
-36.125
  1
SUS-1.5t　H.L
 40
3.5
 72
     5
 11
14.425
 21
-36.125
  0
TEXT
  7
TextStyle03
  8
文字
  6
CONTINUOUS
 10
-16.375
 20
-42.95
  1
FB-50×3.0t
 40
4.0
 72
     5
 11
8.125
 21
-42.95
  0
TEXT
  7
TextStyle03
  8
文字
  6
CONTINUOUS
 10
-16.375
 20
-47.45
  1
加工組み合わせ
 40
4.0
 72
     5
 11
14.625
 21
-47.45
  0
TEXT
  7
TextStyle03
  8
文字
  6
CONTINUOUS
 10
-134.4
 20
1.5
  1
SUS-1.5t　H.L
 40
4.0
 50
90.0
 72
     5
 11
-134.4
 21
30.5
  0
TEXT
  7
TextStyle03
  8
文字
  6
CONTINUOUS
 10
-3.5
 20
70.25
  1
TKR-1204
 40
4.0
 72
     5
 11
14.25
 21
70.25
  0
TEXT
  7
TextStyle03
  8
文字
  6
CONTINUOUS
 10
-0.55
 20
91.7
  1
TKR-1203
 40
4.0
 72
     5
 11
17.2
 21
91.7
  0
TEXT
  7
TextStyle03
  8
文字
  6
CONTINUOUS
 10
8.3
 20
121.7
  1
シリーズ：ＳＴＦ４・ＳＴＦ４Ｋ
 40
5.0
 72
     5
 11
92.05
 21
121.7
  0
TEXT
  7
TextStyle03
  8
文字
  6
CONTINUOUS
 10
8.3
 20
116.075
  1
　　　　　四角錘シングルガラス（上下可動・固定）600～1600タイプ
 40
5.0
 72
     5
 11
184.8625
 21
116.075
  0
TEXT
  7
TextStyle03
  8
文字
  6
CONTINUOUS
 10
8.3
 20
110.45
  1
図面名　：頂部～稜線フレーム詳細図
 40
5.0
 72
     5
 11
103.3
 21
110.45
  0
INSERT
  2
*DIM_0030
  8
寸法
  6
CONTINUOUS
 10
0.0
 20
0.0
  0
INSERT
  2
*DIM_0031
  8
寸法
  6
CONTINUOUS
 10
0.0
 20
0.0
  0
INSERT
  2
*DIM_0032
  8
寸法
  6
CONTINUOUS
 10
0.0
 20
0.0
  0
INSERT
  2
*DIM_0033
  8
寸法
  6
CONTINUOUS
 10
0.0
 20
0.0
  0
INSERT
  2
*DIM_0034
  8
寸法
  6
CONTINUOUS
 10
0.0
 20
0.0
  0
INSERT
  2
*DIM_0035
  8
寸法
  6
CONTINUOUS
 10
0.0
 20
0.0
  0
INSERT
  2
*DIM_0036
  8
寸法
  6
CONTINUOUS
 10
0.0
 20
0.0
  0
INSERT
  2
*DIM_0037
  8
寸法
  6
CONTINUOUS
 10
0.0
 20
0.0
  0
INSERT
  2
*DIM_0038
  8
寸法
  6
CONTINUOUS
 10
0.0
 20
0.0
  0
INSERT
  2
*DIM_0039
  8
寸法
  6
CONTINUOUS
 10
0.0
 20
0.0
  0
INSERT
  2
*DIM_0040
  8
寸法
  6
CONTINUOUS
 10
0.0
 20
0.0
  0
INSERT
  2
*GRP_0041
  8
寸法
  6
CONTINUOUS
 10
0.0
 20
0.0
  0
INSERT
  2
*GRP_0042
  8
寸法
  6
CONTINUOUS
 10
0.0
 20
0.0
  0
INSERT
  2
*GRP_0043
  8
寸法
  6
CONTINUOUS
 10
0.0
 20
0.0
  0
INSERT
  2
*GRP_0044
  8
寸法
  6
CONTINUOUS
 10
0.0
 20
0.0
  0
INSERT
  2
*DIM_0045
  8
寸法
  6
CONTINUOUS
 10
0.0
 20
0.0
  0
INSERT
  2
*DIM_0046
  8
寸法
  6
CONTINUOUS
 10
0.0
 20
0.0
  0
INSERT
  2
*DIM_0047
  8
寸法
  6
CONTINUOUS
 10
0.0
 20
0.0
  0
INSERT
  2
*DIM_0048
  8
寸法
  6
CONTINUOUS
 10
0.0
 20
0.0
  0
INSERT
  2
*GRP_0049
  8
寸法
  6
CONTINUOUS
 10
0.0
 20
0.0
  0
INSERT
  2
*DIM_0050
  8
寸法
  6
CONTINUOUS
 10
0.0
 20
0.0
  0
INSERT
  2
*DIM_0051
  8
寸法
  6
CONTINUOUS
 10
0.0
 20
0.0
  0
INSERT
  2
*DIM_0052
  8
寸法
  6
CONTINUOUS
 10
0.0
 20
0.0
  0
INSERT
  2
*DIM_0053
  8
寸法
  6
CONTINUOUS
 10
0.0
 20
0.0
  0
INSERT
  2
*DIM_0054
  8
寸法
  6
CONTINUOUS
 10
0.0
 20
0.0
  0
INSERT
  2
*GRP_0055
  8
寸法
  6
CONTINUOUS
 10
0.0
 20
0.0
  0
INSERT
  2
*GRP_0056
  8
寸法
  6
CONTINUOUS
 10
0.0
 20
0.0
  0
LINE
  8
曲げ物
  6
CONTINUOUS
 10
-86.788998
 20
-66.33847
 11
-82.538998
 21
-66.33847
  0
LINE
  8
曲げ物
  6
CONTINUOUS
 10
-86.788998
 20
-67.399128
 11
-81.788998
 21
-67.399128
  0
LINE
  8
曲げ物
  6
CONTINUOUS
 10
-86.788998
 20
-67.399128
 11
-86.788998
 21
-60.32806
  0
LINE
  8
曲げ物
  6
CONTINUOUS
 10
-81.788998
 20
-67.399128
 11
-81.788998
 21
-24.972722
  0
LINE
  8
曲げ物
  6
CONTINUOUS
 10
-82.538998
 20
-66.33847
 11
-82.538998
 21
-24.972722
  0
LINE
  8
曲げ物
  6
DOT
 10
-86.788998
 20
-60.32806
 11
-86.788998
 21
-24.972722
  0
LINE
  8
曲げ物
  6
CONTINUOUS
 10
-86.788998
 20
16.393025
 11
-82.538998
 21
16.393025
  0
LINE
  8
曲げ物
  6
CONTINUOUS
 10
-86.788998
 20
17.453682
 11
-81.788998
 21
17.453682
  0
LINE
  8
曲げ物
  6
CONTINUOUS
 10
-86.788998
 20
17.453682
 11
-86.788998
 21
10.382615
  0
LINE
  8
曲げ物
  6
CONTINUOUS
 10
-81.788998
 20
17.453682
 11
-81.788998
 21
-24.972722
  0
LINE
  8
曲げ物
  6
CONTINUOUS
 10
-82.538998
 20
16.393025
 11
-82.538998
 21
-24.972722
  0
LINE
  8
曲げ物
  6
DOT
 10
-86.788998
 20
10.382615
 11
-86.788998
 21
-24.972722
  0
LINE
  8
曲げ物
  6
CONTINUOUS
 10
-81.788998
 20
-24.972722
 11
-107.538998
 21
-24.972722
  0
LINE
  8
曲げ物
  6
CONTINUOUS
 10
-107.538998
 20
-47.028063
 11
-94.238998
 21
-60.32806
  0
LINE
  8
曲げ物
  6
CONTINUOUS
 10
-82.538998
 20
-60.32806
 11
-94.238998
 21
-60.32806
  0
LINE
  8
曲げ物
  6
CONTINUOUS
 10
-82.538998
 20
-58.206737
 11
-96.36032
 21
-58.206737
  0
LINE
  8
曲げ物
  6
CONTINUOUS
 10
-107.538998
 20
-2.917382
 11
-94.238998
 21
10.382615
  0
LINE
  8
曲げ物
  6
CONTINUOUS
 10
-107.538998
 20
-47.028063
 11
-107.538998
 21
-2.917382
  0
LINE
  8
曲げ物
  6
CONTINUOUS
 10
-82.538998
 20
8.261292
 11
-96.36032
 21
8.261292
  0
LINE
  8
曲げ物
  6
CONTINUOUS
 10
-82.538998
 20
10.382615
 11
-94.238998
 21
10.382615
  0
LINE
  8
曲げ物
  6
DOT
 10
-82.538998
 20
-57.956735
 11
-83.288998
 21
-57.956735
  0
LINE
  8
曲げ物
  6
DOT
 10
-83.288998
 20
-57.956735
 11
-83.288998
 21
8.011292
  0
LINE
  8
曲げ物
  6
DOT
 10
-82.538998
 20
8.011292
 11
-83.288998
 21
8.011292
  0
LINE
  8
曲げ物
  6
CONTINUOUS
 10
60.898868
 20
-58.206745
 11
27.66485
 21
-24.972722
  0
LINE
  8
曲げ物
  6
CONTINUOUS
 10
60.898868
 20
8.261298
 11
94.13289
 21
-24.972722
  0
LINE
  8
曲げ物
  6
CONTINUOUS
 10
60.898868
 20
-58.206745
 11
95.193548
 21
-23.91206
  0
LINE
  8
曲げ物
  6
CONTINUOUS
 10
60.898868
 20
8.261298
 11
26.604188
 21
-26.033382
  0
ARC
  8
曲げ物
  6
CONTINUOUS
 10
60.898869
 20
-58.206741
 40
1.5
 50
225.0
 51
315.0
  0
ARC
  8
曲げ物
  6
CONTINUOUS
 10
60.898869
 20
8.261296
 40
1.5
 50
45.0
 51
135.0
  0
LINE
  8
曲げ物
  6
CONTINUOUS
 10
61.95953
 20
9.321957
 11
95.547103
 21
-24.265615
  0
ARC
  8
曲げ物
  6
CONTINUOUS
 10
94.839994
 20
-24.972722
 40
1.0
 50
315.0
 51
405.0
  0
LINE
  8
曲げ物
  6
CONTINUOUS
 10
26.250635
 20
-24.265615
 11
59.83821
 21
9.321957
  0
ARC
  8
曲げ物
  6
CONTINUOUS
 10
26.957743
 20
-24.972722
 40
1.0
 50
135.0
 51
225.0
  0
LINE
  8
曲げ物
  6
CONTINUOUS
 10
103.325278
 20
-24.972722
 11
102.264615
 21
-24.972722
  0
LINE
  8
曲げ物
  6
CONTINUOUS
 10
60.898868
 20
16.393025
 11
60.898868
 21
17.453682
  0
LINE
  8
曲げ物
  6
CONTINUOUS
 10
19.53312
 20
-24.972722
 11
18.472463
 21
-24.972722
  0
LINE
  8
曲げ物
  6
CONTINUOUS
 10
60.898868
 20
-67.39913
 11
60.898868
 21
-66.33847
  0
LINE
  8
曲げ物
  6
CONTINUOUS
 10
26.250635
 20
-25.67983
 11
60.898868
 21
-60.328063
  0
LINE
  8
曲げ物
  6
CONTINUOUS
 10
95.547103
 20
-25.67983
 11
60.898868
 21
-60.328063
  0
LINE
  8
曲げ物
  6
CONTINUOUS
 10
47.59887
 20
-47.028063
 11
48.659527
 21
-45.967405
  0
LINE
  8
曲げ物
  6
CONTINUOUS
 10
74.19887
 20
-47.028063
 11
73.138207
 21
-45.967405
  0
INSERT
  2
*HAT_0013
  8
曲げ物
 10
0.0
 20
0.0
  0
ARC
  8
曲げ物
  6
CONTINUOUS
 10
94.132888
 20
-24.972722
 40
1.5
 50
315.0
 51
405.0
  0
LINE
  8
曲げ物
  6
CONTINUOUS
 10
82.954212
 20
-11.672725
 11
81.89355
 21
-12.733382
  0
LINE
  8
曲げ物
  6
CONTINUOUS
 10
82.954212
 20
-38.272722
 11
81.89355
 21
-37.212062
  0
INSERT
  2
*HAT_0014
  8
曲げ物
 10
0.0
 20
0.0
  0
LINE
  8
曲げ物
  6
CONTINUOUS
 10
74.19887
 20
-2.917382
 11
73.138207
 21
-3.978042
  0
LINE
  8
曲げ物
  6
CONTINUOUS
 10
47.59887
 20
-2.917382
 11
48.659527
 21
-3.978042
  0
INSERT
  2
*HAT_0015
  8
曲げ物
 10
0.0
 20
0.0
  0
ARC
  8
曲げ物
  6
CONTINUOUS
 10
27.66485
 20
-24.972722
 40
1.5
 50
135.0
 51
225.0
  0
LINE
  8
曲げ物
  6
CONTINUOUS
 10
38.843527
 20
-38.272722
 11
39.90419
 21
-37.212062
  0
LINE
  8
曲げ物
  6
CONTINUOUS
 10
38.843527
 20
-11.672725
 11
39.90419
 21
-12.733382
  0
INSERT
  2
*HAT_0016
  8
曲げ物
 10
0.0
 20
0.0
  0
LINE
  8
曲げ物
  6
CONTINUOUS
 10
27.87698
 20
-24.972722
 11
60.898868
 21
-57.99461
  0
LINE
  8
曲げ物
  6
CONTINUOUS
 10
60.898868
 20
-57.99461
 11
93.920758
 21
-24.972722
  0
LINE
  8
曲げ物
  6
CONTINUOUS
 10
27.87698
 20
-24.972722
 11
60.898868
 21
8.049167
  0
LINE
  8
曲げ物
  6
CONTINUOUS
 10
93.920758
 20
-24.972722
 11
60.898868
 21
8.049167
  0
LINE
  8
曲げ物
  6
CONTINUOUS
 10
19.53312
 20
-24.972722
 11
31.730708
 21
-12.77513
  0
LINE
  8
曲げ物
  6
CONTINUOUS
 10
18.472463
 20
-24.972722
 11
31.200382
 21
-12.244802
  0
LINE
  8
曲げ物
  6
CONTINUOUS
 10
60.898868
 20
16.393025
 11
48.701273
 21
4.195435
  0
LINE
  8
曲げ物
  6
CONTINUOUS
 10
60.898868
 20
17.453682
 11
48.170945
 21
4.725763
  0
LINE
  8
曲げ物
  6
CONTINUOUS
 10
19.53312
 20
-24.972722
 11
31.730708
 21
-37.17031
  0
LINE
  8
曲げ物
  6
CONTINUOUS
 10
48.701277
 20
-54.140877
 11
60.898868
 21
-66.33847
  0
LINE
  8
曲げ物
  6
CONTINUOUS
 10
18.472463
 20
-24.972722
 11
31.20038
 21
-37.700642
  0
LINE
  8
曲げ物
  6
CONTINUOUS
 10
48.170945
 20
-54.671208
 11
60.898868
 21
-67.39913
  0
LINE
  8
曲げ物
  6
CONTINUOUS
 10
103.325278
 20
-24.972722
 11
90.597358
 21
-37.700642
  0
LINE
  8
曲げ物
  6
CONTINUOUS
 10
73.626793
 20
-54.671208
 11
60.898868
 21
-67.39913
  0
LINE
  8
曲げ物
  6
CONTINUOUS
 10
102.264615
 20
-24.972722
 11
90.067025
 21
-37.17031
  0
LINE
  8
曲げ物
  6
CONTINUOUS
 10
73.096463
 20
-54.140877
 11
60.898868
 21
-66.33847
  0
LINE
  8
曲げ物
  6
CONTINUOUS
 10
102.264615
 20
-24.972722
 11
90.067025
 21
-12.77513
  0
LINE
  8
曲げ物
  6
CONTINUOUS
 10
73.09646
 20
4.195435
 11
60.898868
 21
16.393025
  0
LINE
  8
曲げ物
  6
CONTINUOUS
 10
103.325278
 20
-24.972722
 11
90.597358
 21
-12.244802
  0
LINE
  8
曲げ物
  6
CONTINUOUS
 10
73.626793
 20
4.725763
 11
60.898868
 21
17.453682
  0
LINE
  8
曲げ物
  6
DOT
 10
79.813977
 20
-8.53249
 11
78.753315
 21
-9.59315
  0
LINE
  8
曲げ物
  6
DOT
 10
77.3391
 20
-6.057612
 11
76.278442
 21
-7.118275
  0
LINE
  8
曲げ物
  6
DOT
 10
77.073937
 20
-6.32278
 11
79.54881
 21
-8.797655
  0
LINE
  8
曲げ物
  6
DOT
 10
76.808772
 20
-6.587945
 11
79.283648
 21
-9.062817
  0
LINE
  8
曲げ物
  6
DOT
 10
76.543605
 20
-6.853107
 11
79.018483
 21
-9.327985
  0
LINE
  8
曲げ物
  6
DOT
 10
41.983757
 20
-8.53249
 11
43.04442
 21
-9.59315
  0
LINE
  8
曲げ物
  6
DOT
 10
44.458635
 20
-6.057612
 11
45.519292
 21
-7.118275
  0
LINE
  8
曲げ物
  6
DOT
 10
44.723798
 20
-6.32278
 11
42.248925
 21
-8.797655
  0
LINE
  8
曲げ物
  6
DOT
 10
44.988962
 20
-6.587945
 11
42.514087
 21
-9.062817
  0
LINE
  8
曲げ物
  6
DOT
 10
45.25413
 20
-6.853107
 11
42.779253
 21
-9.327985
  0
LINE
  8
曲げ物
  6
DOT
 10
41.983757
 20
-41.412955
 11
43.04442
 21
-40.352295
  0
LINE
  8
曲げ物
  6
DOT
 10
44.458635
 20
-43.887832
 11
45.519292
 21
-42.82717
  0
LINE
  8
曲げ物
  6
DOT
 10
44.723798
 20
-43.622665
 11
42.248925
 21
-41.14779
  0
LINE
  8
曲げ物
  6
DOT
 10
44.988962
 20
-43.3575
 11
42.514087
 21
-40.882628
  0
LINE
  8
曲げ物
  6
DOT
 10
45.25413
 20
-43.092338
 11
42.779253
 21
-40.61746
  0
LINE
  8
曲げ物
  6
DOT
 10
79.813977
 20
-41.412955
 11
78.753315
 21
-40.352295
  0
LINE
  8
曲げ物
  6
DOT
 10
77.3391
 20
-43.887832
 11
76.278442
 21
-42.82717
  0
LINE
  8
曲げ物
  6
DOT
 10
77.073937
 20
-43.622665
 11
79.54881
 21
-41.14779
  0
LINE
  8
曲げ物
  6
DOT
 10
76.808772
 20
-43.3575
 11
79.283648
 21
-40.882628
  0
LINE
  8
曲げ物
  6
DOT
 10
76.543605
 20
-43.092338
 11
79.018483
 21
-40.61746
  0
LINE
  8
St
  6
CONTINUOUS
 10
-97.092753
 20
26.27728
 11
-96.562422
 21
25.74695
  0
ARC
  8
St
  6
CONTINUOUS
 10
26.60419
 20
-26.033383
 40
0.186892
 50
45.0
 51
45.0
  0
ARC
  8
St
  6
CONTINUOUS
 10
26.60419
 20
-26.033383
 40
0.186892
 50
135.0
 51
315.0
  0
ARC
  8
St
  6
CONTINUOUS
 10
26.60419
 20
-26.033383
 40
0.320455
 50
45.0
 51
45.0
  0
ARC
  8
St
  6
CONTINUOUS
 10
26.60419
 20
-26.033383
 40
0.320455
 50
135.0
 51
315.0
  0
ARC
  8
St
  6
CONTINUOUS
 10
95.193548
 20
-23.912062
 40
0.186892
 50
225.0
 51
225.0
  0
ARC
  8
St
  6
CONTINUOUS
 10
95.193548
 20
-23.912062
 40
0.186892
 50
315.0
 51
495.0
  0
ARC
  8
St
  6
CONTINUOUS
 10
95.193548
 20
-23.912062
 40
0.320455
 50
225.0
 51
225.0
  0
ARC
  8
St
  6
CONTINUOUS
 10
95.193548
 20
-23.912062
 40
0.320455
 50
315.0
 51
495.0
  0
LINE
  8
St
  6
CONTINUOUS
 10
76.101668
 20
-47.246585
 11
75.041007
 21
-46.185925
  0
LINE
  8
St
  6
CONTINUOUS
 10
83.172732
 20
-40.175522
 11
82.112073
 21
-39.114862
  0
LINE
  8
St
  6
CONTINUOUS
 10
45.696068
 20
-47.246585
 11
46.756727
 21
-46.185925
  0
LINE
  8
St
  6
CONTINUOUS
 10
38.625002
 20
-40.175522
 11
39.685663
 21
-39.114862
  0
LINE
  8
St
  6
CONTINUOUS
 10
45.696068
 20
-2.69886
 11
46.756727
 21
-3.75952
  0
LINE
  8
St
  6
CONTINUOUS
 10
38.625002
 20
-9.769923
 11
39.685663
 21
-10.830583
  0
LINE
  8
St
  6
CONTINUOUS
 10
76.101668
 20
-2.69886
 11
75.041007
 21
-3.75952
  0
LINE
  8
St
  6
CONTINUOUS
 10
83.172732
 20
-9.769923
 11
82.112073
 21
-10.830583
  0
LINE
  8
St
  6
CONTINUOUS
 10
103.39887
 20
-67.472722
 11
18.39887
 21
-67.472722
  0
LINE
  8
St
  6
CONTINUOUS
 10
18.39887
 20
-67.472722
 11
18.39887
 21
17.527277
  0
LINE
  8
St
  6
CONTINUOUS
 10
18.39887
 20
17.527277
 11
103.39887
 21
17.527277
  0
LINE
  8
St
  6
CONTINUOUS
 10
103.39887
 20
-67.472722
 11
103.39887
 21
17.527277
  0
LINE
  8
St
  6
CONTINUOUS
 10
103.39887
 20
17.527277
 11
18.39887
 21
-67.472722
  0
LINE
  8
St
  6
CONTINUOUS
 10
18.39887
 20
17.527277
 11
103.39887
 21
-67.472722
  0
LINE
  8
St
  6
CONTINUOUS
 10
-113.184177
 20
10.185855
 11
-112.654338
 21
9.656015
  0
LINE
  8
St
  6
CONTINUOUS
 10
-148.342753
 20
-24.972722
 11
-105.842755
 21
17.527277
  0
LINE
  8
St
  6
CONTINUOUS
 10
-105.842755
 20
-24.972722
 11
-105.842755
 21
17.527277
  0
LINE
  8
St
  6
CONTINUOUS
 10
-105.842755
 20
17.527277
 11
-105.312915
 21
16.997437
  0
LINE
  8
St
  6
CONTINUOUS
 10
-105.312915
 20
-24.972722
 11
-105.312915
 21
16.997437
  0
LINE
  8
St
  6
CONTINUOUS
 10
-147.283075
 20
-24.972722
 11
-105.312915
 21
16.997437
  0
LINE
  8
St
  6
CONTINUOUS
 10
-105.842755
 20
-24.972722
 11
-105.842755
 21
-67.472722
  0
LINE
  8
St
  6
CONTINUOUS
 10
-105.842755
 20
-67.472722
 11
-105.312915
 21
-66.942882
  0
LINE
  8
St
  6
CONTINUOUS
 10
-105.312915
 20
-24.972722
 11
-105.312915
 21
-66.942882
  0
LINE
  8
St
  6
CONTINUOUS
 10
-148.342753
 20
-24.972722
 11
-105.842753
 21
-67.47272
  0
LINE
  8
St
  6
CONTINUOUS
 10
-147.283075
 20
-24.972722
 11
-105.312913
 21
-66.94288
  0
ARC
  8
St
  6
CONTINUOUS
 10
77.59596
 20
-4.193153
 40
0.209479
 50
45.000083
 51
135.0
  0
ARC
  8
St
  6
CONTINUOUS
 10
77.59596
 20
-4.193153
 40
0.352133
 50
45.000083
 51
135.0
  0
ARC
  8
St
  6
CONTINUOUS
 10
81.678441
 20
-8.275633
 40
0.209479
 50
315.000018
 51
404.999935
  0
ARC
  8
St
  6
CONTINUOUS
 10
81.678441
 20
-8.275633
 40
0.352133
 50
315.000018
 51
404.999935
  0
LINE
  8
St
  6
DOT
 10
78.399762
 20
-4.996953
 11
77.339103
 21
-6.057615
  0
LINE
  8
St
  6
DOT
 10
80.874638
 20
-7.471828
 11
79.813977
 21
-8.53249
  0
LINE
  8
St
  6
DOT
 10
78.134598
 20
-5.262118
 11
80.609473
 21
-7.736992
  0
LINE
  8
St
  6
DOT
 10
77.869433
 20
-5.527285
 11
80.344307
 21
-8.00216
  0
LINE
  8
St
  6
DOT
 10
77.604268
 20
-5.79245
 11
80.079142
 21
-8.267325
  0
ARC
  8
St
  6
CONTINUOUS
 10
44.201775
 20
-4.193153
 40
0.209479
 50
45.0
 51
134.999917
  0
ARC
  8
St
  6
CONTINUOUS
 10
44.201775
 20
-4.193153
 40
0.352133
 50
45.0
 51
134.999917
  0
ARC
  8
St
  6
CONTINUOUS
 10
40.119294
 20
-8.275633
 40
0.209479
 50
135.000065
 51
224.999982
  0
ARC
  8
St
  6
CONTINUOUS
 10
40.119294
 20
-8.275633
 40
0.352133
 50
135.000065
 51
224.999982
  0
LINE
  8
St
  6
DOT
 10
43.397972
 20
-4.996953
 11
44.458633
 21
-6.057615
  0
LINE
  8
St
  6
DOT
 10
40.923098
 20
-7.471828
 11
41.983757
 21
-8.53249
  0
LINE
  8
St
  6
DOT
 10
43.663138
 20
-5.262118
 11
41.188263
 21
-7.736992
  0
LINE
  8
St
  6
DOT
 10
43.928303
 20
-5.527285
 11
41.453427
 21
-8.00216
  0
LINE
  8
St
  6
DOT
 10
44.193468
 20
-5.79245
 11
41.718592
 21
-8.267325
  0
ARC
  8
St
  6
CONTINUOUS
 10
44.201775
 20
-45.752296
 40
0.209479
 50
225.000083
 51
315.0
  0
ARC
  8
St
  6
CONTINUOUS
 10
44.201775
 20
-45.752296
 40
0.352133
 50
225.000083
 51
315.0
  0
ARC
  8
St
  6
CONTINUOUS
 10
40.119294
 20
-41.669816
 40
0.209479
 50
135.000018
 51
224.999935
  0
ARC
  8
St
  6
CONTINUOUS
 10
40.119294
 20
-41.669816
 40
0.352133
 50
135.000018
 51
224.999935
  0
LINE
  8
St
  6
DOT
 10
43.397972
 20
-44.948492
 11
44.458633
 21
-43.88783
  0
LINE
  8
St
  6
DOT
 10
40.923098
 20
-42.473618
 11
41.983757
 21
-41.412955
  0
LINE
  8
St
  6
DOT
 10
43.663138
 20
-44.683327
 11
41.188263
 21
-42.208453
  0
LINE
  8
St
  6
DOT
 10
43.928303
 20
-44.41816
 11
41.453427
 21
-41.943285
  0
LINE
  8
St
  6
DOT
 10
44.193468
 20
-44.152995
 11
41.718592
 21
-41.67812
  0
ARC
  8
St
  6
CONTINUOUS
 10
77.59596
 20
-45.752296
 40
0.209479
 50
225.0
 51
314.999917
  0
ARC
  8
St
  6
CONTINUOUS
 10
77.59596
 20
-45.752296
 40
0.352133
 50
225.0
 51
314.999917
  0
ARC
  8
St
  6
CONTINUOUS
 10
81.678441
 20
-41.669816
 40
0.209479
 50
315.000065
 51
404.999982
  0
ARC
  8
St
  6
CONTINUOUS
 10
81.678441
 20
-41.669816
 40
0.352133
 50
315.000065
 51
404.999982
  0
LINE
  8
St
  6
DOT
 10
78.399762
 20
-44.948492
 11
77.339103
 21
-43.88783
  0
LINE
  8
St
  6
DOT
 10
80.874638
 20
-42.473618
 11
79.813977
 21
-41.412955
  0
LINE
  8
St
  6
DOT
 10
78.134598
 20
-44.683327
 11
80.609473
 21
-42.208453
  0
LINE
  8
St
  6
DOT
 10
77.869433
 20
-44.41816
 11
80.344307
 21
-41.943285
  0
LINE
  8
St
  6
DOT
 10
77.604268
 20
-44.152995
 11
80.079142
 21
-41.67812
  0
LINE
  8
その他部品等
  6
CONTINUOUS
 10
-29.534707
 20
92.775645
 11
-24.70508
 21
94.069743
  0
LINE
  8
その他部品等
  6
CONTINUOUS
 10
-28.711783
 20
89.704452
 11
-23.882155
 21
90.99855
  0
LINE
  8
その他部品等
  6
CONTINUOUS
 10
-28.180025
 20
87.719902
 11
-23.882155
 21
90.99855
  0
INSERT
  2
*HAT_0017
  8
その他部品等
 10
0.0
 20
0.0
  0
LINE
  8
その他部品等
  6
CONTINUOUS
 10
-38.727095
 20
77.92641
 11
-36.606127
 21
75.805443
  0
LINE
  8
その他部品等
  6
CONTINUOUS
 10
-36.964703
 20
79.688803
 11
-34.843735
 21
77.567835
  0
LINE
  8
その他部品等
  6
CONTINUOUS
 10
-35.368343
 20
81.285162
 11
-33.247375
 21
79.164195
  0
LINE
  8
その他部品等
  6
CONTINUOUS
 10
-36.964703
 20
79.688803
 11
-33.247375
 21
79.164195
  0
INSERT
  2
*HAT_0018
  8
その他部品等
 10
0.0
 20
0.0
  0
LINE
  8
その他部品等
  6
CONTINUOUS
 10
-9.319615
 20
85.806118
 11
-10.095943
 21
82.908822
  0
LINE
  8
その他部品等
  6
CONTINUOUS
 10
-11.727088
 20
86.4512
 11
-12.503417
 21
83.553905
  0
LINE
  8
その他部品等
  6
CONTINUOUS
 10
-13.907758
 20
87.035507
 11
-14.684085
 21
84.138213
  0
LINE
  8
その他部品等
  6
CONTINUOUS
 10
-11.727088
 20
86.4512
 11
-14.684085
 21
84.138213
  0
INSERT
  2
*HAT_0019
  8
その他部品等
 10
0.0
 20
0.0
  0
ENDSEC
  0
EOF
