  0
SECTION
  2
HEADER
  9
$EXTMIN
 10
-210.0
 20
-148.5
  9
$EXTMAX
 10
210.0
 20
148.5
  9
$PDMODE
 70
    32
  9
$PDSIZE
 40
1.5
  9
$LTSCALE
 40
10.0
  0
ENDSEC
  0
SECTION
  2
TABLES
  0
TABLE
  2
LTYPE
 70
    15
  0
LTYPE
  2
CONTINUOUS
 70
    64
  3
実線
 72
    65
 73
     0
 40
0.0
  0
LTYPE
  2
DASHED
 70
    64
  3
破線A
 72
    65
 73
     2
 40
0.6
 49
0.4
 49
-0.2
  0
LTYPE
  2
DASHEDX2
 70
    64
  3
破線B
 72
    65
 73
     2
 40
1.3
 49
0.9
 49
-0.4
  0
LTYPE
  2
DASHDOT
 70
    64
  3
１点鎖線A
 72
    65
 73
     4
 40
0.5375
 49
0.375
 49
-0.05
 49
0.0625
 49
-0.05
  0
LTYPE
  2
DASHDOTX2
 70
    64
  3
１点鎖線B
 72
    65
 73
     4
 40
1.075
 49
0.75
 49
-0.1
 49
0.125
 49
-0.1
  0
LTYPE
  2
DIVIDE2
 70
    64
  3
２点鎖線A
 72
    65
 73
     6
 40
0.5125
 49
0.3
 49
-0.0375
 49
0.05
 49
-0.0375
 49
0.05
 49
-0.0375
  0
LTYPE
  2
DIVIDE
 70
    64
  3
２点鎖線B
 72
    65
 73
     6
 40
1.05
 49
0.55
 49
-0.1
 49
0.1
 49
-0.1
 49
0.1
 49
-0.1
  0
LTYPE
  2
DOT
 70
    64
  3
点線A
 72
    65
 73
     2
 40
0.1125
 49
0.0625
 49
-0.05
  0
LTYPE
  2
DOTX2
 70
    64
  3
点線B
 72
    65
 73
     2
 40
0.275
 49
0.15
 49
-0.125
  0
LTYPE
  2
CONTINUOUS
 70
    64
  3
実線
 72
    65
 73
     0
 40
0.0
  0
LTYPE
  2
CONTINUOUS
 70
    64
  3
実線
 72
    65
 73
     0
 40
0.0
  0
LTYPE
  2
CONTINUOUS
 70
    64
  3
実線
 72
    65
 73
     0
 40
0.0
  0
LTYPE
  2
CONTINUOUS
 70
    64
  3
実線
 72
    65
 73
     0
 40
0.0
  0
LTYPE
  2
CONTINUOUS
 70
    64
  3
実線
 72
    65
 73
     0
 40
0.0
  0
LTYPE
  2
CONTINUOUS
 70
    64
  3
実線
 72
    65
 73
     0
 40
0.0
  0
ENDTAB
  0
TABLE
  2
LAYER
 70
    36
  0
LAYER
  2
通り芯
 70
     0
 62
    15
  6
CONTINUOUS
  0
LAYER
  2
補助線
 70
     0
 62
    16
  6
DOT
  0
LAYER
  2
躯体
 70
     0
 62
    31
  6
CONTINUOUS
  0
LAYER
  2
型材
 70
     0
 62
    32
  6
CONTINUOUS
  0
LAYER
  2
型材断面
 70
     0
 62
    47
  6
CONTINUOUS
  0
LAYER
  2
ガラス
 70
     0
 62
    48
  6
CONTINUOUS
  0
LAYER
  2
ゴム等
 70
     0
 62
    63
  6
CONTINUOUS
  0
LAYER
  2
ボルト／ビス
 70
     0
 62
    64
  6
CONTINUOUS
  0
LAYER
  2
文字
 70
     0
 62
    79
  6
CONTINUOUS
  0
LAYER
  2
寸法
 70
     0
 62
    80
  6
CONTINUOUS
  0
LAYER
  2
ﾊｯﾁﾝｸﾞ
 70
     0
 62
    95
  6
CONTINUOUS
  0
LAYER
  2
別途部材
 70
     0
 62
    96
  6
CONTINUOUS
  0
LAYER
  2
曲げ物
 70
     0
 62
   111
  6
CONTINUOUS
  0
LAYER
  2
鉄骨等
 70
     0
 62
   112
  6
CONTINUOUS
  0
LAYER
  2
St
 70
     0
 62
   127
  6
CONTINUOUS
  0
LAYER
  2
その他部品等
 70
     0
 62
   128
  6
CONTINUOUS
  0
LAYER
  2
ｶﾞｽｹｯﾄ
 70
     0
 62
   143
  6
CONTINUOUS
  0
LAYER
  2
ｽｹｯﾁ
 70
     0
 62
    14
  6
CONTINUOUS
  0
LAYER
  2
0
 70
     0
 62
    17
  6
CONTINUOUS
  0
LAYER
  2
1
 70
     0
 62
    30
  6
CONTINUOUS
  0
LAYER
  2
4
 70
     0
 62
    33
  6
CONTINUOUS
  0
LAYER
  2
ﾚｲﾔ3
 70
     0
 62
    46
  6
CONTINUOUS
  0
LAYER
  2
外形線
 70
     0
 62
    49
  6
CONTINUOUS
  0
LAYER
  2
部品
 70
     0
 62
    14
  6
CONTINUOUS
  0
LAYER
  2
サッシ芯
 70
     0
 62
    17
  6
DASHDOTX2
  0
LAYER
  2
寸法線
 70
     0
 62
    62
  6
CONTINUOUS
  0
LAYER
  2
姿図外形線
 70
     0
 62
    65
  6
CONTINUOUS
  0
LAYER
  2
姿補助線
 70
     0
 62
    30
  6
CONTINUOUS
  0
LAYER
  2
透視線
 70
     0
 62
    78
  6
DOT
  0
LAYER
  2
用紙
 70
     0
 62
    81
  6
CONTINUOUS
  0
LAYER
  2
実線図枠
 70
     0
 62
    94
  6
CONTINUOUS
  0
LAYER
  2
補助図枠
 70
     0
 62
    97
  6
CONTINUOUS
  0
LAYER
  2
建具記号
 70
     0
 62
   110
  6
CONTINUOUS
  0
LAYER
  2
補助文字
 70
     0
 62
   113
  6
CONTINUOUS
  0
LAYER
  2
LAYER010
 70
     0
 62
    11
  6
CONTINUOUS
  0
LAYER
  2
SUNPO
 70
     0
 62
     6
  6
CONTINUOUS
  0
ENDTAB
  0
TABLE
  2
STYLE
 70
    10
  0
STYLE
  2
STANDARD
 70
     0
 40
1.0
 41
1.0
 42
1.0
 50
0.0
 71
     0
  3
TXT
  4
BIGFONT
  0
STYLE
  2
TATE
 70
     4
 40
1.0
 41
1.0
 42
1.0
 50
0.0
 71
     0
  3
TXT
  4
BIGFONT
  0
STYLE
  2
TextStyle03
 70
     0
 40
1.0
 41
1.0
 42
1.0
 50
0.0
 71
     0
  3
MONOTXT
  4
BIGFONT
  0
STYLE
  2
TextStyle04
 70
     0
 40
1.0
 41
1.0
 42
1.0
 50
0.0
 71
     0
  3
MONOTXT
  4
BIGFONT
  0
STYLE
  2
TextStyle05
 70
     0
 40
1.0
 41
1.0
 42
1.0
 50
0.0
 71
     0
  3
MONOTXT
  4
BIGFONT
  0
STYLE
  2
TextStyle06
 70
     0
 40
1.0
 41
1.0
 42
1.0
 50
0.0
 71
     0
  3
MONOTXT
  4
BIGFONT
  0
STYLE
  2
TextStyle07
 70
     0
 40
1.0
 41
1.0
 42
1.0
 50
0.0
 71
     0
  3
MONOTXT
  4
BIGFONT
  0
STYLE
  2
TextStyle08
 70
     0
 40
1.0
 41
1.0
 42
1.0
 50
0.0
 71
     0
  3
MONOTXT
  4
BIGFONT
  0
STYLE
  2
TextStyle09
 70
     0
 40
1.0
 41
1.0
 42
1.0
 50
0.0
 71
     0
  3
MONOTXT
  4
BIGFONT
  0
STYLE
  2
TextStyle10
 70
     0
 40
1.0
 41
1.0
 42
1.0
 50
0.0
 71
     0
  3
MONOTXT
  4
BIGFONT
  0
ENDTAB
  0
ENDSEC
  0
SECTION
  2
BLOCKS
  0
BLOCK
  2
*HAT_0001
 70
    65
 10
0.0
 20
0.0
  0
LINE
  8
型材断面
  6
DOT
 10
134.125
 20
-0.45
 11
135.625
 21
1.125
  0
LINE
  8
型材断面
  6
DOT
 10
131.575
 20
-0.45
 11
135.625
 21
3.675
  0
LINE
  8
型材断面
  6
DOT
 10
129.025
 20
-0.45
 11
135.625
 21
6.225
  0
LINE
  8
型材断面
  6
DOT
 10
127.675
 20
0.75
 11
134.5
 21
7.575
  0
LINE
  8
型材断面
  6
DOT
 10
127.675
 20
3.3
 11
131.95
 21
7.575
  0
LINE
  8
型材断面
  6
DOT
 10
127.675
 20
5.85
 11
129.4
 21
7.575
  0
ENDBLK
  0
BLOCK
  2
*HAT_0002
 70
    65
 10
0.0
 20
0.0
  0
LINE
  8
型材断面
  6
DOT
 10
-64.475
 20
-31.15
 11
-62.975
 21
-29.575
  0
LINE
  8
型材断面
  6
DOT
 10
-67.025
 20
-31.15
 11
-62.975
 21
-27.025
  0
LINE
  8
型材断面
  6
DOT
 10
-69.575
 20
-31.15
 11
-62.975
 21
-24.475
  0
LINE
  8
型材断面
  6
DOT
 10
-70.925
 20
-29.95
 11
-64.1
 21
-23.125
  0
LINE
  8
型材断面
  6
DOT
 10
-70.925
 20
-27.4
 11
-66.65
 21
-23.125
  0
LINE
  8
型材断面
  6
DOT
 10
-70.925
 20
-24.85
 11
-69.2
 21
-23.125
  0
ENDBLK
  0
BLOCK
  2
*HAT_0003
 70
    65
 10
0.0
 20
0.0
  0
LINE
  8
ﾊｯﾁﾝｸﾞ
 10
149.65
 20
25.25
 11
151.025
 21
26.6
  0
LINE
  8
ﾊｯﾁﾝｸﾞ
 10
146.825
 20
25.25
 11
151.025
 21
29.425
  0
LINE
  8
ﾊｯﾁﾝｸﾞ
 10
144.0
 20
25.25
 11
151.025
 21
32.25
  0
LINE
  8
ﾊｯﾁﾝｸﾞ
 10
141.175
 20
25.25
 11
150.375
 21
34.45
  0
LINE
  8
ﾊｯﾁﾝｸﾞ
 10
141.025
 20
27.925
 11
147.55
 21
34.45
  0
LINE
  8
ﾊｯﾁﾝｸﾞ
 10
141.025
 20
30.75
 11
144.7
 21
34.45
  0
LINE
  8
ﾊｯﾁﾝｸﾞ
 10
141.025
 20
33.575
 11
141.875
 21
34.45
  0
LINE
  8
ﾊｯﾁﾝｸﾞ
 10
141.0
 20
25.775
 11
141.55
 21
25.25
  0
LINE
  8
ﾊｯﾁﾝｸﾞ
 10
141.0
 20
28.625
 11
144.375
 21
25.25
  0
LINE
  8
ﾊｯﾁﾝｸﾞ
 10
141.0
 20
31.45
 11
147.2
 21
25.25
  0
LINE
  8
ﾊｯﾁﾝｸﾞ
 10
141.0
 20
34.275
 11
150.05
 21
25.25
  0
LINE
  8
ﾊｯﾁﾝｸﾞ
 10
143.675
 20
34.45
 11
151.0
 21
27.1
  0
LINE
  8
ﾊｯﾁﾝｸﾞ
 10
146.5
 20
34.45
 11
151.0
 21
29.925
  0
LINE
  8
ﾊｯﾁﾝｸﾞ
 10
149.325
 20
34.45
 11
151.0
 21
32.75
  0
ENDBLK
  0
BLOCK
  2
*HAT_0004
 70
    65
 10
0.0
 20
0.0
  0
LINE
  8
ﾊｯﾁﾝｸﾞ
 10
-50.5
 20
-5.25
 11
-47.725
 21
-2.475
  0
LINE
  8
ﾊｯﾁﾝｸﾞ
 10
-53.325
 20
-5.25
 11
-47.725
 21
0.35
  0
LINE
  8
ﾊｯﾁﾝｸﾞ
 10
-56.15
 20
-5.25
 11
-47.725
 21
3.175
  0
LINE
  8
ﾊｯﾁﾝｸﾞ
 10
-57.725
 20
-4.0
 11
-49.775
 21
3.95
  0
LINE
  8
ﾊｯﾁﾝｸﾞ
 10
-57.725
 20
-1.175
 11
-52.6
 21
3.95
  0
LINE
  8
ﾊｯﾁﾝｸﾞ
 10
-57.725
 20
1.65
 11
-55.45
 21
3.95
  0
LINE
  8
ﾊｯﾁﾝｸﾞ
 10
-57.725
 20
-4.5
 11
-56.975
 21
-5.25
  0
LINE
  8
ﾊｯﾁﾝｸﾞ
 10
-57.725
 20
-1.675
 11
-54.15
 21
-5.25
  0
LINE
  8
ﾊｯﾁﾝｸﾞ
 10
-57.725
 20
1.15
 11
-51.325
 21
-5.25
  0
LINE
  8
ﾊｯﾁﾝｸﾞ
 10
-57.7
 20
3.95
 11
-48.5
 21
-5.25
  0
LINE
  8
ﾊｯﾁﾝｸﾞ
 10
-54.875
 20
3.95
 11
-47.725
 21
-3.2
  0
LINE
  8
ﾊｯﾁﾝｸﾞ
 10
-52.025
 20
3.95
 11
-47.725
 21
-0.375
  0
LINE
  8
ﾊｯﾁﾝｸﾞ
 10
-49.2
 20
3.95
 11
-47.725
 21
2.45
  0
ENDBLK
  0
BLOCK
  2
*HAT_0005
 70
    65
 10
0.0
 20
0.0
  0
LINE
  8
その他部品等
 10
125.875
 20
-5.925
 11
129.925
 21
-1.95
  0
LINE
  8
その他部品等
 10
125.95
 20
-3.3
 11
126.475
 21
-2.85
  0
LINE
  8
その他部品等
 10
125.875
 20
-5.775
 11
126.625
 21
-6.525
  0
LINE
  8
その他部品等
 10
125.95
 20
-3.3
 11
128.05
 21
-5.4
  0
LINE
  8
その他部品等
 10
127.525
 20
-2.325
 11
129.475
 21
-4.275
  0
LINE
  8
その他部品等
 10
129.7
 20
-1.95
 11
130.825
 21
-3.15
  0
LINE
  8
その他部品等
 10
132.25
 20
-1.95
 11
132.25
 21
-1.95
  0
ENDBLK
  0
BLOCK
  2
*HAT_0006
 70
    65
 10
0.0
 20
0.0
  0
LINE
  8
その他部品等
 10
-72.65
 20
-36.475
 11
-68.6
 21
-32.5
  0
LINE
  8
その他部品等
 10
-72.575
 20
-33.85
 11
-72.05
 21
-33.4
  0
LINE
  8
その他部品等
 10
-72.65
 20
-36.325
 11
-71.9
 21
-37.075
  0
LINE
  8
その他部品等
 10
-72.575
 20
-33.85
 11
-70.475
 21
-35.95
  0
LINE
  8
その他部品等
 10
-71.0
 20
-32.875
 11
-69.05
 21
-34.825
  0
LINE
  8
その他部品等
 10
-68.825
 20
-32.5
 11
-67.7
 21
-33.7
  0
LINE
  8
その他部品等
 10
-66.275
 20
-32.5
 11
-66.275
 21
-32.5
  0
ENDBLK
  0
BLOCK
  2
*GRP_0001
 70
    65
 10
0.0
 20
0.0
  0
LINE
  8
型材断面
  6
CONTINUOUS
 10
195.0
 20
133.5
 11
195.0
 21
-133.5
  0
LINE
  8
型材断面
  6
CONTINUOUS
 10
195.0
 20
-133.5
 11
-185.0
 21
-133.5
  0
LINE
  8
型材断面
  6
CONTINUOUS
 10
-185.0
 20
-133.5
 11
-185.0
 21
133.5
  0
LINE
  8
型材断面
  6
CONTINUOUS
 10
195.0
 20
133.5
 11
-185.0
 21
133.5
  0
LINE
  8
型材断面
  6
CONTINUOUS
 10
145.0
 20
-133.5
 11
145.0
 21
-118.5
  0
LINE
  8
型材断面
  6
CONTINUOUS
 10
195.0
 20
-118.5
 11
145.0
 21
-118.5
  0
ENDBLK
  0
BLOCK
  2
*GRP_0002
 70
    65
 10
0.0
 20
0.0
  0
LINE
  8
ボルト／ビス
  6
DOT
 62
    64
 10
124.5292
 20
6.45664
 11
123.481022
 21
6.364968
  0
ARC
  8
ボルト／ビス
  6
DOT
 62
    64
 10
123.629209
 20
4.671396
 40
1.699998
 50
95.000007
 51
180.000018
  0
LINE
  8
ボルト／ビス
  6
DOT
 62
    64
 10
121.929198
 20
4.671415
 11
121.929272
 21
2.956668
  0
LINE
  8
ボルト／ビス
  6
DOT
 62
    64
 10
124.529245
 20
-0.543312
 11
123.481075
 21
-0.451632
  0
ARC
  8
ボルト／ビス
  6
DOT
 62
    64
 10
123.62921
 20
1.241869
 40
1.699998
 50
180.000018
 51
265.000029
  0
LINE
  8
ボルト／ビス
  6
DOT
 62
    64
 10
121.92922
 20
1.241868
 11
121.929272
 21
2.956668
  0
LINE
  8
ボルト／ビス
  6
DOT
 62
    64
 10
122.31412
 20
5.353262
 11
122.071997
 21
5.353292
  0
LINE
  8
ボルト／ビス
  6
DOT
 62
    64
 10
122.964175
 20
3.656665
 11
122.964175
 21
2.956638
  0
LINE
  8
ボルト／ビス
  6
DOT
 62
    64
 10
122.314098
 20
4.05664
 11
122.31412
 21
5.353262
  0
LINE
  8
ボルト／ビス
  6
DOT
 62
    64
 10
122.964175
 20
3.656665
 11
122.714125
 21
3.656688
  0
ARC
  8
ボルト／ビス
  6
DOT
 62
    64
 10
122.714115
 20
4.056631
 40
0.399998
 50
180.000018
 51
270.000018
  0
LINE
  8
ボルト／ビス
  6
DOT
 62
    64
 10
122.314172
 20
0.560043
 11
122.071975
 21
0.560013
  0
LINE
  8
ボルト／ビス
  6
DOT
 62
    64
 10
122.96425
 20
2.25664
 11
122.964175
 21
2.956638
  0
LINE
  8
ボルト／ビス
  6
DOT
 62
    64
 10
122.31412
 20
1.856665
 11
122.314172
 21
0.560043
  0
LINE
  8
ボルト／ビス
  6
DOT
 62
    64
 10
122.96425
 20
2.25664
 11
122.714148
 21
2.256617
  0
ARC
  8
ボルト／ビス
  6
DOT
 62
    64
 10
122.714116
 20
1.856633
 40
0.399998
 50
90.000018
 51
180.000018
  0
LINE
  8
ボルト／ビス
  6
DOT
 62
    64
 10
124.5292
 20
6.45664
 11
124.529245
 21
-0.543312
  0
LINE
  8
ボルト／ビス
  6
DOT
 62
    64
 10
132.02917
 20
4.956662
 11
132.529195
 21
4.456668
  0
LINE
  8
ボルト／ビス
  6
DOT
 62
    64
 10
132.02917
 20
0.956643
 11
132.529195
 21
1.456712
  0
LINE
  8
ボルト／ビス
  6
DOT
 62
    64
 10
124.529222
 20
4.456638
 11
132.529195
 21
4.456668
  0
LINE
  8
ボルト／ビス
  6
DOT
 62
    64
 10
124.5292
 20
4.95664
 11
132.02917
 21
4.956662
  0
LINE
  8
ボルト／ビス
  6
DOT
 62
    64
 10
124.529222
 20
1.456638
 11
132.529195
 21
1.456712
  0
LINE
  8
ボルト／ビス
  6
DOT
 62
    64
 10
124.529245
 20
0.956643
 11
132.02917
 21
0.956643
  0
LINE
  8
ボルト／ビス
  6
DOT
 62
    64
 10
132.02917
 20
4.956662
 11
132.02917
 21
0.956643
  0
LINE
  8
ボルト／ビス
  6
DOT
 62
    64
 10
132.529195
 20
4.456668
 11
132.529195
 21
1.456712
  0
LINE
  8
ボルト／ビス
  6
DOT
 62
    64
 10
120.2074
 20
2.956712
 11
135.0292
 21
2.956712
  0
ENDBLK
  0
BLOCK
  2
*GRP_0003
 70
    65
 10
0.0
 20
0.0
  0
LINE
  8
型材断面
  6
DOT
 10
127.529283
 20
7.456697
 11
135.529292
 21
7.456697
  0
LINE
  8
型材断面
  6
DOT
 10
135.529292
 20
-0.543305
 11
135.529292
 21
7.456697
  0
INSERT
  2
*HAT_0001
  8
型材断面
 10
0.0
 20
0.0
  0
ENDBLK
  0
BLOCK
  2
*GRP_0004
 70
    65
 10
0.0
 20
0.0
  0
LINE
  8
ボルト／ビス
  6
CONTINUOUS
 10
95.029225
 20
20.956668
 11
95.029225
 21
22.956662
  0
LINE
  8
ボルト／ビス
  6
CONTINUOUS
 10
95.029225
 20
22.956662
 11
117.029177
 21
22.956662
  0
LINE
  8
ボルト／ビス
  6
CONTINUOUS
 10
117.029177
 20
22.956662
 11
117.029177
 21
20.95669
  0
LINE
  8
ボルト／ビス
  6
CONTINUOUS
 10
95.029225
 20
20.956668
 11
117.029177
 21
20.95669
  0
LINE
  8
ボルト／ビス
  6
CONTINUOUS
 10
97.029198
 20
23.956668
 11
97.029227
 21
22.956662
  0
LINE
  8
ボルト／ビス
  6
CONTINUOUS
 10
97.029198
 20
23.956668
 11
115.029175
 21
23.95669
  0
LINE
  8
ボルト／ビス
  6
CONTINUOUS
 10
115.029175
 20
23.95669
 11
115.029175
 21
22.956692
  0
LINE
  8
ボルト／ビス
  6
CONTINUOUS
 62
    64
 10
101.217925
 20
29.95669
 11
100.255727
 21
29.60644
  0
ARC
  8
ボルト／ビス
  6
CONTINUOUS
 62
    64
 10
101.699102
 20
26.807258
 40
3.149346
 50
62.721989
 51
90.000022
  0
ARC
  8
ボルト／ビス
  6
CONTINUOUS
 62
    64
 10
106.029225
 20
17.88456
 40
12.072042
 50
76.165024
 51
103.835007
  0
LINE
  8
ボルト／ビス
  6
CONTINUOUS
 62
    64
 10
110.840425
 20
29.95669
 11
111.802728
 21
29.60644
  0
ARC
  8
ボルト／ビス
  6
CONTINUOUS
 62
    64
 10
110.35934
 20
26.807261
 40
3.149346
 50
90.000022
 51
117.278055
  0
LINE
  8
ボルト／ビス
  6
CONTINUOUS
 62
    64
 10
101.217925
 20
29.95669
 11
110.840425
 21
29.95669
  0
LINE
  8
ボルト／ビス
  6
CONTINUOUS
 62
    64
 10
111.802728
 20
29.60644
 11
111.802728
 21
25.956692
  0
LINE
  8
ボルト／ビス
  6
CONTINUOUS
 62
    64
 10
108.915903
 20
29.606417
 11
108.915925
 21
25.956662
  0
LINE
  8
ボルト／ビス
  6
CONTINUOUS
 62
    64
 10
100.255727
 20
29.60644
 11
100.255727
 21
25.956692
  0
LINE
  8
ボルト／ビス
  6
CONTINUOUS
 62
    64
 10
103.142477
 20
29.606417
 11
103.142477
 21
25.956715
  0
LINE
  8
ボルト／ビス
  6
CONTINUOUS
 10
100.255727
 20
25.956692
 11
111.802728
 21
25.956692
  0
LINE
  8
ボルト／ビス
  6
CONTINUOUS
 10
100.029227
 20
25.956692
 11
100.029227
 21
23.956668
  0
LINE
  8
ボルト／ビス
  6
CONTINUOUS
 10
100.029227
 20
25.956692
 11
112.029175
 21
25.956692
  0
LINE
  8
ボルト／ビス
  6
CONTINUOUS
 10
112.029175
 20
25.956692
 11
112.029175
 21
23.956668
  0
LINE
  8
ボルト／ビス
  6
CONTINUOUS
 62
    64
 10
108.329177
 20
20.956668
 11
108.329177
 21
0.956718
  0
LINE
  8
ボルト／ビス
  6
CONTINUOUS
 62
    64
 10
103.72915
 20
20.956668
 11
103.729172
 21
0.95674
  0
LINE
  8
ボルト／ビス
  6
CONTINUOUS
 62
    64
 10
103.729172
 20
0.95674
 11
108.329177
 21
0.956718
  0
LINE
  8
ボルト／ビス
  6
CONTINUOUS
 62
    64
 10
109.029175
 20
1.956715
 11
108.329177
 21
0.956718
  0
LINE
  8
ボルト／ビス
  6
CONTINUOUS
 62
    64
 10
103.029175
 20
1.956715
 11
103.729172
 21
0.95674
  0
LINE
  8
ボルト／ビス
  6
CONTINUOUS
 62
    64
 10
103.029175
 20
1.956715
 11
109.029175
 21
1.956715
  0
LINE
  8
ボルト／ビス
  6
CONTINUOUS
 62
    64
 10
103.729172
 20
0.95674
 11
108.329177
 21
0.956718
  0
LINE
  8
ボルト／ビス
  6
CONTINUOUS
 62
    64
 10
103.029175
 20
20.956668
 11
103.029175
 21
1.956715
  0
LINE
  8
ボルト／ビス
  6
CONTINUOUS
 62
    64
 10
109.029175
 20
20.95669
 11
109.029175
 21
1.956715
  0
ARC
  8
ボルト／ビス
  6
CONTINUOUS
 10
102.529235
 20
7.453021
 40
0.999997
 50
180.000022
 51
270.000022
  0
LINE
  8
ボルト／ビス
  6
CONTINUOUS
 10
109.529177
 20
6.453062
 11
102.529248
 21
6.453062
  0
ARC
  8
ボルト／ビス
  6
CONTINUOUS
 10
109.52922
 20
7.453024
 40
0.999997
 50
270.000022
 51
360.000022
  0
LINE
  8
ボルト／ビス
  6
CONTINUOUS
 10
111.029177
 20
16.953092
 11
111.029177
 21
16.453067
  0
LINE
  8
ボルト／ビス
  6
CONTINUOUS
 10
101.029225
 20
16.953092
 11
101.029248
 21
16.453067
  0
LINE
  8
ボルト／ビス
  6
CONTINUOUS
 10
111.029177
 20
16.953092
 11
101.029225
 21
16.953092
  0
LINE
  8
ボルト／ビス
  6
CONTINUOUS
 10
111.029177
 20
16.453067
 11
101.029248
 21
16.453067
  0
LINE
  8
ボルト／ビス
  6
CONTINUOUS
 10
110.529227
 20
7.453067
 11
110.529227
 21
13.453015
  0
LINE
  8
ボルト／ビス
  6
CONTINUOUS
 10
110.529227
 20
14.95309
 11
110.529227
 21
16.45309
  0
LINE
  8
ボルト／ビス
  6
CONTINUOUS
 10
101.529227
 20
16.45309
 11
101.529227
 21
14.953067
  0
LINE
  8
ボルト／ビス
  6
CONTINUOUS
 10
101.52925
 20
13.453015
 11
101.529227
 21
7.453067
  0
LINE
  8
ボルト／ビス
  6
CONTINUOUS
 10
111.779222
 20
14.95309
 11
106.029227
 21
14.953067
  0
ARC
  8
ボルト／ビス
  6
CONTINUOUS
 10
111.779213
 20
14.203012
 40
0.749999
 50
0.000022
 51
90.000022
  0
LINE
  8
ボルト／ビス
  6
CONTINUOUS
 10
112.529222
 20
14.20309
 11
112.529222
 21
14.20309
  0
LINE
  8
ボルト／ビス
  6
CONTINUOUS
 10
111.779222
 20
13.453015
 11
106.029227
 21
13.453038
  0
ARC
  8
ボルト／ビス
  6
CONTINUOUS
 10
111.779213
 20
14.203012
 40
0.749999
 50
270.000022
 51
360.000022
  0
LINE
  8
ボルト／ビス
  6
CONTINUOUS
 10
100.279225
 20
14.953067
 11
106.029227
 21
14.953067
  0
ARC
  8
ボルト／ビス
  6
CONTINUOUS
 10
100.279237
 20
14.203007
 40
0.749999
 50
90.000022
 51
180.000022
  0
LINE
  8
ボルト／ビス
  6
CONTINUOUS
 10
99.529225
 20
14.203067
 11
99.529225
 21
14.203067
  0
LINE
  8
ボルト／ビス
  6
CONTINUOUS
 10
100.279225
 20
13.453015
 11
106.029227
 21
13.453038
  0
ARC
  8
ボルト／ビス
  6
CONTINUOUS
 10
100.279237
 20
14.203007
 40
0.749999
 50
180.000022
 51
270.000022
  0
ARC
  8
St
  6
CONTINUOUS
 10
111.029214
 20
14.95301
 40
1.631205
 50
90.000022
 51
90.000022
  0
ENDBLK
  0
BLOCK
  2
*DIM_0005
 70
    65
 10
0.0
 20
0.0
  0
LINE
  8
寸法
  6
CONTINUOUS
 10
56.324907
 20
-89.03744
 11
12.370835
 21
-89.03744
  0
LINE
  8
寸法
  6
CONTINUOUS
 10
42.824907
 20
-75.53744
 11
12.370835
 21
-75.53744
  0
LINE
  8
寸法
  6
CONTINUOUS
 10
12.370835
 20
-89.03744
 11
12.370835
 21
-75.53744
  0
POINT
  8
寸法
 10
12.370835
 20
-89.03744
  0
POINT
  8
寸法
 10
12.370835
 20
-75.53744
  0
TEXT
  7
TextStyle03
  8
寸法
  6
CONTINUOUS
 10
12.0
 20
-85.55625
  1
13.5
 40
3.0
 50
90.0
 72
     5
 11
12.0
 21
-78.99375
  0
ENDBLK
  0
BLOCK
  2
*DIM_0006
 70
    65
 10
0.0
 20
0.0
  0
LINE
  8
寸法
  6
CONTINUOUS
 10
121.029253
 20
35.956615
 11
12.370835
 21
35.956615
  0
LINE
  8
寸法
  6
CONTINUOUS
 10
12.370835
 20
-75.53744
 11
12.370835
 21
35.956615
  0
POINT
  8
寸法
 10
12.370835
 20
35.956615
  0
TEXT
  7
TextStyle03
  8
寸法
  6
CONTINUOUS
 10
12.0
 20
-23.9
  1
111.5
 40
3.0
 50
90.0
 72
     5
 11
12.0
 21
-15.65
  0
ENDBLK
  0
BLOCK
  2
*DIM_0007
 70
    65
 10
0.0
 20
0.0
  0
LINE
  8
寸法
  6
CONTINUOUS
 10
42.824907
 20
-75.53744
 11
21.225
 21
-75.53744
  0
LINE
  8
寸法
  6
CONTINUOUS
 10
42.824907
 20
-60.53744
 11
21.225
 21
-60.53744
  0
LINE
  8
寸法
  6
CONTINUOUS
 10
21.225
 20
-75.53744
 11
21.225
 21
-60.53744
  0
POINT
  8
寸法
 10
21.225
 20
-75.53744
  0
POINT
  8
寸法
 10
21.225
 20
-60.53744
  0
TEXT
  7
TextStyle03
  8
寸法
  6
CONTINUOUS
 10
20.85
 20
-69.61875
  1
15
 40
3.0
 50
90.0
 72
     5
 11
20.85
 21
-66.43125
  0
ENDBLK
  0
BLOCK
  2
*DIM_0008
 70
    65
 10
0.0
 20
0.0
  0
LINE
  8
寸法
  6
CONTINUOUS
 10
71.029348
 20
20.956638
 11
21.225
 21
20.956638
  0
LINE
  8
寸法
  6
CONTINUOUS
 10
21.225
 20
-4.043337
 11
21.225
 21
20.956638
  0
POINT
  8
寸法
 10
21.225
 20
20.956638
  0
TEXT
  7
TextStyle03
  8
寸法
  6
CONTINUOUS
 10
20.85
 20
6.88125
  1
25
 40
3.0
 50
90.0
 72
     5
 11
20.85
 21
10.06875
  0
ENDBLK
  0
BLOCK
  2
*DIM_0009
 70
    65
 10
0.0
 20
0.0
  0
LINE
  8
寸法
  6
CONTINUOUS
 10
121.029253
 20
35.956615
 11
21.225
 21
35.956615
  0
LINE
  8
寸法
  6
CONTINUOUS
 10
21.225
 20
20.956638
 11
21.225
 21
35.956615
  0
POINT
  8
寸法
 10
21.225
 20
35.956615
  0
TEXT
  7
TextStyle03
  8
寸法
  6
CONTINUOUS
 10
20.85
 20
26.88125
  1
15
 40
3.0
 50
90.0
 72
     5
 11
20.85
 21
30.06875
  0
ENDBLK
  0
BLOCK
  2
*DIM_0010
 70
    65
 10
0.0
 20
0.0
  0
LINE
  8
寸法
  6
CONTINUOUS
 10
119.52929
 20
-36.668952
 11
21.225
 21
-36.668952
  0
LINE
  8
寸法
  6
CONTINUOUS
 10
21.225
 20
-60.53744
 11
21.225
 21
-36.668952
  0
POINT
  8
寸法
 10
21.225
 20
-36.668952
  0
TEXT
  7
TextStyle03
  8
寸法
  6
CONTINUOUS
 10
20.85
 20
-51.85625
  1
23.9
 40
3.0
 50
90.0
 72
     5
 11
20.85
 21
-45.29375
  0
ENDBLK
  0
BLOCK
  2
*GRP_0011
 70
    65
 10
0.0
 20
0.0
  0
LINE
  8
型材断面
  6
CONTINUOUS
 62
    47
 10
151.82923
 20
5.95663
 11
150.32923
 21
5.95663
  0
ARC
  8
型材断面
  6
CONTINUOUS
 62
    47
 10
150.329233
 20
-0.543352
 40
1.499997
 50
270.000018
 51
360.000036
  0
LINE
  8
型材断面
  6
CONTINUOUS
 62
    47
 10
151.82923
 20
5.95663
 11
151.82923
 21
-2.043343
  0
LINE
  8
型材断面
  6
CONTINUOUS
 62
    47
 10
150.329253
 20
-0.543268
 11
150.32923
 21
5.95663
  0
LINE
  8
型材断面
  6
CONTINUOUS
 62
    47
 10
150.329253
 20
-0.543268
 11
127.529268
 21
-0.54332
  0
LINE
  8
型材断面
  6
CONTINUOUS
 62
    47
 10
151.82923
 20
-2.043343
 11
127.529268
 21
-2.04332
  0
LINE
  8
型材断面
  6
CONTINUOUS
 62
    47
 10
117.529307
 20
16.456682
 11
117.529307
 21
17.95663
  0
LINE
  8
型材断面
  6
CONTINUOUS
 62
    47
 10
117.529307
 20
17.956682
 11
126.029283
 21
17.956682
  0
ARC
  8
型材断面
  6
CONTINUOUS
 62
    47
 10
126.029271
 20
16.45666
 40
1.5
 50
359.999949
 51
450.0
  0
LINE
  8
型材断面
  6
CONTINUOUS
 62
    47
 10
117.529307
 20
16.456682
 11
126.029283
 21
16.456682
  0
LINE
  8
型材断面
  6
CONTINUOUS
 62
    47
 10
127.529283
 20
16.67668
 11
127.529268
 21
-0.54332
  0
LINE
  8
型材断面
  6
CONTINUOUS
 62
    47
 10
126.029283
 20
16.456682
 11
126.029268
 21
-0.54332
  0
ARC
  8
型材断面
  6
CONTINUOUS
 62
    47
 10
127.529265
 20
-0.543318
 40
1.5
 50
179.999954
 51
269.99995
  0
ENDBLK
  0
BLOCK
  2
*GRP_0012
 70
    65
 10
0.0
 20
0.0
  0
LINE
  8
St
 10
125.891028
 20
18.102767
 11
125.891028
 21
18.102767
  0
LINE
  8
St
 10
124.466072
 20
18.10279
 11
125.516072
 21
19.15279
  0
LINE
  8
St
 10
123.041072
 20
18.10279
 11
124.616072
 21
19.602767
  0
LINE
  8
St
 10
121.616028
 20
18.102813
 11
123.191072
 21
19.60279
  0
LINE
  8
St
 10
120.191072
 20
18.10279
 11
121.766028
 21
19.602767
  0
LINE
  8
St
 10
118.76605
 20
18.102767
 11
120.341072
 21
19.602737
  0
LINE
  8
St
 10
115.99105
 20
16.60279
 11
118.991072
 21
19.60279
  0
LINE
  8
St
 10
114.566102
 20
16.602767
 11
117.566072
 21
19.602767
  0
LINE
  8
St
 10
113.14105
 20
16.602737
 11
116.141072
 21
19.60279
  0
LINE
  8
St
 10
111.71605
 20
16.602813
 11
114.716102
 21
19.602767
  0
LINE
  8
St
 10
110.291102
 20
16.60279
 11
113.29105
 21
19.602767
  0
LINE
  8
St
 10
108.866102
 20
16.60279
 11
111.86605
 21
19.60279
  0
LINE
  8
St
 10
107.516102
 20
16.60279
 11
110.51605
 21
19.602737
  0
LINE
  8
St
 10
106.091072
 20
16.602813
 11
109.09105
 21
19.602813
  0
LINE
  8
St
 10
104.666072
 20
16.60279
 11
107.666102
 21
19.60279
  0
LINE
  8
St
 10
103.241072
 20
16.602767
 11
106.241102
 21
19.602767
  0
LINE
  8
St
 10
101.816125
 20
16.60279
 11
104.81605
 21
19.602813
  0
LINE
  8
St
 10
100.391125
 20
16.602767
 11
103.391102
 21
19.60279
  0
LINE
  8
St
 10
99.041125
 20
16.602813
 11
102.04105
 21
19.60279
  0
LINE
  8
St
 10
97.616125
 20
16.602767
 11
100.616102
 21
19.602767
  0
LINE
  8
St
 10
96.491125
 20
16.90279
 11
99.191072
 21
19.602737
  0
LINE
  8
St
 10
95.891102
 20
17.80279
 11
97.766125
 21
19.602767
  0
ENDBLK
  0
BLOCK
  2
*DIM_0013
 70
    65
 10
0.0
 20
0.0
  0
LINE
  8
寸法
  6
CONTINUOUS
 10
47.824907
 20
-55.53744
 11
47.824907
 21
72.825
  0
LINE
  8
寸法
  6
CONTINUOUS
 10
126.029253
 20
40.956615
 11
126.029253
 21
72.825
  0
LINE
  8
寸法
  6
CONTINUOUS
 10
47.824907
 20
72.825
 11
126.029253
 21
72.825
  0
POINT
  8
寸法
 10
47.824907
 20
72.825
  0
POINT
  8
寸法
 10
126.029253
 20
72.825
  0
TEXT
  7
TextStyle03
  8
寸法
  6
CONTINUOUS
 10
83.64375
 20
73.2
  1
78.2
 40
3.0
 72
     5
 11
90.20625
 21
73.2
  0
ENDBLK
  0
BLOCK
  2
*DIM_0014
 70
    65
 10
0.0
 20
0.0
  0
LINE
  8
寸法
  6
CONTINUOUS
 10
47.824907
 20
-55.53744
 11
47.824907
 21
61.4125
  0
LINE
  8
寸法
  6
CONTINUOUS
 10
76.029348
 20
25.956638
 11
76.029348
 21
61.4125
  0
LINE
  8
寸法
  6
CONTINUOUS
 10
47.824907
 20
61.4125
 11
76.029348
 21
61.4125
  0
POINT
  8
寸法
 10
47.824907
 20
61.4125
  0
POINT
  8
寸法
 10
76.029348
 20
61.4125
  0
TEXT
  7
TextStyle03
  8
寸法
  6
CONTINUOUS
 10
58.64375
 20
61.775
  1
28.2
 40
3.0
 72
     5
 11
65.20625
 21
61.775
  0
ENDBLK
  0
BLOCK
  2
*DIM_0015
 70
    65
 10
0.0
 20
0.0
  0
LINE
  8
寸法
  6
CONTINUOUS
 10
126.029253
 20
40.956615
 11
126.029253
 21
61.4125
  0
LINE
  8
寸法
  6
CONTINUOUS
 10
76.029348
 20
61.4125
 11
126.029253
 21
61.4125
  0
POINT
  8
寸法
 10
126.029253
 20
61.4125
  0
TEXT
  7
TextStyle03
  8
寸法
  6
CONTINUOUS
 10
99.43125
 20
61.775
  1
50
 40
3.0
 72
     5
 11
102.61875
 21
61.775
  0
ENDBLK
  0
BLOCK
  2
*DIM_0016
 70
    65
 10
0.0
 20
0.0
  0
LINE
  8
寸法
  6
CONTINUOUS
 10
151.829253
 20
12.45669
 11
151.829253
 21
61.4125
  0
LINE
  8
寸法
  6
CONTINUOUS
 10
126.029253
 20
61.4125
 11
151.829253
 21
61.4125
  0
POINT
  8
寸法
 10
151.829253
 20
61.4125
  0
TEXT
  7
TextStyle03
  8
寸法
  6
CONTINUOUS
 10
135.64375
 20
61.775
  1
25.8
 40
3.0
 72
     5
 11
142.20625
 21
61.775
  0
ENDBLK
  0
BLOCK
  2
*DIM_0017
 70
    65
 10
0.0
 20
0.0
  0
LINE
  8
寸法
  6
CONTINUOUS
 10
76.029348
 20
25.956638
 11
76.029348
 21
51.030555
  0
LINE
  8
寸法
  6
CONTINUOUS
 10
106.0292
 20
32.079168
 11
106.0292
 21
51.030555
  0
LINE
  8
寸法
  6
CONTINUOUS
 10
76.029348
 20
51.030555
 11
106.0292
 21
51.030555
  0
POINT
  8
寸法
 10
76.029348
 20
51.030555
  0
POINT
  8
寸法
 10
106.0292
 20
51.030555
  0
TEXT
  7
TextStyle03
  8
寸法
  6
CONTINUOUS
 10
89.43125
 20
51.4
  1
30
 40
3.0
 72
     5
 11
92.61875
 21
51.4
  0
ENDBLK
  0
BLOCK
  2
*DIM_0018
 70
    65
 10
0.0
 20
0.0
  0
LINE
  8
寸法
  6
CONTINUOUS
 10
126.029253
 20
40.956615
 11
126.029253
 21
51.030555
  0
LINE
  8
寸法
  6
CONTINUOUS
 10
106.0292
 20
51.030555
 11
126.029253
 21
51.030555
  0
POINT
  8
寸法
 10
126.029253
 20
51.030555
  0
TEXT
  7
TextStyle03
  8
寸法
  6
CONTINUOUS
 10
114.43125
 20
51.4
  1
20
 40
3.0
 72
     5
 11
117.61875
 21
51.4
  0
ENDBLK
  0
BLOCK
  2
*DIM_0019
 70
    65
 10
0.0
 20
0.0
  0
LINE
  8
寸法
  6
CONTINUOUS
 10
151.029227
 20
40.956668
 11
151.029227
 21
51.030555
  0
LINE
  8
寸法
  6
CONTINUOUS
 10
126.029253
 20
51.030555
 11
151.029227
 21
51.030555
  0
POINT
  8
寸法
 10
151.029227
 20
51.030555
  0
TEXT
  7
TextStyle03
  8
寸法
  6
CONTINUOUS
 10
136.93125
 20
51.4
  1
25
 40
3.0
 72
     5
 11
140.11875
 21
51.4
  0
ENDBLK
  0
BLOCK
  2
*GRP_0020
 70
    65
 10
0.0
 20
0.0
  0
LINE
  8
ボルト／ビス
  6
DOT
 62
    64
 10
-74.210042
 20
-22.5425
 11
-75.25822
 21
-22.634173
  0
ARC
  8
ボルト／ビス
  6
DOT
 62
    64
 10
-75.110033
 20
-24.327744
 40
1.699998
 50
95.000007
 51
180.000018
  0
LINE
  8
ボルト／ビス
  6
DOT
 62
    64
 10
-76.810045
 20
-24.327725
 11
-76.80997
 21
-26.042472
  0
LINE
  8
ボルト／ビス
  6
DOT
 62
    64
 10
-74.209998
 20
-29.542453
 11
-75.258168
 21
-29.450773
  0
ARC
  8
ボルト／ビス
  6
DOT
 62
    64
 10
-75.110032
 20
-27.757271
 40
1.699998
 50
180.000018
 51
265.000029
  0
LINE
  8
ボルト／ビス
  6
DOT
 62
    64
 10
-76.810023
 20
-27.757272
 11
-76.80997
 21
-26.042472
  0
LINE
  8
ボルト／ビス
  6
DOT
 62
    64
 10
-76.425123
 20
-23.645878
 11
-76.667245
 21
-23.645848
  0
LINE
  8
ボルト／ビス
  6
DOT
 62
    64
 10
-75.775068
 20
-25.342475
 11
-75.775068
 21
-26.042502
  0
LINE
  8
ボルト／ビス
  6
DOT
 62
    64
 10
-76.425145
 20
-24.9425
 11
-76.425123
 21
-23.645878
  0
LINE
  8
ボルト／ビス
  6
DOT
 62
    64
 10
-75.775068
 20
-25.342475
 11
-76.025118
 21
-25.342453
  0
ARC
  8
ボルト／ビス
  6
DOT
 62
    64
 10
-76.025127
 20
-24.942509
 40
0.399998
 50
180.000018
 51
270.000018
  0
LINE
  8
ボルト／ビス
  6
DOT
 62
    64
 10
-76.42507
 20
-28.439098
 11
-76.667267
 21
-28.439127
  0
LINE
  8
ボルト／ビス
  6
DOT
 62
    64
 10
-75.774993
 20
-26.7425
 11
-75.775068
 21
-26.042502
  0
LINE
  8
ボルト／ビス
  6
DOT
 62
    64
 10
-76.425123
 20
-27.142475
 11
-76.42507
 21
-28.439098
  0
LINE
  8
ボルト／ビス
  6
DOT
 62
    64
 10
-75.774993
 20
-26.7425
 11
-76.025095
 21
-26.742522
  0
ARC
  8
ボルト／ビス
  6
DOT
 62
    64
 10
-76.025127
 20
-27.142507
 40
0.399998
 50
90.000018
 51
180.000018
  0
LINE
  8
ボルト／ビス
  6
DOT
 62
    64
 10
-74.210042
 20
-22.5425
 11
-74.209998
 21
-29.542453
  0
LINE
  8
ボルト／ビス
  6
DOT
 62
    64
 10
-66.710073
 20
-24.042478
 11
-66.210048
 21
-24.542472
  0
LINE
  8
ボルト／ビス
  6
DOT
 62
    64
 10
-66.710073
 20
-28.042497
 11
-66.210048
 21
-27.542428
  0
LINE
  8
ボルト／ビス
  6
DOT
 62
    64
 10
-74.21002
 20
-24.542502
 11
-66.210048
 21
-24.542472
  0
LINE
  8
ボルト／ビス
  6
DOT
 62
    64
 10
-74.210042
 20
-24.0425
 11
-66.710073
 21
-24.042478
  0
LINE
  8
ボルト／ビス
  6
DOT
 62
    64
 10
-74.21002
 20
-27.542502
 11
-66.210048
 21
-27.542428
  0
LINE
  8
ボルト／ビス
  6
DOT
 62
    64
 10
-74.209998
 20
-28.042497
 11
-66.710073
 21
-28.042497
  0
LINE
  8
ボルト／ビス
  6
DOT
 62
    64
 10
-66.710073
 20
-24.042478
 11
-66.710073
 21
-28.042497
  0
LINE
  8
ボルト／ビス
  6
DOT
 62
    64
 10
-66.210048
 20
-24.542472
 11
-66.210048
 21
-27.542428
  0
LINE
  8
ボルト／ビス
  6
DOT
 62
    64
 10
-78.531843
 20
-26.042428
 11
-63.710042
 21
-26.042428
  0
ENDBLK
  0
BLOCK
  2
*GRP_0021
 70
    65
 10
0.0
 20
0.0
  0
LINE
  8
型材断面
  6
DOT
 10
-71.209975
 20
-23.042428
 11
-63.209965
 21
-23.042428
  0
LINE
  8
型材断面
  6
DOT
 10
-63.209965
 20
-31.04243
 11
-63.209965
 21
-23.042428
  0
INSERT
  2
*HAT_0002
  8
型材断面
 10
0.0
 20
0.0
  0
ENDBLK
  0
BLOCK
  2
*GRP_0022
 70
    65
 10
0.0
 20
0.0
  0
LINE
  8
ボルト／ビス
  6
CONTINUOUS
 10
-103.710017
 20
-9.542472
 11
-103.710017
 21
-7.542478
  0
LINE
  8
ボルト／ビス
  6
CONTINUOUS
 10
-103.710017
 20
-7.542478
 11
-81.710065
 21
-7.542478
  0
LINE
  8
ボルト／ビス
  6
CONTINUOUS
 10
-81.710065
 20
-7.542478
 11
-81.710065
 21
-9.54245
  0
LINE
  8
ボルト／ビス
  6
CONTINUOUS
 10
-103.710017
 20
-9.542472
 11
-81.710065
 21
-9.54245
  0
LINE
  8
ボルト／ビス
  6
CONTINUOUS
 10
-101.710045
 20
-6.542472
 11
-101.710015
 21
-7.542478
  0
LINE
  8
ボルト／ビス
  6
CONTINUOUS
 10
-101.710045
 20
-6.542472
 11
-83.710067
 21
-6.54245
  0
LINE
  8
ボルト／ビス
  6
CONTINUOUS
 10
-83.710067
 20
-6.54245
 11
-83.710067
 21
-7.542447
  0
LINE
  8
ボルト／ビス
  6
CONTINUOUS
 62
    64
 10
-97.521317
 20
-0.54245
 11
-98.483515
 21
-0.8927
  0
ARC
  8
ボルト／ビス
  6
CONTINUOUS
 62
    64
 10
-97.040141
 20
-3.691882
 40
3.149346
 50
62.721989
 51
90.000022
  0
ARC
  8
ボルト／ビス
  6
CONTINUOUS
 62
    64
 10
-92.710017
 20
-12.61458
 40
12.072042
 50
76.165024
 51
103.835007
  0
LINE
  8
ボルト／ビス
  6
CONTINUOUS
 62
    64
 10
-87.898818
 20
-0.54245
 11
-86.936515
 21
-0.8927
  0
ARC
  8
ボルト／ビス
  6
CONTINUOUS
 62
    64
 10
-88.379902
 20
-3.691879
 40
3.149346
 50
90.000022
 51
117.278055
  0
LINE
  8
ボルト／ビス
  6
CONTINUOUS
 62
    64
 10
-97.521317
 20
-0.54245
 11
-87.898818
 21
-0.54245
  0
LINE
  8
ボルト／ビス
  6
CONTINUOUS
 62
    64
 10
-86.936515
 20
-0.8927
 11
-86.936515
 21
-4.542447
  0
LINE
  8
ボルト／ビス
  6
CONTINUOUS
 62
    64
 10
-89.82334
 20
-0.892723
 11
-89.823318
 21
-4.542478
  0
LINE
  8
ボルト／ビス
  6
CONTINUOUS
 62
    64
 10
-98.483515
 20
-0.8927
 11
-98.483515
 21
-4.542447
  0
LINE
  8
ボルト／ビス
  6
CONTINUOUS
 62
    64
 10
-95.596765
 20
-0.892723
 11
-95.596765
 21
-4.542425
  0
LINE
  8
ボルト／ビス
  6
CONTINUOUS
 10
-98.483515
 20
-4.542447
 11
-86.936515
 21
-4.542447
  0
LINE
  8
ボルト／ビス
  6
CONTINUOUS
 10
-98.710015
 20
-4.542447
 11
-98.710015
 21
-6.542472
  0
LINE
  8
ボルト／ビス
  6
CONTINUOUS
 10
-98.710015
 20
-4.542447
 11
-86.710067
 21
-4.542447
  0
LINE
  8
ボルト／ビス
  6
CONTINUOUS
 10
-86.710067
 20
-4.542447
 11
-86.710067
 21
-6.542472
  0
LINE
  8
ボルト／ビス
  6
CONTINUOUS
 62
    64
 10
-90.410065
 20
-9.542472
 11
-90.410065
 21
-29.542422
  0
LINE
  8
ボルト／ビス
  6
CONTINUOUS
 62
    64
 10
-95.010092
 20
-9.542472
 11
-95.01007
 21
-29.5424
  0
LINE
  8
ボルト／ビス
  6
CONTINUOUS
 62
    64
 10
-95.01007
 20
-29.5424
 11
-90.410065
 21
-29.542422
  0
LINE
  8
ボルト／ビス
  6
CONTINUOUS
 62
    64
 10
-89.710067
 20
-28.542425
 11
-90.410065
 21
-29.542422
  0
LINE
  8
ボルト／ビス
  6
CONTINUOUS
 62
    64
 10
-95.710067
 20
-28.542425
 11
-95.01007
 21
-29.5424
  0
LINE
  8
ボルト／ビス
  6
CONTINUOUS
 62
    64
 10
-95.710067
 20
-28.542425
 11
-89.710067
 21
-28.542425
  0
LINE
  8
ボルト／ビス
  6
CONTINUOUS
 62
    64
 10
-95.01007
 20
-29.5424
 11
-90.410065
 21
-29.542422
  0
LINE
  8
ボルト／ビス
  6
CONTINUOUS
 62
    64
 10
-95.710067
 20
-9.542472
 11
-95.710067
 21
-28.542425
  0
LINE
  8
ボルト／ビス
  6
CONTINUOUS
 62
    64
 10
-89.710067
 20
-9.54245
 11
-89.710067
 21
-28.542425
  0
ARC
  8
ボルト／ビス
  6
CONTINUOUS
 10
-96.210007
 20
-23.046119
 40
0.999997
 50
180.000022
 51
270.000022
  0
LINE
  8
ボルト／ビス
  6
CONTINUOUS
 10
-89.210065
 20
-24.046077
 11
-96.209995
 21
-24.046077
  0
ARC
  8
ボルト／ビス
  6
CONTINUOUS
 10
-89.210022
 20
-23.046116
 40
0.999997
 50
270.000022
 51
360.000022
  0
LINE
  8
ボルト／ビス
  6
CONTINUOUS
 10
-87.710065
 20
-13.546047
 11
-87.710065
 21
-14.046072
  0
LINE
  8
ボルト／ビス
  6
CONTINUOUS
 10
-97.710017
 20
-13.546047
 11
-97.709995
 21
-14.046072
  0
LINE
  8
ボルト／ビス
  6
CONTINUOUS
 10
-87.710065
 20
-13.546047
 11
-97.710017
 21
-13.546047
  0
LINE
  8
ボルト／ビス
  6
CONTINUOUS
 10
-87.710065
 20
-14.046072
 11
-97.709995
 21
-14.046072
  0
LINE
  8
ボルト／ビス
  6
CONTINUOUS
 10
-88.210015
 20
-23.046072
 11
-88.210015
 21
-17.046125
  0
LINE
  8
ボルト／ビス
  6
CONTINUOUS
 10
-88.210015
 20
-15.54605
 11
-88.210015
 21
-14.04605
  0
LINE
  8
ボルト／ビス
  6
CONTINUOUS
 10
-97.210015
 20
-14.04605
 11
-97.210015
 21
-15.546072
  0
LINE
  8
ボルト／ビス
  6
CONTINUOUS
 10
-97.209993
 20
-17.046125
 11
-97.210015
 21
-23.046072
  0
LINE
  8
ボルト／ビス
  6
CONTINUOUS
 10
-86.96002
 20
-15.54605
 11
-92.710015
 21
-15.546072
  0
ARC
  8
ボルト／ビス
  6
CONTINUOUS
 10
-86.960029
 20
-16.296128
 40
0.749999
 50
0.000022
 51
90.000022
  0
LINE
  8
ボルト／ビス
  6
CONTINUOUS
 10
-86.21002
 20
-16.29605
 11
-86.21002
 21
-16.29605
  0
LINE
  8
ボルト／ビス
  6
CONTINUOUS
 10
-86.96002
 20
-17.046125
 11
-92.710015
 21
-17.046102
  0
ARC
  8
ボルト／ビス
  6
CONTINUOUS
 10
-86.960029
 20
-16.296128
 40
0.749999
 50
270.000022
 51
360.000022
  0
LINE
  8
ボルト／ビス
  6
CONTINUOUS
 10
-98.460017
 20
-15.546072
 11
-92.710015
 21
-15.546072
  0
ARC
  8
ボルト／ビス
  6
CONTINUOUS
 10
-98.460006
 20
-16.296133
 40
0.749999
 50
90.000022
 51
180.000022
  0
LINE
  8
ボルト／ビス
  6
CONTINUOUS
 10
-99.210017
 20
-16.296072
 11
-99.210017
 21
-16.296072
  0
LINE
  8
ボルト／ビス
  6
CONTINUOUS
 10
-98.460017
 20
-17.046125
 11
-92.710015
 21
-17.046102
  0
ARC
  8
ボルト／ビス
  6
CONTINUOUS
 10
-98.460006
 20
-16.296133
 40
0.749999
 50
180.000022
 51
270.000022
  0
ARC
  8
St
  6
CONTINUOUS
 10
-87.710028
 20
-15.54613
 40
1.631205
 50
90.000022
 51
90.000022
  0
ENDBLK
  0
BLOCK
  2
*DIM_0023
 70
    65
 10
0.0
 20
0.0
  0
LINE
  8
寸法
  6
CONTINUOUS
 10
-72.70999
 20
10.457475
 11
-72.70999
 21
72.825
  0
LINE
  8
寸法
  6
CONTINUOUS
 10
-150.914357
 20
-55.53744
 11
-150.914357
 21
72.825
  0
LINE
  8
寸法
  6
CONTINUOUS
 10
-72.70999
 20
72.825
 11
-150.914357
 21
72.825
  0
POINT
  8
寸法
 10
-72.70999
 20
72.825
  0
POINT
  8
寸法
 10
-150.914357
 20
72.825
  0
TEXT
  7
TextStyle03
  8
寸法
  6
CONTINUOUS
 10
-115.08125
 20
73.2
  1
78.2
 40
3.0
 72
     5
 11
-108.51875
 21
73.2
  0
ENDBLK
  0
BLOCK
  2
*DIM_0024
 70
    65
 10
0.0
 20
0.0
  0
LINE
  8
寸法
  6
CONTINUOUS
 10
-150.914357
 20
-55.53744
 11
-150.914357
 21
61.4125
  0
LINE
  8
寸法
  6
CONTINUOUS
 10
-122.709895
 20
-4.542502
 11
-122.709895
 21
61.4125
  0
LINE
  8
寸法
  6
CONTINUOUS
 10
-150.914357
 20
61.4125
 11
-122.709895
 21
61.4125
  0
POINT
  8
寸法
 10
-150.914357
 20
61.4125
  0
POINT
  8
寸法
 10
-122.709895
 20
61.4125
  0
TEXT
  7
TextStyle03
  8
寸法
  6
CONTINUOUS
 10
-140.08125
 20
61.775
  1
28.2
 40
3.0
 72
     5
 11
-133.51875
 21
61.775
  0
ENDBLK
  0
BLOCK
  2
*DIM_0025
 70
    65
 10
0.0
 20
0.0
  0
LINE
  8
寸法
  6
CONTINUOUS
 10
-72.70999
 20
10.457475
 11
-72.70999
 21
61.4125
  0
LINE
  8
寸法
  6
CONTINUOUS
 10
-122.709895
 20
61.4125
 11
-72.70999
 21
61.4125
  0
POINT
  8
寸法
 10
-72.70999
 20
61.4125
  0
TEXT
  7
TextStyle03
  8
寸法
  6
CONTINUOUS
 10
-99.29375
 20
61.775
  1
50
 40
3.0
 72
     5
 11
-96.10625
 21
61.775
  0
ENDBLK
  0
BLOCK
  2
*DIM_0026
 70
    65
 10
0.0
 20
0.0
  0
LINE
  8
寸法
  6
CONTINUOUS
 10
-46.90999
 20
-18.04245
 11
-46.90999
 21
61.4125
  0
LINE
  8
寸法
  6
CONTINUOUS
 10
-72.70999
 20
61.4125
 11
-46.90999
 21
61.4125
  0
POINT
  8
寸法
 10
-46.90999
 20
61.4125
  0
TEXT
  7
TextStyle03
  8
寸法
  6
CONTINUOUS
 10
-63.08125
 20
61.775
  1
25.8
 40
3.0
 72
     5
 11
-56.51875
 21
61.775
  0
ENDBLK
  0
BLOCK
  2
*DIM_0027
 70
    65
 10
0.0
 20
0.0
  0
LINE
  8
寸法
  6
CONTINUOUS
 10
-122.709895
 20
-4.542502
 11
-122.709895
 21
51.030555
  0
LINE
  8
寸法
  6
CONTINUOUS
 10
-92.71004
 20
2.457523
 11
-92.71004
 21
51.030555
  0
LINE
  8
寸法
  6
CONTINUOUS
 10
-122.709895
 20
51.030555
 11
-92.71004
 21
51.030555
  0
POINT
  8
寸法
 10
-122.709895
 20
51.030555
  0
POINT
  8
寸法
 10
-92.71004
 20
51.030555
  0
TEXT
  7
TextStyle03
  8
寸法
  6
CONTINUOUS
 10
-109.29375
 20
51.4
  1
30
 40
3.0
 72
     5
 11
-106.10625
 21
51.4
  0
ENDBLK
  0
BLOCK
  2
*DIM_0028
 70
    65
 10
0.0
 20
0.0
  0
LINE
  8
寸法
  6
CONTINUOUS
 10
-72.70999
 20
10.457475
 11
-72.70999
 21
51.030555
  0
LINE
  8
寸法
  6
CONTINUOUS
 10
-92.71004
 20
51.030555
 11
-72.70999
 21
51.030555
  0
POINT
  8
寸法
 10
-72.70999
 20
51.030555
  0
TEXT
  7
TextStyle03
  8
寸法
  6
CONTINUOUS
 10
-84.29375
 20
51.4
  1
20
 40
3.0
 72
     5
 11
-81.10625
 21
51.4
  0
ENDBLK
  0
BLOCK
  2
*DIM_0029
 70
    65
 10
0.0
 20
0.0
  0
LINE
  8
寸法
  6
CONTINUOUS
 10
-47.710015
 20
10.457527
 11
-47.710015
 21
51.030555
  0
LINE
  8
寸法
  6
CONTINUOUS
 10
-72.70999
 20
51.030555
 11
-47.710015
 21
51.030555
  0
POINT
  8
寸法
 10
-47.710015
 20
51.030555
  0
TEXT
  7
TextStyle03
  8
寸法
  6
CONTINUOUS
 10
-61.79375
 20
51.4
  1
25
 40
3.0
 72
     5
 11
-58.60625
 21
51.4
  0
ENDBLK
  0
BLOCK
  2
*DIM_0030
 70
    65
 10
0.0
 20
0.0
  0
LINE
  8
寸法
  6
CONTINUOUS
 10
-142.414357
 20
-89.03744
 11
-177.580555
 21
-89.03744
  0
LINE
  8
寸法
  6
CONTINUOUS
 10
-155.914357
 20
-75.53744
 11
-177.580555
 21
-75.53744
  0
LINE
  8
寸法
  6
CONTINUOUS
 10
-177.580555
 20
-89.03744
 11
-177.580555
 21
-75.53744
  0
POINT
  8
寸法
 10
-177.580555
 20
-89.03744
  0
POINT
  8
寸法
 10
-177.580555
 20
-75.53744
  0
TEXT
  7
TextStyle03
  8
寸法
  6
CONTINUOUS
 10
-177.95
 20
-85.58125
  1
13.5
 40
3.0
 50
90.0
 72
     5
 11
-177.95
 21
-79.01875
  0
ENDBLK
  0
BLOCK
  2
*DIM_0031
 70
    65
 10
0.0
 20
0.0
  0
LINE
  8
寸法
  6
CONTINUOUS
 10
-77.70999
 20
5.457475
 11
-177.580555
 21
5.457475
  0
LINE
  8
寸法
  6
CONTINUOUS
 10
-177.580555
 20
-75.53744
 11
-177.580555
 21
5.457475
  0
POINT
  8
寸法
 10
-177.580555
 20
5.457475
  0
TEXT
  7
TextStyle03
  8
寸法
  6
CONTINUOUS
 10
-177.95
 20
-36.64375
  1
81
 40
3.0
 50
90.0
 72
     5
 11
-177.95
 21
-33.45625
  0
ENDBLK
  0
BLOCK
  2
*DIM_0032
 70
    65
 10
0.0
 20
0.0
  0
LINE
  8
寸法
  6
CONTINUOUS
 10
-155.914357
 20
-75.53744
 11
-170.08889
 21
-75.53744
  0
LINE
  8
寸法
  6
CONTINUOUS
 10
-155.914357
 20
-60.53744
 11
-170.08889
 21
-60.53744
  0
LINE
  8
寸法
  6
CONTINUOUS
 10
-170.08889
 20
-75.53744
 11
-170.08889
 21
-60.53744
  0
POINT
  8
寸法
 10
-170.08889
 20
-75.53744
  0
POINT
  8
寸法
 10
-170.08889
 20
-60.53744
  0
TEXT
  7
TextStyle03
  8
寸法
  6
CONTINUOUS
 10
-170.475
 20
-69.64375
  1
15
 40
3.0
 50
90.0
 72
     5
 11
-170.475
 21
-66.45625
  0
ENDBLK
  0
BLOCK
  2
*DIM_0033
 70
    65
 10
0.0
 20
0.0
  0
LINE
  8
寸法
  6
CONTINUOUS
 10
-79.209975
 20
-36.668952
 11
-170.08889
 21
-36.668952
  0
LINE
  8
寸法
  6
CONTINUOUS
 10
-170.08889
 20
-60.53744
 11
-170.08889
 21
-36.668952
  0
POINT
  8
寸法
 10
-170.08889
 20
-36.668952
  0
TEXT
  7
TextStyle03
  8
寸法
  6
CONTINUOUS
 10
-170.475
 20
-52.75
  1
23.87
 40
3.0
 50
90.0
 72
     5
 11
-170.475
 21
-44.5
  0
ENDBLK
  0
BLOCK
  2
*DIM_0034
 70
    65
 10
0.0
 20
0.0
  0
LINE
  8
寸法
  6
CONTINUOUS
 10
-127.709895
 20
-34.542478
 11
-170.08889
 21
-34.542478
  0
LINE
  8
寸法
  6
CONTINUOUS
 10
-170.08889
 20
-36.668952
 11
-170.08889
 21
-34.542478
  0
POINT
  8
寸法
 10
-170.08889
 20
-34.542478
  0
TEXT
  7
TextStyle03
  8
寸法
  6
CONTINUOUS
 10
-170.475
 20
-38.0625
  1
2.1
 40
3.0
 50
90.0
 72
     5
 11
-170.475
 21
-33.1875
  0
ENDBLK
  0
BLOCK
  2
*DIM_0035
 70
    65
 10
0.0
 20
0.0
  0
LINE
  8
寸法
  6
CONTINUOUS
 10
-127.709895
 20
-9.542502
 11
-170.08889
 21
-9.542502
  0
LINE
  8
寸法
  6
CONTINUOUS
 10
-170.08889
 20
-34.542478
 11
-170.08889
 21
-9.542502
  0
POINT
  8
寸法
 10
-170.08889
 20
-9.542502
  0
TEXT
  7
TextStyle03
  8
寸法
  6
CONTINUOUS
 10
-170.475
 20
-23.64375
  1
25
 40
3.0
 50
90.0
 72
     5
 11
-170.475
 21
-20.45625
  0
ENDBLK
  0
BLOCK
  2
*DIM_0036
 70
    65
 10
0.0
 20
0.0
  0
LINE
  8
寸法
  6
CONTINUOUS
 10
-77.70999
 20
5.457475
 11
-170.08889
 21
5.457475
  0
LINE
  8
寸法
  6
CONTINUOUS
 10
-170.08889
 20
-9.542502
 11
-170.08889
 21
5.457475
  0
POINT
  8
寸法
 10
-170.08889
 20
5.457475
  0
TEXT
  7
TextStyle03
  8
寸法
  6
CONTINUOUS
 10
-170.475
 20
-3.64375
  1
15
 40
3.0
 50
90.0
 72
     5
 11
-170.475
 21
-0.45625
  0
ENDBLK
  0
BLOCK
  2
*DIM_0037
 70
    65
 10
0.0
 20
0.0
  0
LINE
  8
寸法
  6
CONTINUOUS
 10
-7.70999
 20
-5.24247
 11
-2.70999
 21
-5.24247
  0
LINE
  8
寸法
  6
CONTINUOUS
 10
-7.70999
 20
-23.042475
 11
-2.70999
 21
-23.042475
  0
LINE
  8
寸法
  6
CONTINUOUS
 10
-2.70999
 20
-5.24247
 11
-2.70999
 21
-23.042475
  0
POINT
  8
寸法
 10
-2.70999
 20
-5.24247
  0
POINT
  8
寸法
 10
-2.70999
 20
-23.042475
  0
TEXT
  7
TextStyle03
  8
寸法
  6
CONTINUOUS
 10
-3.1
 20
-17.43125
  1
17.8
 40
3.0
 50
90.0
 72
     5
 11
-3.1
 21
-10.86875
  0
ENDBLK
  0
BLOCK
  2
*DIM_0038
 70
    65
 10
0.0
 20
0.0
  0
LINE
  8
寸法
  6
CONTINUOUS
 10
-41.91002
 20
-32.542475
 11
-2.70999
 21
-32.542475
  0
LINE
  8
寸法
  6
CONTINUOUS
 10
-2.70999
 20
-23.042475
 11
-2.70999
 21
-32.542475
  0
POINT
  8
寸法
 10
-2.70999
 20
-32.542475
  0
TEXT
  7
TextStyle03
  8
寸法
  6
CONTINUOUS
 10
-3.1
 20
-30.2375
  1
9.5
 40
3.0
 50
90.0
 72
     5
 11
-3.1
 21
-25.3625
  0
ENDBLK
  0
BLOCK
  2
*DIM_0039
 70
    65
 10
0.0
 20
0.0
  0
LINE
  8
寸法
  6
CONTINUOUS
 10
-132.414357
 20
-75.53744
 11
-2.70999
 21
-75.53744
  0
LINE
  8
寸法
  6
CONTINUOUS
 10
-2.70999
 20
-32.542475
 11
-2.70999
 21
-75.53744
  0
POINT
  8
寸法
 10
-2.70999
 20
-75.53744
  0
TEXT
  7
TextStyle03
  8
寸法
  6
CONTINUOUS
 10
-3.1
 20
-55.64375
  1
43
 40
3.0
 50
90.0
 72
     5
 11
-3.1
 21
-52.45625
  0
ENDBLK
  0
BLOCK
  2
*GRP_0040
 70
    65
 10
0.0
 20
0.0
  0
LINE
  8
型材断面
  6
CONTINUOUS
 62
    47
 10
-46.91002
 20
-24.542502
 11
-48.41002
 21
-24.542502
  0
ARC
  8
型材断面
  6
CONTINUOUS
 62
    47
 10
-48.410015
 20
-31.042484
 40
1.499997
 50
270.000018
 51
360.000036
  0
LINE
  8
型材断面
  6
CONTINUOUS
 62
    47
 10
-46.91002
 20
-24.542502
 11
-46.91002
 21
-32.542475
  0
LINE
  8
型材断面
  6
CONTINUOUS
 62
    47
 10
-48.409998
 20
-31.0424
 11
-48.41002
 21
-24.542502
  0
LINE
  8
型材断面
  6
CONTINUOUS
 62
    47
 10
-48.409998
 20
-31.0424
 11
-71.209983
 21
-31.042453
  0
LINE
  8
型材断面
  6
CONTINUOUS
 62
    47
 10
-46.91002
 20
-32.542475
 11
-71.209983
 21
-32.542453
  0
LINE
  8
型材断面
  6
CONTINUOUS
 62
    47
 10
-81.209943
 20
-14.04245
 11
-81.209943
 21
-12.542502
  0
LINE
  8
型材断面
  6
CONTINUOUS
 62
    47
 10
-81.209943
 20
-12.54245
 11
-72.709968
 21
-12.54245
  0
ARC
  8
型材断面
  6
CONTINUOUS
 62
    47
 10
-72.709977
 20
-14.042472
 40
1.5
 50
359.999949
 51
450.0
  0
LINE
  8
型材断面
  6
CONTINUOUS
 62
    47
 10
-81.209943
 20
-14.04245
 11
-72.709968
 21
-14.04245
  0
LINE
  8
型材断面
  6
CONTINUOUS
 62
    47
 10
-71.209968
 20
-13.822452
 11
-71.209983
 21
-31.042453
  0
LINE
  8
型材断面
  6
CONTINUOUS
 62
    47
 10
-72.709968
 20
-14.04245
 11
-72.709983
 21
-31.042453
  0
ARC
  8
型材断面
  6
CONTINUOUS
 62
    47
 10
-71.209983
 20
-31.042451
 40
1.5
 50
179.999954
 51
269.99995
  0
ENDBLK
  0
BLOCK
  2
*GRP_0041
 70
    65
 10
0.0
 20
0.0
  0
LINE
  8
St
 10
-72.848215
 20
-12.396372
 11
-72.848215
 21
-12.396372
  0
LINE
  8
St
 10
-74.27317
 20
-12.39635
 11
-73.22317
 21
-11.34635
  0
LINE
  8
St
 10
-75.69817
 20
-12.39635
 11
-74.12317
 21
-10.896372
  0
LINE
  8
St
 10
-77.123215
 20
-12.396328
 11
-75.54817
 21
-10.89635
  0
LINE
  8
St
 10
-78.54817
 20
-12.39635
 11
-76.973215
 21
-10.896372
  0
LINE
  8
St
 10
-79.973193
 20
-12.396372
 11
-78.39817
 21
-10.896403
  0
LINE
  8
St
 10
-82.748193
 20
-13.89635
 11
-79.74817
 21
-10.89635
  0
LINE
  8
St
 10
-84.17314
 20
-13.896372
 11
-81.17317
 21
-10.896372
  0
LINE
  8
St
 10
-85.598193
 20
-13.896403
 11
-82.59817
 21
-10.89635
  0
LINE
  8
St
 10
-87.023193
 20
-13.896328
 11
-84.02314
 21
-10.896372
  0
LINE
  8
St
 10
-88.44814
 20
-13.89635
 11
-85.448193
 21
-10.896372
  0
LINE
  8
St
 10
-89.87314
 20
-13.89635
 11
-86.873193
 21
-10.89635
  0
LINE
  8
St
 10
-91.22314
 20
-13.89635
 11
-88.223193
 21
-10.896403
  0
LINE
  8
St
 10
-92.64817
 20
-13.896328
 11
-89.648193
 21
-10.896328
  0
LINE
  8
St
 10
-94.07317
 20
-13.89635
 11
-91.07314
 21
-10.89635
  0
LINE
  8
St
 10
-95.49817
 20
-13.896372
 11
-92.49814
 21
-10.896372
  0
LINE
  8
St
 10
-96.923117
 20
-13.89635
 11
-93.923192
 21
-10.896328
  0
LINE
  8
St
 10
-98.348117
 20
-13.896372
 11
-95.34814
 21
-10.89635
  0
LINE
  8
St
 10
-99.698117
 20
-13.896328
 11
-96.698193
 21
-10.89635
  0
LINE
  8
St
 10
-101.123117
 20
-13.896372
 11
-98.12314
 21
-10.896372
  0
LINE
  8
St
 10
-102.248117
 20
-13.59635
 11
-99.54817
 21
-10.896403
  0
LINE
  8
St
 10
-102.84814
 20
-12.69635
 11
-100.973117
 21
-10.896372
  0
ENDBLK
  0
BLOCK
  2
*DIM_0042
 70
    65
 10
0.0
 20
0.0
  0
LINE
  8
寸法
  6
CONTINUOUS
 10
181.029253
 20
25.256662
 11
186.029253
 21
25.256662
  0
LINE
  8
寸法
  6
CONTINUOUS
 10
181.029253
 20
7.456658
 11
186.029253
 21
7.456658
  0
LINE
  8
寸法
  6
CONTINUOUS
 10
186.029253
 20
25.256662
 11
186.029253
 21
7.456658
  0
POINT
  8
寸法
 10
186.029253
 20
25.256662
  0
POINT
  8
寸法
 10
186.029253
 20
7.456658
  0
TEXT
  7
TextStyle03
  8
寸法
  6
CONTINUOUS
 10
185.65
 20
13.06875
  1
17.8
 40
3.0
 50
90.0
 72
     5
 11
185.65
 21
19.63125
  0
ENDBLK
  0
BLOCK
  2
*DIM_0043
 70
    65
 10
0.0
 20
0.0
  0
LINE
  8
寸法
  6
CONTINUOUS
 10
156.82923
 20
-2.043343
 11
186.029253
 21
-2.043343
  0
LINE
  8
寸法
  6
CONTINUOUS
 10
186.029253
 20
7.456658
 11
186.029253
 21
-2.043343
  0
POINT
  8
寸法
 10
186.029253
 20
-2.043343
  0
TEXT
  7
TextStyle03
  8
寸法
  6
CONTINUOUS
 10
185.65
 20
0.2625
  1
9.5
 40
3.0
 50
90.0
 72
     5
 11
185.65
 21
5.1375
  0
ENDBLK
  0
BLOCK
  2
*DIM_0044
 70
    65
 10
0.0
 20
0.0
  0
LINE
  8
寸法
  6
CONTINUOUS
 10
66.324907
 20
-75.53744
 11
186.029253
 21
-75.53744
  0
LINE
  8
寸法
  6
CONTINUOUS
 10
186.029253
 20
-2.043343
 11
186.029253
 21
-75.53744
  0
POINT
  8
寸法
 10
186.029253
 20
-75.53744
  0
TEXT
  7
TextStyle03
  8
寸法
  6
CONTINUOUS
 10
185.65
 20
-42.08125
  1
73.5
 40
3.0
 50
90.0
 72
     5
 11
185.65
 21
-35.51875
  0
ENDBLK
  0
BLOCK
  2
*DIM_0045
 70
    65
 10
0.0
 20
0.0
  0
LINE
  8
寸法
  6
CONTINUOUS
 10
181.029253
 20
25.256662
 11
186.029253
 21
25.256662
  0
LINE
  8
寸法
  6
CONTINUOUS
 10
156.029198
 20
34.456615
 11
186.029253
 21
34.456615
  0
LINE
  8
寸法
  6
CONTINUOUS
 10
186.029253
 20
25.256662
 11
186.029253
 21
34.456615
  0
POINT
  8
寸法
 10
186.029253
 20
25.256662
  0
POINT
  8
寸法
 10
186.029253
 20
34.456615
  0
TEXT
  7
TextStyle03
  8
寸法
  6
CONTINUOUS
 10
185.65
 20
27.4125
  1
9.2
 40
3.0
 50
90.0
 72
     5
 11
185.65
 21
32.2875
  0
ENDBLK
  0
BLOCK
  2
*DIM_0046
 70
    65
 10
0.0
 20
0.0
  0
LINE
  8
寸法
  6
CONTINUOUS
 10
156.029227
 20
35.956668
 11
186.029253
 21
35.956668
  0
LINE
  8
寸法
  6
CONTINUOUS
 10
186.029253
 20
34.456615
 11
186.029253
 21
35.956668
  0
POINT
  8
寸法
 10
186.029253
 20
35.956668
  0
TEXT
  7
TextStyle03
  8
寸法
  6
CONTINUOUS
 10
185.65
 20
37.8125
  1
1.5
 40
3.0
 50
90.0
 72
     5
 11
185.65
 21
42.6875
  0
ENDBLK
  0
BLOCK
  2
*DIM_0047
 70
    65
 10
0.0
 20
0.0
  0
LINE
  8
寸法
  6
CONTINUOUS
 10
-7.70999
 20
-5.24247
 11
-2.70999
 21
-5.24247
  0
LINE
  8
寸法
  6
CONTINUOUS
 10
-42.710045
 20
3.957475
 11
-2.70999
 21
3.957475
  0
LINE
  8
寸法
  6
CONTINUOUS
 10
-2.70999
 20
-5.24247
 11
-2.70999
 21
3.957475
  0
POINT
  8
寸法
 10
-2.70999
 20
-5.24247
  0
POINT
  8
寸法
 10
-2.70999
 20
3.957475
  0
TEXT
  7
TextStyle03
  8
寸法
  6
CONTINUOUS
 10
-3.1
 20
-3.0875
  1
9.2
 40
3.0
 50
90.0
 72
     5
 11
-3.1
 21
1.7875
  0
ENDBLK
  0
BLOCK
  2
*DIM_0048
 70
    65
 10
0.0
 20
0.0
  0
LINE
  8
寸法
  6
CONTINUOUS
 10
-42.710015
 20
5.457527
 11
-2.70999
 21
5.457527
  0
LINE
  8
寸法
  6
CONTINUOUS
 10
-2.70999
 20
3.957475
 11
-2.70999
 21
5.457527
  0
POINT
  8
寸法
 10
-2.70999
 20
5.457527
  0
TEXT
  7
TextStyle03
  8
寸法
  6
CONTINUOUS
 10
-3.1
 20
7.3125
  1
1.5
 40
3.0
 50
90.0
 72
     5
 11
-3.1
 21
12.1875
  0
ENDBLK
  0
BLOCK
  2
*GRP_0049
 70
    65
 10
0.0
 20
0.0
  0
POLYLINE
  8
寸法
  6
BYBLOCK
 62
     0
 66
     1
  0
VERTEX
  8
寸法
 10
100.48087
 20
-69.537258
  0
VERTEX
  8
寸法
 10
115.135475
 20
-84.191863
  0
VERTEX
  8
寸法
 10
126.207842
 20
-84.191863
  0
SEQEND
  0
ENDBLK
  0
BLOCK
  2
*GRP_0050
 70
    65
 10
0.0
 20
0.0
  0
POLYLINE
  8
寸法
  6
CONTINUOUS
 66
     1
  0
VERTEX
  8
寸法
 10
144.682263
 20
2.30974
  0
VERTEX
  8
寸法
 10
150.415428
 20
-14.94057
  0
VERTEX
  8
寸法
 10
158.813712
 20
-14.94057
  0
SEQEND
  0
ENDBLK
  0
BLOCK
  2
*GRP_0051
 70
    65
 10
0.0
 20
0.0
  0
POLYLINE
  8
寸法
  6
CONTINUOUS
 66
     1
  0
VERTEX
  8
寸法
 10
126.662285
 20
-2.635287
  0
VERTEX
  8
寸法
 10
135.283573
 20
-28.491855
  0
VERTEX
  8
寸法
 10
144.39157
 20
-28.491855
  0
SEQEND
  0
ENDBLK
  0
BLOCK
  2
*GRP_0052
 70
    65
 10
0.0
 20
0.0
  0
POLYLINE
  8
寸法
  6
CONTINUOUS
 66
     1
  0
VERTEX
  8
寸法
 10
125.279268
 20
2.356853
  0
VERTEX
  8
寸法
 10
111.624393
 20
-19.085735
  0
VERTEX
  8
寸法
 10
94.803067
 20
-19.085735
  0
SEQEND
  0
ENDBLK
  0
BLOCK
  2
*GRP_0053
 70
    65
 10
0.0
 20
0.0
  0
POLYLINE
  8
寸法
  6
CONTINUOUS
 66
     1
  0
VERTEX
  8
寸法
 10
98.471085
 20
18.446443
  0
VERTEX
  8
寸法
 10
83.923325
 20
43.010377
  0
VERTEX
  8
寸法
 10
67.268545
 20
43.010377
  0
SEQEND
  0
ENDBLK
  0
BLOCK
  2
*GRP_0054
 70
    65
 10
0.0
 20
0.0
  0
POLYLINE
  8
寸法
  6
BYBLOCK
 62
     0
 66
     1
  0
VERTEX
  8
寸法
 10
-98.258395
 20
-69.537258
  0
VERTEX
  8
寸法
 10
-83.60379
 20
-84.191863
  0
VERTEX
  8
寸法
 10
-72.531423
 20
-84.191863
  0
SEQEND
  0
ENDBLK
  0
BLOCK
  2
*GRP_0055
 70
    65
 10
0.0
 20
0.0
  0
POLYLINE
  8
寸法
  6
CONTINUOUS
 66
     1
  0
VERTEX
  8
寸法
 10
-54.057002
 20
-27.971395
  0
VERTEX
  8
寸法
 10
-48.323837
 20
-45.221705
  0
VERTEX
  8
寸法
 10
-39.925552
 20
-45.221705
  0
SEQEND
  0
ENDBLK
  0
BLOCK
  2
*GRP_0056
 70
    65
 10
0.0
 20
0.0
  0
POLYLINE
  8
寸法
  6
CONTINUOUS
 66
     1
  0
VERTEX
  8
寸法
 10
-72.07698
 20
-32.916423
  0
VERTEX
  8
寸法
 10
-63.455692
 20
-58.77299
  0
VERTEX
  8
寸法
 10
-54.347695
 20
-58.77299
  0
SEQEND
  0
ENDBLK
  0
BLOCK
  2
*GRP_0057
 70
    65
 10
0.0
 20
0.0
  0
POLYLINE
  8
寸法
  6
CONTINUOUS
 66
     1
  0
VERTEX
  8
寸法
 10
-100.26818
 20
-11.834692
  0
VERTEX
  8
寸法
 10
-114.81594
 20
12.729242
  0
VERTEX
  8
寸法
 10
-131.47072
 20
12.729242
  0
SEQEND
  0
ENDBLK
  0
BLOCK
  2
*GRP_0058
 70
    65
 10
0.0
 20
0.0
  0
POLYLINE
  8
寸法
  6
CONTINUOUS
 66
     1
  0
VERTEX
  8
寸法
 10
-73.459975
 20
-28.674572
  0
VERTEX
  8
寸法
 10
-96.866287
 20
-41.13543
  0
VERTEX
  8
寸法
 10
-124.46628
 20
-41.13543
  0
SEQEND
  0
ENDBLK
  0
BLOCK
  2
*DIM_0059
 70
    65
 10
0.0
 20
0.0
  0
LINE
  8
寸法
  6
CONTINUOUS
 10
71.029348
 20
-4.043337
 11
21.225
 21
-4.043337
  0
LINE
  8
寸法
  6
CONTINUOUS
 10
21.225
 20
-36.668952
 11
21.225
 21
-4.043337
  0
POINT
  8
寸法
 10
21.225
 20
-4.043337
  0
TEXT
  7
TextStyle03
  8
寸法
  6
CONTINUOUS
 10
20.85
 20
-23.65625
  1
32.6
 40
3.0
 50
90.0
 72
     5
 11
20.85
 21
-17.09375
  0
ENDBLK
  0
BLOCK
  2
*GRP_0060
 70
    65
 10
0.0
 20
0.0
  0
LINE
  8
ゴム等
  6
DOT
 10
-71.209952
 20
-6.042432
 11
-71.209975
 21
-31.04243
  0
LINE
  8
ゴム等
  6
DOT
 10
-62.709955
 20
-6.042432
 11
-62.709977
 21
-31.04243
  0
LINE
  8
ゴム等
  6
DOT
 10
-71.209952
 20
-6.042432
 11
-62.709955
 21
-6.042432
  0
LINE
  8
ゴム等
  6
DOT
 10
-71.209975
 20
-31.04243
 11
-62.709977
 21
-31.04243
  0
ENDBLK
  0
BLOCK
  2
*GRP_0061
 70
    65
 10
0.0
 20
0.0
  0
LINE
  8
ゴム等
  6
DOT
 10
127.52929
 20
24.456677
 11
127.529268
 21
-0.54332
  0
LINE
  8
ゴム等
  6
DOT
 10
136.029287
 20
24.456677
 11
136.029265
 21
-0.54332
  0
LINE
  8
ゴム等
  6
DOT
 10
127.52929
 20
24.456677
 11
136.029287
 21
24.456677
  0
LINE
  8
ゴム等
  6
DOT
 10
127.529268
 20
-0.54332
 11
136.029265
 21
-0.54332
  0
ENDBLK
  0
ENDSEC
  0
SECTION
  2
ENTITIES
  0
POLYLINE
  8
通り芯
  6
CONTINUOUS
 66
     1
 70
     1
  0
VERTEX
  8
通り芯
 10
-210.0
 20
-148.5
  0
VERTEX
  8
通り芯
 10
210.0
 20
-148.5
  0
VERTEX
  8
通り芯
 10
210.0
 20
148.5
  0
VERTEX
  8
通り芯
 10
-210.0
 20
148.5
  0
SEQEND
  0
INSERT
  2
*GRP_0001
  8
型材断面
  6
CONTINUOUS
 10
0.0
 20
0.0
  0
LINE
  8
型材断面
  6
CONTINUOUS
 10
61.324907
 20
-89.03744
 11
61.324907
 21
-75.53744
  0
LINE
  8
型材断面
  6
CONTINUOUS
 10
49.324907
 20
-74.03744
 11
49.324907
 21
-61.641627
  0
LINE
  8
型材断面
  6
CONTINUOUS
 10
61.324907
 20
-89.03744
 11
62.824907
 21
-89.03744
  0
ARC
  8
型材断面
  6
CONTINUOUS
 10
124.529298
 20
-36.668952
 40
1.5
 50
-72.715162
 51
0.0
  0
ARC
  8
型材断面
  6
CONTINUOUS
 10
49.324916
 20
-61.641623
 40
1.5
 50
107.284838
 51
180.0
  0
ARC
  8
型材断面
  6
CONTINUOUS
 10
49.324916
 20
-74.037441
 40
1.5
 50
180.0
 51
270.0
  0
ARC
  8
型材断面
  6
CONTINUOUS
 10
61.324916
 20
-75.537441
 40
1.5
 50
0.0
 51
90.0
  0
LINE
  8
型材断面
  6
CONTINUOUS
 10
49.324907
 20
-74.03744
 11
62.824907
 21
-74.03744
  0
LINE
  8
型材断面
  6
CONTINUOUS
 10
62.824907
 20
-89.03744
 11
62.824907
 21
-74.03744
  0
LINE
  8
型材断面
  6
CONTINUOUS
 62
    47
 10
47.824907
 20
-75.53744
 11
47.824907
 21
-60.53744
  0
LINE
  8
型材断面
  6
CONTINUOUS
 62
    47
 10
124.52929
 20
-36.668952
 11
47.824907
 21
-60.53744
  0
LINE
  8
型材断面
  6
CONTINUOUS
 10
49.324907
 20
-61.641627
 11
126.02929
 21
-37.773132
  0
ARC
  8
型材断面
  6
CONTINUOUS
 10
124.529236
 20
14.956622
 40
1.499997
 50
0.000018
 51
90.000018
  0
LINE
  8
型材断面
  6
CONTINUOUS
 10
126.029275
 20
17.956638
 11
117.529277
 21
17.956638
  0
LINE
  8
型材断面
  6
CONTINUOUS
 10
77.529303
 20
19.456615
 11
77.529378
 21
-4.043285
  0
LINE
  8
型材断面
  6
CONTINUOUS
 10
76.029348
 20
-4.043337
 11
77.529378
 21
-4.043285
  0
ARC
  8
型材断面
  6
CONTINUOUS
 10
77.529321
 20
19.456603
 40
1.499997
 50
90.000018
 51
180.000018
  0
ARC
  8
型材断面
  6
CONTINUOUS
 10
126.029225
 20
20.956614
 40
1.499997
 50
270.000018
 51
360.000018
  0
LINE
  8
型材断面
  6
CONTINUOUS
 10
77.529303
 20
19.456615
 11
127.529275
 21
19.456638
  0
LINE
  8
型材断面
  6
CONTINUOUS
 10
76.029348
 20
-4.043337
 11
76.029348
 21
20.956638
  0
LINE
  8
型材断面
  6
CONTINUOUS
 10
151.029198
 20
34.456615
 11
151.029227
 21
35.956668
  0
LINE
  8
型材断面
  6
CONTINUOUS
 10
151.029198
 20
34.456615
 11
127.529253
 21
34.456638
  0
ARC
  8
型材断面
  6
CONTINUOUS
 10
127.529245
 20
34.456579
 40
1.499997
 50
90.000018
 51
180.000018
  0
LINE
  8
型材断面
  6
CONTINUOUS
 10
151.029227
 20
35.956668
 11
126.029253
 21
35.956615
  0
LINE
  8
型材断面
  6
CONTINUOUS
 10
126.029253
 20
35.956615
 11
126.029253
 21
20.956712
  0
LINE
  8
型材断面
  6
CONTINUOUS
 10
76.029348
 20
20.956638
 11
126.029253
 21
20.956712
  0
LINE
  8
型材断面
  6
CONTINUOUS
 10
127.529253
 20
34.456638
 11
127.529275
 21
19.456638
  0
ARC
  8
型材断面
  6
CONTINUOUS
 10
127.529267
 20
-0.543323
 40
1.5
 50
180.0
 51
270.0
  0
ARC
  8
型材断面
  6
CONTINUOUS
 10
126.029264
 20
-0.543319
 40
1.967438
 50
270.0
 51
310.32261
  0
ARC
  8
型材断面
  6
CONTINUOUS
 10
126.029264
 20
-0.543319
 40
2.477108
 50
270.0
 51
322.731932
  0
INSERT
  2
*GRP_0002
  8
型材断面
  6
CONTINUOUS
 10
0.0
 20
0.0
  0
LINE
  8
型材断面
  6
CONTINUOUS
 10
124.5292
 20
14.95669
 11
96.029253
 21
14.956645
  0
LINE
  8
型材断面
  6
CONTINUOUS
 10
126.029275
 20
16.45669
 11
96.029253
 21
16.456668
  0
LINE
  8
型材断面
  6
CONTINUOUS
 10
96.029253
 20
16.456668
 11
96.029253
 21
14.956645
  0
INSERT
  2
*GRP_0003
  8
型材断面
  6
DOT
 10
0.0
 20
0.0
  0
LINE
  8
型材断面
  6
DOT
 10
124.529268
 20
-0.54332
 11
127.529268
 21
-0.54332
  0
LINE
  8
型材断面
  6
DOT
 10
124.529268
 20
7.456682
 11
127.529268
 21
7.456682
  0
LINE
  8
型材断面
  6
DOT
 10
127.154268
 20
7.456682
 11
127.154268
 21
-0.54332
  0
LINE
  8
型材断面
  6
DOT
 10
126.779268
 20
7.456682
 11
126.779268
 21
-0.54332
  0
LINE
  8
型材断面
  6
DOT
 10
126.404268
 20
7.456682
 11
126.404268
 21
-0.54332
  0
LINE
  8
型材断面
  6
DOT
 10
124.904268
 20
7.456682
 11
124.904268
 21
-0.54332
  0
LINE
  8
型材断面
  6
DOT
 10
125.279268
 20
7.456682
 11
125.279268
 21
-0.54332
  0
LINE
  8
型材断面
  6
DOT
 10
125.654268
 20
7.456682
 11
125.654268
 21
-0.54332
  0
LINE
  8
型材断面
  6
CONTINUOUS
 10
124.52929
 20
-36.668952
 11
124.529215
 21
14.95669
  0
LINE
  8
型材断面
  6
CONTINUOUS
 10
126.029185
 20
-37.94912
 11
126.02926
 21
16.45669
  0
LINE
  8
型材断面
  6
CONTINUOUS
 10
-137.414357
 20
-89.03744
 11
-137.414357
 21
-75.53744
  0
LINE
  8
型材断面
  6
CONTINUOUS
 10
-149.414357
 20
-74.03744
 11
-149.414357
 21
-61.641627
  0
LINE
  8
型材断面
  6
CONTINUOUS
 10
-137.414357
 20
-89.03744
 11
-135.914357
 21
-89.03744
  0
ARC
  8
型材断面
  6
CONTINUOUS
 10
-74.209966
 20
-36.668957
 40
1.5
 50
-72.715162
 51
0.0
  0
ARC
  8
型材断面
  6
CONTINUOUS
 10
-149.414349
 20
-61.641629
 40
1.5
 50
107.284838
 51
180.0
  0
ARC
  8
型材断面
  6
CONTINUOUS
 10
-149.414349
 20
-74.037447
 40
1.5
 50
180.0
 51
270.0
  0
ARC
  8
型材断面
  6
CONTINUOUS
 10
-137.414349
 20
-75.537447
 40
1.5
 50
0.0
 51
90.0
  0
LINE
  8
型材断面
  6
CONTINUOUS
 10
-149.414357
 20
-74.03744
 11
-135.914357
 21
-74.03744
  0
LINE
  8
型材断面
  6
CONTINUOUS
 10
-135.914357
 20
-89.03744
 11
-135.914357
 21
-74.03744
  0
LINE
  8
型材断面
  6
CONTINUOUS
 62
    47
 10
-150.914357
 20
-75.53744
 11
-150.914357
 21
-60.53744
  0
LINE
  8
型材断面
  6
CONTINUOUS
 62
    47
 10
-74.209975
 20
-36.668952
 11
-150.914357
 21
-60.53744
  0
LINE
  8
型材断面
  6
CONTINUOUS
 10
-149.414357
 20
-61.641627
 11
-72.709975
 21
-37.773132
  0
ARC
  8
型材断面
  6
CONTINUOUS
 10
-74.210006
 20
-15.542518
 40
1.499997
 50
0.000018
 51
90.000018
  0
LINE
  8
型材断面
  6
CONTINUOUS
 10
-72.709968
 20
-12.542502
 11
-81.209965
 21
-12.542502
  0
LINE
  8
型材断面
  6
CONTINUOUS
 10
-121.20994
 20
-11.042525
 11
-121.209865
 21
-34.542425
  0
LINE
  8
型材断面
  6
CONTINUOUS
 10
-122.709895
 20
-34.542478
 11
-121.209865
 21
-34.542425
  0
ARC
  8
型材断面
  6
CONTINUOUS
 10
-121.209922
 20
-11.042537
 40
1.499997
 50
90.000018
 51
180.000018
  0
ARC
  8
型材断面
  6
CONTINUOUS
 10
-72.710017
 20
-9.542526
 40
1.499997
 50
270.000018
 51
360.000018
  0
LINE
  8
型材断面
  6
CONTINUOUS
 10
-121.20994
 20
-11.042525
 11
-71.209968
 21
-11.042502
  0
LINE
  8
型材断面
  6
CONTINUOUS
 10
-122.709895
 20
-34.542478
 11
-122.709895
 21
-9.542502
  0
LINE
  8
型材断面
  6
CONTINUOUS
 10
-47.710045
 20
3.957475
 11
-47.710015
 21
5.457527
  0
LINE
  8
型材断面
  6
CONTINUOUS
 10
-47.710045
 20
3.957475
 11
-71.20999
 21
3.957497
  0
ARC
  8
型材断面
  6
CONTINUOUS
 10
-71.209997
 20
3.957439
 40
1.499997
 50
90.000018
 51
180.000018
  0
LINE
  8
型材断面
  6
CONTINUOUS
 10
-47.710015
 20
5.457527
 11
-72.70999
 21
5.457475
  0
LINE
  8
型材断面
  6
CONTINUOUS
 10
-72.70999
 20
5.457475
 11
-72.70999
 21
-9.542428
  0
LINE
  8
型材断面
  6
CONTINUOUS
 10
-122.709895
 20
-9.542502
 11
-72.70999
 21
-9.542428
  0
LINE
  8
型材断面
  6
CONTINUOUS
 10
-71.20999
 20
3.957497
 11
-71.209968
 21
-11.042502
  0
ARC
  8
型材断面
  6
CONTINUOUS
 10
-71.209976
 20
-31.042463
 40
1.5
 50
180.0
 51
270.0
  0
ARC
  8
型材断面
  6
CONTINUOUS
 10
-72.709978
 20
-31.042459
 40
1.967438
 50
270.0
 51
310.32261
  0
ARC
  8
型材断面
  6
CONTINUOUS
 10
-72.709978
 20
-31.042459
 40
2.477108
 50
270.0
 51
322.731932
  0
LINE
  8
型材断面
  6
CONTINUOUS
 10
-72.71008
 20
-37.94912
 11
-72.71005
 21
-14.04245
  0
LINE
  8
型材断面
  6
CONTINUOUS
 10
-74.209975
 20
-36.668952
 11
-74.210005
 21
-15.54245
  0
LINE
  8
型材断面
  6
DOT
 10
-71.209975
 20
-31.04243
 11
-74.209975
 21
-31.04243
  0
LINE
  8
型材断面
  6
DOT
 10
-71.209975
 20
-23.042428
 11
-74.209975
 21
-23.042428
  0
LINE
  8
型材断面
  6
DOT
 10
-73.834975
 20
-23.042428
 11
-73.834975
 21
-31.04243
  0
LINE
  8
型材断面
  6
DOT
 10
-73.459975
 20
-23.042428
 11
-73.459975
 21
-31.04243
  0
LINE
  8
型材断面
  6
DOT
 10
-73.084975
 20
-23.042428
 11
-73.084975
 21
-31.04243
  0
LINE
  8
型材断面
  6
DOT
 10
-71.584975
 20
-23.042428
 11
-71.584975
 21
-31.04243
  0
LINE
  8
型材断面
  6
DOT
 10
-71.959975
 20
-23.042428
 11
-71.959975
 21
-31.04243
  0
LINE
  8
型材断面
  6
DOT
 10
-72.334975
 20
-23.042428
 11
-72.334975
 21
-31.04243
  0
INSERT
  2
*GRP_0020
  8
型材断面
  6
CONTINUOUS
 10
0.0
 20
0.0
  0
LINE
  8
型材断面
  6
CONTINUOUS
 10
-74.210042
 20
-15.54245
 11
-102.70999
 21
-15.542495
  0
LINE
  8
型材断面
  6
CONTINUOUS
 10
-72.709968
 20
-14.04245
 11
-102.70999
 21
-14.042472
  0
LINE
  8
型材断面
  6
CONTINUOUS
 10
-102.70999
 20
-14.042472
 11
-102.70999
 21
-15.542495
  0
INSERT
  2
*GRP_0021
  8
型材断面
  6
DOT
 10
0.0
 20
0.0
  0
LINE
  8
型材断面
  6
CONTINUOUS
 10
-72.70999
 20
72.825
 11
0.358768
 21
72.825
  0
POLYLINE
  8
型材断面
  6
CONTINUOUS
 66
     1
  0
VERTEX
  8
型材断面
 10
0.358768
 20
72.825
  0
VERTEX
  8
型材断面
 10
-6.204285
 20
74.614157
  0
VERTEX
  8
型材断面
 10
-6.204285
 20
72.825
  0
SEQEND
  0
POLYLINE
  8
型材断面
  6
CONTINUOUS
 66
     1
  0
VERTEX
  8
型材断面
 10
-2.31048
 20
72.825
  0
VERTEX
  8
型材断面
 10
-8.873532
 20
74.614157
  0
VERTEX
  8
型材断面
 10
-8.873532
 20
72.825
  0
SEQEND
  0
POLYLINE
  8
型材断面
  6
CONTINUOUS
 66
     1
  0
VERTEX
  8
型材断面
 10
192.4869
 20
72.825
  0
VERTEX
  8
型材断面
 10
185.923848
 20
74.614157
  0
VERTEX
  8
型材断面
 10
185.923848
 20
72.825
  0
SEQEND
  0
POLYLINE
  8
型材断面
  6
CONTINUOUS
 66
     1
  0
VERTEX
  8
型材断面
 10
189.817653
 20
72.825
  0
VERTEX
  8
型材断面
 10
183.2546
 20
74.614157
  0
VERTEX
  8
型材断面
 10
183.2546
 20
72.825
  0
SEQEND
  0
LINE
  8
型材断面
  6
CONTINUOUS
 10
126.029253
 20
72.825
 11
192.4869
 21
72.825
  0
POLYLINE
  8
型材断面
  6
CONTINUOUS
 66
     1
 70
     1
  0
VERTEX
  8
型材断面
 10
-62.354168
 20
-95.819445
  0
VERTEX
  8
型材断面
 10
-110.520832
 20
-95.819445
  0
VERTEX
  8
型材断面
 10
-110.520832
 20
-108.333332
  0
VERTEX
  8
型材断面
 10
-62.354168
 20
-108.333332
  0
SEQEND
  0
POLYLINE
  8
型材断面
  6
CONTINUOUS
 66
     1
 70
     1
  0
VERTEX
  8
型材断面
 10
116.6375
 20
-95.819445
  0
VERTEX
  8
型材断面
 10
68.470835
 20
-95.819445
  0
VERTEX
  8
型材断面
 10
68.470835
 20
-108.333332
  0
VERTEX
  8
型材断面
 10
116.6375
 20
-108.333332
  0
SEQEND
  0
LINE
  8
ガラス
  6
CONTINUOUS
 10
-62.709973
 20
-23.042502
 11
-62.70995
 21
-5.242497
  0
LINE
  8
ガラス
  6
CONTINUOUS
 10
-56.709965
 20
-16.242478
 11
-56.709958
 21
-10.2425
  0
LINE
  8
ガラス
  6
CONTINUOUS
 10
-62.709995
 20
-16.242478
 11
-56.709958
 21
-10.2425
  0
LINE
  8
ガラス
  6
CONTINUOUS
 10
-56.709965
 20
-16.242478
 11
-62.710025
 21
-10.2425
  0
LINE
  8
ガラス
  6
CONTINUOUS
 10
-12.70999
 20
-5.24247
 11
-62.70995
 21
-5.242497
  0
LINE
  8
ガラス
  6
CONTINUOUS
 10
-12.70999
 20
-5.742478
 11
-62.70995
 21
-5.742478
  0
LINE
  8
ガラス
  6
CONTINUOUS
 10
-12.70999
 20
-10.2425
 11
-62.709958
 21
-10.2425
  0
LINE
  8
ガラス
  6
CONTINUOUS
 10
-12.70999
 20
-9.7425
 11
-62.709955
 21
-9.742527
  0
LINE
  8
ガラス
  6
CONTINUOUS
 10
-12.70999
 20
-16.742475
 11
-62.709965
 21
-16.742502
  0
LINE
  8
ガラス
  6
CONTINUOUS
 10
-12.70999
 20
-16.242478
 11
-62.709965
 21
-16.242478
  0
LINE
  8
ガラス
  6
CONTINUOUS
 10
-12.70999
 20
-23.042475
 11
-62.709973
 21
-23.042502
  0
LINE
  8
ガラス
  6
CONTINUOUS
 10
-12.70999
 20
-22.542453
 11
-62.709973
 21
-22.542447
  0
LINE
  8
ガラス
  6
CONTINUOUS
 10
136.02927
 20
7.456638
 11
136.029292
 21
25.256643
  0
LINE
  8
ガラス
  6
CONTINUOUS
 10
142.029307
 20
14.256662
 11
142.029315
 21
20.25664
  0
LINE
  8
ガラス
  6
CONTINUOUS
 10
136.029277
 20
14.256662
 11
142.029315
 21
20.25664
  0
LINE
  8
ガラス
  6
CONTINUOUS
 10
142.029307
 20
14.256662
 11
136.029248
 21
20.25664
  0
LINE
  8
ガラス
  6
CONTINUOUS
 10
176.029253
 20
7.456658
 11
136.02927
 21
7.456638
  0
LINE
  8
ガラス
  6
CONTINUOUS
 10
176.029253
 20
7.956688
 11
136.02927
 21
7.956692
  0
LINE
  8
ガラス
  6
CONTINUOUS
 10
176.029253
 20
14.256662
 11
136.029277
 21
14.256662
  0
LINE
  8
ガラス
  6
CONTINUOUS
 10
176.029253
 20
13.756658
 11
136.029277
 21
13.756638
  0
LINE
  8
ガラス
  6
CONTINUOUS
 10
176.029253
 20
20.25664
 11
136.029285
 21
20.25664
  0
LINE
  8
ガラス
  6
CONTINUOUS
 10
176.029253
 20
20.756632
 11
136.029287
 21
20.756612
  0
LINE
  8
ガラス
  6
CONTINUOUS
 10
176.029253
 20
24.756662
 11
136.029292
 21
24.756662
  0
LINE
  8
ガラス
  6
CONTINUOUS
 10
176.029253
 20
25.256662
 11
136.029292
 21
25.256643
  0
LINE
  8
ゴム等
  6
CONTINUOUS
 62
   127
 10
97.529298
 20
19.456668
 11
124.529222
 21
19.456638
  0
ARC
  8
ゴム等
  6
CONTINUOUS
 62
   127
 10
124.529223
 20
17.95662
 40
1.499997
 50
0.000018
 51
90.000018
  0
LINE
  8
ゴム等
  6
CONTINUOUS
 62
   127
 10
97.529298
 20
19.456668
 11
124.529222
 21
19.456638
  0
ARC
  8
ゴム等
  6
CONTINUOUS
 62
   127
 10
97.529277
 20
17.956613
 40
1.499997
 50
90.000018
 51
180.000018
  0
LINE
  8
ゴム等
  6
CONTINUOUS
 62
   127
 10
96.029298
 20
17.956615
 11
96.029298
 21
17.956615
  0
ARC
  8
ゴム等
  6
CONTINUOUS
 62
   127
 10
97.529277
 20
17.956613
 40
1.499997
 50
180.000018
 51
270.000018
  0
LINE
  8
ゴム等
  6
CONTINUOUS
 62
   127
 10
97.529298
 20
16.456638
 11
117.026672
 21
16.456638
  0
LINE
  8
ゴム等
  6
CONTINUOUS
 62
   127
 10
126.029275
 20
12.956643
 11
126.029275
 21
12.956643
  0
LINE
  8
ゴム等
  6
CONTINUOUS
 10
151.8292
 20
5.956638
 11
150.3292
 21
5.956638
  0
LINE
  8
ゴム等
  6
CONTINUOUS
 10
150.3292
 20
0.456662
 11
150.3292
 21
5.956638
  0
LINE
  8
ゴム等
  6
CONTINUOUS
 10
141.829203
 20
-0.543312
 11
149.329203
 21
-0.543282
  0
LINE
  8
ゴム等
  6
CONTINUOUS
 10
150.3292
 20
0.456662
 11
149.329203
 21
-0.543282
  0
LINE
  8
ゴム等
  6
CONTINUOUS
 10
151.8292
 20
5.956638
 11
151.829253
 21
7.45669
  0
LINE
  8
ゴム等
  6
CONTINUOUS
 10
151.829253
 20
7.45669
 11
141.829203
 21
7.456638
  0
LINE
  8
ゴム等
  6
CONTINUOUS
 10
141.829203
 20
-0.543312
 11
141.829203
 21
7.456638
  0
LINE
  8
ゴム等
  6
CONTINUOUS
 10
150.84895
 20
7.456638
 11
151.8292
 21
6.476388
  0
LINE
  8
ゴム等
  6
CONTINUOUS
 10
149.434772
 20
7.456668
 11
150.934772
 21
5.95669
  0
LINE
  8
ゴム等
  6
CONTINUOUS
 10
148.020528
 20
7.456668
 11
150.329222
 21
5.147988
  0
LINE
  8
ゴム等
  6
CONTINUOUS
 10
146.60635
 20
7.456638
 11
150.329253
 21
3.733787
  0
LINE
  8
ゴム等
  6
CONTINUOUS
 10
145.192098
 20
7.456638
 11
150.3292
 21
2.319617
  0
LINE
  8
ゴム等
  6
CONTINUOUS
 10
143.777875
 20
7.456668
 11
150.329177
 21
0.905365
  0
LINE
  8
ゴム等
  6
CONTINUOUS
 10
142.363675
 20
7.456638
 11
149.846425
 21
-0.026083
  0
LINE
  8
ゴム等
  6
CONTINUOUS
 10
141.829248
 20
6.57694
 11
148.949425
 21
-0.543312
  0
LINE
  8
ゴム等
  6
CONTINUOUS
 10
141.829248
 20
5.162762
 11
147.535277
 21
-0.543282
  0
LINE
  8
ゴム等
  6
CONTINUOUS
 10
141.829225
 20
3.748517
 11
146.121047
 21
-0.543335
  0
LINE
  8
ゴム等
  6
CONTINUOUS
 10
141.829248
 20
2.334288
 11
144.706848
 21
-0.543358
  0
LINE
  8
ゴム等
  6
CONTINUOUS
 10
141.829248
 20
0.920088
 11
143.292625
 21
-0.543312
  0
LINE
  8
ゴム等
  6
CONTINUOUS
 62
   127
 10
126.02926
 20
6.907855
 11
126.02926
 21
6.907855
  0
LINE
  8
ゴム等
  6
CONTINUOUS
 62
   127
 10
-101.209945
 20
-11.042472
 11
-74.21002
 21
-11.042502
  0
ARC
  8
ゴム等
  6
CONTINUOUS
 62
   127
 10
-74.210019
 20
-12.542521
 40
1.499997
 50
0.000018
 51
90.000018
  0
LINE
  8
ゴム等
  6
CONTINUOUS
 62
   127
 10
-101.209945
 20
-11.042472
 11
-74.21002
 21
-11.042502
  0
ARC
  8
ゴム等
  6
CONTINUOUS
 62
   127
 10
-101.209966
 20
-12.542527
 40
1.499997
 50
90.000018
 51
180.000018
  0
LINE
  8
ゴム等
  6
CONTINUOUS
 62
   127
 10
-102.709945
 20
-12.542525
 11
-102.709945
 21
-12.542525
  0
ARC
  8
ゴム等
  6
CONTINUOUS
 62
   127
 10
-101.209966
 20
-12.542527
 40
1.499997
 50
180.000018
 51
270.000018
  0
LINE
  8
ゴム等
  6
CONTINUOUS
 62
   127
 10
-101.209945
 20
-14.042502
 11
-81.71257
 21
-14.042502
  0
LINE
  8
ゴム等
  6
CONTINUOUS
 62
   127
 10
-72.709968
 20
-17.542497
 11
-72.709968
 21
-17.542497
  0
LINE
  8
ゴム等
  6
CONTINUOUS
 10
-46.910042
 20
-24.542502
 11
-48.410042
 21
-24.542502
  0
LINE
  8
ゴム等
  6
CONTINUOUS
 10
-48.410042
 20
-30.042478
 11
-48.410042
 21
-24.542502
  0
LINE
  8
ゴム等
  6
CONTINUOUS
 10
-56.91004
 20
-31.042453
 11
-49.41004
 21
-31.042422
  0
LINE
  8
ゴム等
  6
CONTINUOUS
 10
-48.410042
 20
-30.042478
 11
-49.41004
 21
-31.042422
  0
LINE
  8
ゴム等
  6
CONTINUOUS
 10
-46.910042
 20
-24.542502
 11
-46.90999
 21
-23.04245
  0
LINE
  8
ゴム等
  6
CONTINUOUS
 10
-46.90999
 20
-23.04245
 11
-56.91004
 21
-23.042502
  0
LINE
  8
ゴム等
  6
CONTINUOUS
 10
-56.91004
 20
-31.042453
 11
-56.91004
 21
-23.042502
  0
LINE
  8
ゴム等
  6
CONTINUOUS
 10
-47.890293
 20
-23.042502
 11
-46.910042
 21
-24.022753
  0
LINE
  8
ゴム等
  6
CONTINUOUS
 10
-49.30447
 20
-23.042472
 11
-47.80447
 21
-24.54245
  0
LINE
  8
ゴム等
  6
CONTINUOUS
 10
-50.718715
 20
-23.042472
 11
-48.41002
 21
-25.351152
  0
LINE
  8
ゴム等
  6
CONTINUOUS
 10
-52.132892
 20
-23.042502
 11
-48.40999
 21
-26.765352
  0
LINE
  8
ゴム等
  6
CONTINUOUS
 10
-53.547145
 20
-23.042502
 11
-48.410042
 21
-28.179522
  0
LINE
  8
ゴム等
  6
CONTINUOUS
 10
-54.961367
 20
-23.042472
 11
-48.410065
 21
-29.593775
  0
LINE
  8
ゴム等
  6
CONTINUOUS
 10
-56.375568
 20
-23.042502
 11
-48.892818
 21
-30.525223
  0
LINE
  8
ゴム等
  6
CONTINUOUS
 10
-56.909995
 20
-23.9222
 11
-49.789818
 21
-31.042453
  0
LINE
  8
ゴム等
  6
CONTINUOUS
 10
-56.909995
 20
-25.336377
 11
-51.203965
 21
-31.042422
  0
LINE
  8
ゴム等
  6
CONTINUOUS
 10
-56.910017
 20
-26.750623
 11
-52.618195
 21
-31.042475
  0
LINE
  8
ゴム等
  6
CONTINUOUS
 10
-56.909995
 20
-28.164852
 11
-54.032395
 21
-31.042497
  0
LINE
  8
ゴム等
  6
CONTINUOUS
 10
-56.909995
 20
-29.579053
 11
-55.446617
 21
-31.042453
  0
INSERT
  2
*GRP_0060
  8
ゴム等
  6
DOT
 10
0.0
 20
0.0
  0
INSERT
  2
*GRP_0061
  8
ゴム等
  6
DOT
 10
0.0
 20
0.0
  0
INSERT
  2
*GRP_0004
  8
ボルト／ビス
  6
CONTINUOUS
 10
0.0
 20
0.0
  0
INSERT
  2
*GRP_0022
  8
ボルト／ビス
  6
CONTINUOUS
 10
0.0
 20
0.0
  0
TEXT
  7
TextStyle03
  8
文字
  6
CONTINUOUS
 10
45.65
 20
123.1
  1
シリーズ：ＳＴＦＦＫ
 40
5.0
 72
     5
 11
101.275
 21
123.1
  0
TEXT
  7
TextStyle03
  8
文字
  6
CONTINUOUS
 10
45.65
 20
117.475
  1
　　　　　（固定）　
 40
5.0
 72
     5
 11
101.275
 21
117.475
  0
TEXT
  7
TextStyle03
  8
文字
  6
CONTINUOUS
 10
45.65
 20
111.85
  1
図面名　：下枠断面詳細図
 40
5.0
 72
     5
 11
112.525
 21
111.85
  0
TEXT
  7
TextStyle03
  8
文字
  6
CONTINUOUS
 10
151.45
 20
73.0
  1
呼称寸法
 40
4.0
 72
     5
 11
168.95
 21
73.0
  0
TEXT
  7
TextStyle03
  8
文字
  6
CONTINUOUS
 10
-44.725
 20
73.0
  1
呼称寸法
 40
4.0
 72
     5
 11
-27.225
 21
73.0
  0
TEXT
  7
TextStyle03
  8
文字
  6
CONTINUOUS
 10
-105.2
 20
-104.075
  1
角型タイプ断面
 40
5.0
 72
     5
 11
-66.45
 21
-104.075
  0
TEXT
  7
TextStyle03
  8
文字
  6
CONTINUOUS
 10
73.775
 20
-104.075
  1
Ｌ型タイプ断面
 40
5.0
 72
     5
 11
112.525
 21
-104.075
  0
TEXT
  7
TextStyle03
  8
文字
  6
CONTINUOUS
 10
128.55
 20
-86.225
  1
St-2.3t
 40
4.0
 72
     5
 11
144.05
 21
-86.225
  0
TEXT
  7
TextStyle03
  8
文字
  6
CONTINUOUS
 10
159.675
 20
-17.025
  1
TKR-1204S
 40
4.0
 72
     5
 11
179.675
 21
-17.025
  0
TEXT
  7
TextStyle03
  8
文字
  6
CONTINUOUS
 10
145.55
 20
-30.275
  1
工場Ｗ．Ｄ＋
 40
4.0
 72
     5
 11
172.05
 21
-30.275
  0
TEXT
  7
TextStyle03
  8
文字
  6
CONTINUOUS
 10
145.55
 20
-34.775
  1
工場シーリング
 40
4.0
 72
     5
 11
176.55
 21
-34.775
  0
TEXT
  7
TextStyle03
  8
文字
  6
CONTINUOUS
 10
73.7
 20
-20.55
  1
φ8排水穴
 40
4.0
 72
     5
 11
93.45
 21
-20.55
  0
TEXT
  7
TextStyle03
  8
文字
  6
CONTINUOUS
 10
73.7
 20
-25.05
  1
裏バッフル付
 40
4.0
 72
     5
 11
100.2
 21
-25.05
  0
TEXT
  7
TextStyle03
  8
文字
  6
CONTINUOUS
 10
48.9
 20
41.15
  1
TKR-1702
 40
4.0
 72
     5
 11
66.65
 21
41.15
  0
TEXT
  7
TextStyle03
  8
文字
  6
CONTINUOUS
 10
-70.175
 20
-86.225
  1
St-2.3t
 40
4.0
 72
     5
 11
-54.675
 21
-86.225
  0
TEXT
  7
TextStyle03
  8
文字
  6
CONTINUOUS
 10
-39.05
 20
-47.3
  1
TKR-1204S
 40
4.0
 72
     5
 11
-19.05
 21
-47.3
  0
TEXT
  7
TextStyle03
  8
文字
  6
CONTINUOUS
 10
-53.175
 20
-60.55
  1
工場Ｗ．Ｄ＋
 40
4.0
 72
     5
 11
-26.675
 21
-60.55
  0
TEXT
  7
TextStyle03
  8
文字
  6
CONTINUOUS
 10
-53.175
 20
-65.05
  1
工場シーリング
 40
4.0
 72
     5
 11
-22.175
 21
-65.05
  0
TEXT
  7
TextStyle03
  8
文字
  6
CONTINUOUS
 10
-149.825
 20
10.875
  1
TKR-1702
 40
4.0
 72
     5
 11
-132.075
 21
10.875
  0
TEXT
  7
TextStyle03
  8
文字
  6
CONTINUOUS
 10
-144.65
 20
-42.8
  1
φ8排水穴
 40
4.0
 72
     5
 11
-124.9
 21
-42.8
  0
TEXT
  7
TextStyle03
  8
文字
  6
CONTINUOUS
 10
-144.65
 20
-47.3
  1
裏バッフル付
 40
4.0
 72
     5
 11
-118.15
 21
-47.3
  0
INSERT
  2
*DIM_0005
  8
寸法
  6
CONTINUOUS
 10
0.0
 20
0.0
  0
INSERT
  2
*DIM_0006
  8
寸法
  6
CONTINUOUS
 10
0.0
 20
0.0
  0
INSERT
  2
*DIM_0007
  8
寸法
  6
CONTINUOUS
 10
0.0
 20
0.0
  0
INSERT
  2
*DIM_0008
  8
寸法
  6
CONTINUOUS
 10
0.0
 20
0.0
  0
INSERT
  2
*DIM_0009
  8
寸法
  6
CONTINUOUS
 10
0.0
 20
0.0
  0
INSERT
  2
*DIM_0010
  8
寸法
  6
CONTINUOUS
 10
0.0
 20
0.0
  0
INSERT
  2
*DIM_0013
  8
寸法
  6
CONTINUOUS
 10
0.0
 20
0.0
  0
INSERT
  2
*DIM_0014
  8
寸法
  6
CONTINUOUS
 10
0.0
 20
0.0
  0
INSERT
  2
*DIM_0015
  8
寸法
  6
CONTINUOUS
 10
0.0
 20
0.0
  0
INSERT
  2
*DIM_0016
  8
寸法
  6
CONTINUOUS
 10
0.0
 20
0.0
  0
INSERT
  2
*DIM_0017
  8
寸法
  6
CONTINUOUS
 10
0.0
 20
0.0
  0
INSERT
  2
*DIM_0018
  8
寸法
  6
CONTINUOUS
 10
0.0
 20
0.0
  0
INSERT
  2
*DIM_0019
  8
寸法
  6
CONTINUOUS
 10
0.0
 20
0.0
  0
INSERT
  2
*DIM_0023
  8
寸法
  6
CONTINUOUS
 10
0.0
 20
0.0
  0
INSERT
  2
*DIM_0024
  8
寸法
  6
CONTINUOUS
 10
0.0
 20
0.0
  0
INSERT
  2
*DIM_0025
  8
寸法
  6
CONTINUOUS
 10
0.0
 20
0.0
  0
INSERT
  2
*DIM_0026
  8
寸法
  6
CONTINUOUS
 10
0.0
 20
0.0
  0
INSERT
  2
*DIM_0027
  8
寸法
  6
CONTINUOUS
 10
0.0
 20
0.0
  0
INSERT
  2
*DIM_0028
  8
寸法
  6
CONTINUOUS
 10
0.0
 20
0.0
  0
INSERT
  2
*DIM_0029
  8
寸法
  6
CONTINUOUS
 10
0.0
 20
0.0
  0
INSERT
  2
*DIM_0030
  8
寸法
  6
CONTINUOUS
 10
0.0
 20
0.0
  0
INSERT
  2
*DIM_0031
  8
寸法
  6
CONTINUOUS
 10
0.0
 20
0.0
  0
INSERT
  2
*DIM_0032
  8
寸法
  6
CONTINUOUS
 10
0.0
 20
0.0
  0
INSERT
  2
*DIM_0033
  8
寸法
  6
CONTINUOUS
 10
0.0
 20
0.0
  0
INSERT
  2
*DIM_0034
  8
寸法
  6
CONTINUOUS
 10
0.0
 20
0.0
  0
INSERT
  2
*DIM_0035
  8
寸法
  6
CONTINUOUS
 10
0.0
 20
0.0
  0
INSERT
  2
*DIM_0036
  8
寸法
  6
CONTINUOUS
 10
0.0
 20
0.0
  0
INSERT
  2
*DIM_0037
  8
寸法
  6
CONTINUOUS
 10
0.0
 20
0.0
  0
INSERT
  2
*DIM_0038
  8
寸法
  6
CONTINUOUS
 10
0.0
 20
0.0
  0
INSERT
  2
*DIM_0039
  8
寸法
  6
CONTINUOUS
 10
0.0
 20
0.0
  0
INSERT
  2
*DIM_0042
  8
寸法
  6
CONTINUOUS
 10
0.0
 20
0.0
  0
INSERT
  2
*DIM_0043
  8
寸法
  6
CONTINUOUS
 10
0.0
 20
0.0
  0
INSERT
  2
*DIM_0044
  8
寸法
  6
CONTINUOUS
 10
0.0
 20
0.0
  0
INSERT
  2
*DIM_0045
  8
寸法
  6
CONTINUOUS
 10
0.0
 20
0.0
  0
INSERT
  2
*DIM_0046
  8
寸法
  6
CONTINUOUS
 10
0.0
 20
0.0
  0
INSERT
  2
*DIM_0047
  8
寸法
  6
CONTINUOUS
 10
0.0
 20
0.0
  0
INSERT
  2
*DIM_0048
  8
寸法
  6
CONTINUOUS
 10
0.0
 20
0.0
  0
INSERT
  2
*GRP_0049
  8
寸法
  6
CONTINUOUS
 10
0.0
 20
0.0
  0
INSERT
  2
*GRP_0050
  8
寸法
  6
CONTINUOUS
 10
0.0
 20
0.0
  0
INSERT
  2
*GRP_0051
  8
寸法
  6
CONTINUOUS
 10
0.0
 20
0.0
  0
INSERT
  2
*GRP_0052
  8
寸法
  6
CONTINUOUS
 10
0.0
 20
0.0
  0
INSERT
  2
*GRP_0053
  8
寸法
  6
CONTINUOUS
 10
0.0
 20
0.0
  0
INSERT
  2
*GRP_0054
  8
寸法
  6
CONTINUOUS
 10
0.0
 20
0.0
  0
INSERT
  2
*GRP_0055
  8
寸法
  6
CONTINUOUS
 10
0.0
 20
0.0
  0
INSERT
  2
*GRP_0056
  8
寸法
  6
CONTINUOUS
 10
0.0
 20
0.0
  0
INSERT
  2
*GRP_0057
  8
寸法
  6
CONTINUOUS
 10
0.0
 20
0.0
  0
INSERT
  2
*GRP_0058
  8
寸法
  6
CONTINUOUS
 10
0.0
 20
0.0
  0
INSERT
  2
*DIM_0059
  8
寸法
  6
CONTINUOUS
 10
0.0
 20
0.0
  0
INSERT
  2
*HAT_0003
  8
ﾊｯﾁﾝｸﾞ
 10
0.0
 20
0.0
  0
INSERT
  2
*HAT_0004
  8
ﾊｯﾁﾝｸﾞ
 10
0.0
 20
0.0
  0
INSERT
  2
*GRP_0011
  8
鉄骨等
  6
CONTINUOUS
 10
0.0
 20
0.0
  0
INSERT
  2
*GRP_0040
  8
鉄骨等
  6
CONTINUOUS
 10
0.0
 20
0.0
  0
LINE
  8
St
  6
CONTINUOUS
 62
    47
 10
61.324907
 20
-75.53744
 11
47.824907
 21
-75.53744
  0
POLYLINE
  8
St
  6
CONTINUOUS
 66
     1
  0
VERTEX
  8
St
 10
49.324907
 20
-74.03744
  0
VERTEX
  8
St
 10
49.324907
 20
-61.64162
  0
VERTEX
  8
St
 10
126.02929
 20
-37.773132
  0
SEQEND
  0
LINE
  8
St
  6
CONTINUOUS
 10
126.02929
 20
-40.181915
 11
49.324907
 21
-64.050403
  0
ARC
  8
St
  6
CONTINUOUS
 10
62.824913
 20
-74.037435
 40
0.827642
 50
270.0
 51
360.0
  0
ARC
  8
St
  6
CONTINUOUS
 10
62.824913
 20
-74.037435
 40
1.5
 50
270.0
 51
360.0
  0
LINE
  8
St
  6
CONTINUOUS
 10
126.02929
 20
-37.773132
 11
126.02929
 21
-74.03744
  0
LINE
  8
St
  6
CONTINUOUS
 10
49.324907
 20
-74.03744
 11
126.02929
 21
-74.03744
  0
LINE
  8
St
  6
CONTINUOUS
 10
117.529225
 20
17.956638
 11
126.029222
 21
17.956638
  0
LINE
  8
St
  6
CONTINUOUS
 10
117.529225
 20
17.956638
 11
117.026672
 21
16.456638
  0
INSERT
  2
*GRP_0012
  8
St
 10
0.0
 20
0.0
  0
LINE
  8
St
  6
CONTINUOUS
 62
    47
 10
-137.414357
 20
-75.53744
 11
-150.914357
 21
-75.53744
  0
POLYLINE
  8
St
  6
CONTINUOUS
 66
     1
  0
VERTEX
  8
St
 10
-149.414357
 20
-74.03744
  0
VERTEX
  8
St
 10
-149.414357
 20
-61.64162
  0
VERTEX
  8
St
 10
-72.709975
 20
-37.773132
  0
SEQEND
  0
LINE
  8
St
  6
CONTINUOUS
 10
-72.709975
 20
-40.181915
 11
-149.414357
 21
-64.050403
  0
ARC
  8
St
  6
CONTINUOUS
 10
-135.914351
 20
-74.037441
 40
0.827642
 50
270.0
 51
360.0
  0
ARC
  8
St
  6
CONTINUOUS
 10
-135.914351
 20
-74.037441
 40
1.5
 50
270.0
 51
360.0
  0
LINE
  8
St
  6
CONTINUOUS
 10
-72.709975
 20
-37.773132
 11
-72.709975
 21
-74.03744
  0
LINE
  8
St
  6
CONTINUOUS
 10
-149.414357
 20
-74.03744
 11
-72.709975
 21
-74.03744
  0
LINE
  8
St
  6
CONTINUOUS
 10
-81.210017
 20
-12.542502
 11
-72.71002
 21
-12.542502
  0
LINE
  8
St
  6
CONTINUOUS
 10
-81.210017
 20
-12.542502
 11
-81.71257
 21
-14.042502
  0
INSERT
  2
*GRP_0041
  8
St
 10
0.0
 20
0.0
  0
LINE
  8
その他部品等
  6
CONTINUOUS
 10
151.029198
 20
34.456615
 11
151.029175
 21
25.256612
  0
LINE
  8
その他部品等
  6
CONTINUOUS
 10
126.029268
 20
-7.273992
 11
132.3715
 21
-2.043312
  0
INSERT
  2
*HAT_0005
  8
その他部品等
 10
0.0
 20
0.0
  0
LINE
  8
その他部品等
  6
CONTINUOUS
 10
-47.710045
 20
3.957475
 11
-47.710067
 21
-5.242527
  0
LINE
  8
その他部品等
  6
CONTINUOUS
 10
-72.709975
 20
-37.773132
 11
-66.367742
 21
-32.542453
  0
INSERT
  2
*HAT_0006
  8
その他部品等
 10
0.0
 20
0.0
  0
LINE
  8
その他部品等
  6
CONTINUOUS
 10
-57.710023
 20
3.957475
 11
-57.709947
 21
-5.242475
  0
LINE
  8
その他部品等
  6
CONTINUOUS
 10
-62.709973
 20
3.957452
 11
-62.70995
 21
-5.242497
  0
LINE
  8
その他部品等
  6
CONTINUOUS
 10
-62.70995
 20
-5.242497
 11
-57.710023
 21
3.957475
  0
LINE
  8
その他部品等
  6
CONTINUOUS
 10
141.02922
 20
34.456615
 11
141.029295
 21
25.256665
  0
LINE
  8
その他部品等
  6
CONTINUOUS
 10
136.02927
 20
34.456593
 11
136.029292
 21
25.256643
  0
LINE
  8
その他部品等
  6
CONTINUOUS
 10
136.029292
 20
25.256643
 11
141.02922
 21
34.456615
  0
LINE
  8
SUNPO
 62
     7
 10
-62.072023
 20
-16.4201
 11
-62.072023
 21
-16.4201
  0
LINE
  8
SUNPO
 62
     7
 10
-60.197
 20
-16.420078
 11
-60.197
 21
-16.420078
  0
LINE
  8
SUNPO
 62
     7
 10
136.66725
 20
14.07904
 11
136.66725
 21
14.07904
  0
LINE
  8
SUNPO
 62
     7
 10
138.542273
 20
14.079062
 11
138.542273
 21
14.079062
  0
ENDSEC
  0
EOF
