  0
SECTION
  2
HEADER
  9
$EXTMIN
 10
-210.0
 20
-148.5
  9
$EXTMAX
 10
210.0
 20
148.5
  9
$PDMODE
 70
    32
  9
$PDSIZE
 40
1.5
  9
$LTSCALE
 40
10.0
  0
ENDSEC
  0
SECTION
  2
TABLES
  0
TABLE
  2
LTYPE
 70
    15
  0
LTYPE
  2
CONTINUOUS
 70
    64
  3
実線
 72
    65
 73
     0
 40
0.0
  0
LTYPE
  2
DASHED
 70
    64
  3
破線A
 72
    65
 73
     2
 40
0.6
 49
0.4
 49
-0.2
  0
LTYPE
  2
DASHEDX2
 70
    64
  3
破線B
 72
    65
 73
     2
 40
1.3
 49
0.9
 49
-0.4
  0
LTYPE
  2
DASHDOT
 70
    64
  3
１点鎖線A
 72
    65
 73
     4
 40
0.5375
 49
0.375
 49
-0.05
 49
0.0625
 49
-0.05
  0
LTYPE
  2
DASHDOTX2
 70
    64
  3
１点鎖線B
 72
    65
 73
     4
 40
1.075
 49
0.75
 49
-0.1
 49
0.125
 49
-0.1
  0
LTYPE
  2
DIVIDE2
 70
    64
  3
２点鎖線A
 72
    65
 73
     6
 40
0.5125
 49
0.3
 49
-0.0375
 49
0.05
 49
-0.0375
 49
0.05
 49
-0.0375
  0
LTYPE
  2
DIVIDE
 70
    64
  3
２点鎖線B
 72
    65
 73
     6
 40
1.05
 49
0.55
 49
-0.1
 49
0.1
 49
-0.1
 49
0.1
 49
-0.1
  0
LTYPE
  2
DOT
 70
    64
  3
点線A
 72
    65
 73
     2
 40
0.1125
 49
0.0625
 49
-0.05
  0
LTYPE
  2
DOTX2
 70
    64
  3
点線B
 72
    65
 73
     2
 40
0.275
 49
0.15
 49
-0.125
  0
LTYPE
  2
CONTINUOUS
 70
    64
  3
実線
 72
    65
 73
     0
 40
0.0
  0
LTYPE
  2
CONTINUOUS
 70
    64
  3
実線
 72
    65
 73
     0
 40
0.0
  0
LTYPE
  2
CONTINUOUS
 70
    64
  3
実線
 72
    65
 73
     0
 40
0.0
  0
LTYPE
  2
CONTINUOUS
 70
    64
  3
実線
 72
    65
 73
     0
 40
0.0
  0
LTYPE
  2
CONTINUOUS
 70
    64
  3
実線
 72
    65
 73
     0
 40
0.0
  0
LTYPE
  2
CONTINUOUS
 70
    64
  3
実線
 72
    65
 73
     0
 40
0.0
  0
ENDTAB
  0
TABLE
  2
LAYER
 70
    34
  0
LAYER
  2
通り芯
 70
     0
 62
    15
  6
CONTINUOUS
  0
LAYER
  2
補助線
 70
     0
 62
    16
  6
DOT
  0
LAYER
  2
躯体
 70
     0
 62
    31
  6
CONTINUOUS
  0
LAYER
  2
型材
 70
     0
 62
    32
  6
CONTINUOUS
  0
LAYER
  2
型材断面
 70
     0
 62
    47
  6
CONTINUOUS
  0
LAYER
  2
ガラス
 70
     0
 62
    48
  6
CONTINUOUS
  0
LAYER
  2
ゴム等
 70
     0
 62
    63
  6
CONTINUOUS
  0
LAYER
  2
ボルト／ビス
 70
     0
 62
    64
  6
CONTINUOUS
  0
LAYER
  2
文字
 70
     0
 62
    79
  6
CONTINUOUS
  0
LAYER
  2
寸法
 70
     0
 62
    80
  6
CONTINUOUS
  0
LAYER
  2
ﾊｯﾁﾝｸﾞ
 70
     0
 62
    95
  6
CONTINUOUS
  0
LAYER
  2
別途部材
 70
     0
 62
    96
  6
CONTINUOUS
  0
LAYER
  2
曲げ物
 70
     0
 62
   111
  6
CONTINUOUS
  0
LAYER
  2
鉄骨等
 70
     0
 62
   112
  6
CONTINUOUS
  0
LAYER
  2
St
 70
     0
 62
   127
  6
CONTINUOUS
  0
LAYER
  2
その他部品等
 70
     0
 62
   128
  6
CONTINUOUS
  0
LAYER
  2
ｶﾞｽｹｯﾄ
 70
     0
 62
   143
  6
CONTINUOUS
  0
LAYER
  2
ｽｹｯﾁ
 70
     0
 62
    14
  6
CONTINUOUS
  0
LAYER
  2
0
 70
     0
 62
    17
  6
CONTINUOUS
  0
LAYER
  2
1
 70
     0
 62
    30
  6
CONTINUOUS
  0
LAYER
  2
4
 70
     0
 62
    33
  6
CONTINUOUS
  0
LAYER
  2
ﾚｲﾔ3
 70
     0
 62
    46
  6
CONTINUOUS
  0
LAYER
  2
外形線
 70
     0
 62
    49
  6
CONTINUOUS
  0
LAYER
  2
部品
 70
     0
 62
    14
  6
CONTINUOUS
  0
LAYER
  2
サッシ芯
 70
     0
 62
    17
  6
DASHDOTX2
  0
LAYER
  2
寸法線
 70
     0
 62
    62
  6
CONTINUOUS
  0
LAYER
  2
姿図外形線
 70
     0
 62
    65
  6
CONTINUOUS
  0
LAYER
  2
姿補助線
 70
     0
 62
    30
  6
CONTINUOUS
  0
LAYER
  2
透視線
 70
     0
 62
    78
  6
DOT
  0
LAYER
  2
用紙
 70
     0
 62
    81
  6
CONTINUOUS
  0
LAYER
  2
実線図枠
 70
     0
 62
    94
  6
CONTINUOUS
  0
LAYER
  2
補助図枠
 70
     0
 62
    97
  6
CONTINUOUS
  0
LAYER
  2
建具記号
 70
     0
 62
   110
  6
CONTINUOUS
  0
LAYER
  2
補助文字
 70
     0
 62
   113
  6
CONTINUOUS
  0
ENDTAB
  0
TABLE
  2
STYLE
 70
    10
  0
STYLE
  2
STANDARD
 70
     0
 40
1.0
 41
1.0
 42
1.0
 50
0.0
 71
     0
  3
TXT
  4
BIGFONT
  0
STYLE
  2
TATE
 70
     4
 40
1.0
 41
1.0
 42
1.0
 50
0.0
 71
     0
  3
TXT
  4
BIGFONT
  0
STYLE
  2
TextStyle03
 70
     0
 40
1.0
 41
1.0
 42
1.0
 50
0.0
 71
     0
  3
MONOTXT
  4
BIGFONT
  0
STYLE
  2
TextStyle04
 70
     0
 40
1.0
 41
1.0
 42
1.0
 50
0.0
 71
     0
  3
MONOTXT
  4
BIGFONT
  0
STYLE
  2
TextStyle05
 70
     0
 40
1.0
 41
1.0
 42
1.0
 50
0.0
 71
     0
  3
MONOTXT
  4
BIGFONT
  0
STYLE
  2
TextStyle06
 70
     0
 40
1.0
 41
1.0
 42
1.0
 50
0.0
 71
     0
  3
MONOTXT
  4
BIGFONT
  0
STYLE
  2
TextStyle07
 70
     0
 40
1.0
 41
1.0
 42
1.0
 50
0.0
 71
     0
  3
MONOTXT
  4
BIGFONT
  0
STYLE
  2
TextStyle08
 70
     0
 40
1.0
 41
1.0
 42
1.0
 50
0.0
 71
     0
  3
MONOTXT
  4
BIGFONT
  0
STYLE
  2
TextStyle09
 70
     0
 40
1.0
 41
1.0
 42
1.0
 50
0.0
 71
     0
  3
MONOTXT
  4
BIGFONT
  0
STYLE
  2
TextStyle10
 70
     0
 40
1.0
 41
1.0
 42
1.0
 50
0.0
 71
     0
  3
MONOTXT
  4
BIGFONT
  0
ENDTAB
  0
ENDSEC
  0
SECTION
  2
BLOCKS
  0
BLOCK
  2
*GRP_0001
 70
    65
 10
0.0
 20
0.0
  0
LINE
  8
型材断面
  6
CONTINUOUS
 10
195.0
 20
133.5
 11
195.0
 21
-133.5
  0
LINE
  8
型材断面
  6
CONTINUOUS
 10
195.0
 20
-133.5
 11
-185.0
 21
-133.5
  0
LINE
  8
型材断面
  6
CONTINUOUS
 10
-185.0
 20
-133.5
 11
-185.0
 21
133.5
  0
LINE
  8
型材断面
  6
CONTINUOUS
 10
195.0
 20
133.5
 11
-185.0
 21
133.5
  0
LINE
  8
型材断面
  6
CONTINUOUS
 10
145.0
 20
-133.5
 11
145.0
 21
-118.5
  0
LINE
  8
型材断面
  6
CONTINUOUS
 10
195.0
 20
-118.5
 11
145.0
 21
-118.5
  0
ENDBLK
  0
BLOCK
  2
*GRP_0002
 70
    65
 10
0.0
 20
0.0
  0
LINE
  8
ボルト／ビス
  6
CONTINUOUS
 10
-59.21867
 20
-81.294343
 11
-59.21867
 21
-81.227678
  0
LINE
  8
ボルト／ビス
  6
CONTINUOUS
 10
-59.21867
 20
-81.227678
 11
-58.485337
 21
-81.227678
  0
LINE
  8
ボルト／ビス
  6
CONTINUOUS
 10
-58.485337
 20
-81.227678
 11
-58.485337
 21
-81.294343
  0
LINE
  8
ボルト／ビス
  6
CONTINUOUS
 10
-59.21867
 20
-81.294343
 11
-58.485337
 21
-81.294343
  0
LINE
  8
ボルト／ビス
  6
CONTINUOUS
 10
-59.152002
 20
-81.194343
 11
-59.152002
 21
-81.227678
  0
LINE
  8
ボルト／ビス
  6
CONTINUOUS
 10
-59.152002
 20
-81.194343
 11
-58.552005
 21
-81.194343
  0
LINE
  8
ボルト／ビス
  6
CONTINUOUS
 10
-58.552005
 20
-81.194343
 11
-58.552005
 21
-81.227675
  0
LINE
  8
ボルト／ビス
  6
CONTINUOUS
 62
    64
 10
-59.01238
 20
-80.994343
 11
-59.044452
 21
-81.006017
  0
ARC
  8
ボルト／ビス
  6
CONTINUOUS
 62
    64
 10
-58.99634
 20
-81.099323
 40
0.104978
 50
62.721989
 51
90.000022
  0
ARC
  8
ボルト／ビス
  6
CONTINUOUS
 62
    64
 10
-58.852003
 20
-81.396746
 40
0.402401
 50
76.165024
 51
103.835007
  0
LINE
  8
ボルト／ビス
  6
CONTINUOUS
 62
    64
 10
-58.69163
 20
-80.994343
 11
-58.659552
 21
-81.006017
  0
ARC
  8
ボルト／ビス
  6
CONTINUOUS
 62
    64
 10
-58.707665
 20
-81.099323
 40
0.104978
 50
90.000022
 51
117.278055
  0
LINE
  8
ボルト／ビス
  6
CONTINUOUS
 62
    64
 10
-59.01238
 20
-80.994343
 11
-58.69163
 21
-80.994343
  0
LINE
  8
ボルト／ビス
  6
CONTINUOUS
 62
    64
 10
-58.659552
 20
-81.006017
 11
-58.659552
 21
-81.127675
  0
LINE
  8
ボルト／ビス
  6
CONTINUOUS
 62
    64
 10
-58.75578
 20
-81.006017
 11
-58.75578
 21
-81.127678
  0
LINE
  8
ボルト／ビス
  6
CONTINUOUS
 62
    64
 10
-59.044452
 20
-81.006017
 11
-59.044452
 21
-81.127675
  0
LINE
  8
ボルト／ビス
  6
CONTINUOUS
 62
    64
 10
-58.948228
 20
-81.006017
 11
-58.948228
 21
-81.127675
  0
LINE
  8
ボルト／ビス
  6
CONTINUOUS
 10
-59.044452
 20
-81.127675
 11
-58.659552
 21
-81.127675
  0
LINE
  8
ボルト／ビス
  6
CONTINUOUS
 10
-59.052002
 20
-81.127675
 11
-59.052002
 21
-81.194343
  0
LINE
  8
ボルト／ビス
  6
CONTINUOUS
 10
-59.052002
 20
-81.127675
 11
-58.652005
 21
-81.127675
  0
LINE
  8
ボルト／ビス
  6
CONTINUOUS
 10
-58.652005
 20
-81.127675
 11
-58.652005
 21
-81.194343
  0
LINE
  8
ボルト／ビス
  6
CONTINUOUS
 62
    64
 10
-58.752005
 20
-81.294343
 11
-58.752005
 21
-81.294343
  0
ENDBLK
  0
BLOCK
  2
*GRP_0003
 70
    65
 10
0.0
 20
0.0
  0
LINE
  8
ボルト／ビス
  6
CONTINUOUS
 10
9.514667
 20
-81.294343
 11
9.514667
 21
-81.227678
  0
LINE
  8
ボルト／ビス
  6
CONTINUOUS
 10
9.514667
 20
-81.227678
 11
8.781337
 21
-81.227678
  0
LINE
  8
ボルト／ビス
  6
CONTINUOUS
 10
8.781337
 20
-81.227678
 11
8.781337
 21
-81.294343
  0
LINE
  8
ボルト／ビス
  6
CONTINUOUS
 10
9.514667
 20
-81.294343
 11
8.781337
 21
-81.294343
  0
LINE
  8
ボルト／ビス
  6
CONTINUOUS
 10
9.448003
 20
-81.194343
 11
9.448003
 21
-81.227678
  0
LINE
  8
ボルト／ビス
  6
CONTINUOUS
 10
9.448003
 20
-81.194343
 11
8.848003
 21
-81.194343
  0
LINE
  8
ボルト／ビス
  6
CONTINUOUS
 10
8.848003
 20
-81.194343
 11
8.848003
 21
-81.227675
  0
LINE
  8
ボルト／ビス
  6
CONTINUOUS
 62
    64
 10
9.308377
 20
-80.994343
 11
9.340452
 21
-81.006017
  0
ARC
  8
ボルト／ビス
  6
CONTINUOUS
 62
    64
 10
9.292338
 20
-81.099323
 40
0.104978
 50
89.999978
 51
117.278011
  0
ARC
  8
ボルト／ビス
  6
CONTINUOUS
 62
    64
 10
9.148001
 20
-81.396746
 40
0.402401
 50
76.164993
 51
103.834976
  0
LINE
  8
ボルト／ビス
  6
CONTINUOUS
 62
    64
 10
8.987628
 20
-80.994343
 11
8.955552
 21
-81.006017
  0
ARC
  8
ボルト／ビス
  6
CONTINUOUS
 62
    64
 10
9.003664
 20
-81.099323
 40
0.104978
 50
62.721945
 51
89.999978
  0
LINE
  8
ボルト／ビス
  6
CONTINUOUS
 62
    64
 10
9.308377
 20
-80.994343
 11
8.987628
 21
-80.994343
  0
LINE
  8
ボルト／ビス
  6
CONTINUOUS
 62
    64
 10
8.955552
 20
-81.006017
 11
8.955552
 21
-81.127675
  0
LINE
  8
ボルト／ビス
  6
CONTINUOUS
 62
    64
 10
9.051778
 20
-81.006017
 11
9.051778
 21
-81.127678
  0
LINE
  8
ボルト／ビス
  6
CONTINUOUS
 62
    64
 10
9.340452
 20
-81.006017
 11
9.340452
 21
-81.127675
  0
LINE
  8
ボルト／ビス
  6
CONTINUOUS
 62
    64
 10
9.244227
 20
-81.006017
 11
9.244227
 21
-81.127675
  0
LINE
  8
ボルト／ビス
  6
CONTINUOUS
 10
9.340452
 20
-81.127675
 11
8.955552
 21
-81.127675
  0
LINE
  8
ボルト／ビス
  6
CONTINUOUS
 10
9.348003
 20
-81.127675
 11
9.348003
 21
-81.194343
  0
LINE
  8
ボルト／ビス
  6
CONTINUOUS
 10
9.348003
 20
-81.127675
 11
8.948003
 21
-81.127675
  0
LINE
  8
ボルト／ビス
  6
CONTINUOUS
 10
8.948003
 20
-81.127675
 11
8.948003
 21
-81.194343
  0
LINE
  8
ボルト／ビス
  6
CONTINUOUS
 62
    64
 10
9.048003
 20
-81.294343
 11
9.048003
 21
-81.294343
  0
ENDBLK
  0
BLOCK
  2
*GRP_0004
 70
    65
 10
0.0
 20
0.0
  0
LINE
  8
ボルト／ビス
  6
CONTINUOUS
 10
168.42343
 20
10.61442
 11
168.356765
 21
10.61442
  0
LINE
  8
ボルト／ビス
  6
CONTINUOUS
 10
168.356765
 20
10.61442
 11
168.356765
 21
11.34775
  0
LINE
  8
ボルト／ビス
  6
CONTINUOUS
 10
168.356765
 20
11.34775
 11
168.42343
 21
11.34775
  0
LINE
  8
ボルト／ビス
  6
CONTINUOUS
 10
168.42343
 20
10.61442
 11
168.42343
 21
11.34775
  0
LINE
  8
ボルト／ビス
  6
CONTINUOUS
 10
168.32343
 20
10.681085
 11
168.356765
 21
10.681085
  0
LINE
  8
ボルト／ビス
  6
CONTINUOUS
 10
168.32343
 20
10.681085
 11
168.32343
 21
11.281085
  0
LINE
  8
ボルト／ビス
  6
CONTINUOUS
 10
168.32343
 20
11.281085
 11
168.356762
 21
11.281085
  0
LINE
  8
ボルト／ビス
  6
CONTINUOUS
 62
    64
 10
168.12343
 20
10.82071
 11
168.135105
 21
10.788635
  0
ARC
  8
ボルト／ビス
  6
CONTINUOUS
 62
    64
 10
168.22841
 20
10.836748
 40
0.104978
 50
152.721989
 51
180.000022
  0
ARC
  8
ボルト／ビス
  6
CONTINUOUS
 62
    64
 10
168.525833
 20
10.981086
 40
0.402401
 50
166.165024
 51
193.835007
  0
LINE
  8
ボルト／ビス
  6
CONTINUOUS
 62
    64
 10
168.12343
 20
11.14146
 11
168.135105
 21
11.173535
  0
ARC
  8
ボルト／ビス
  6
CONTINUOUS
 62
    64
 10
168.22841
 20
11.125423
 40
0.104978
 50
180.000022
 51
207.278055
  0
LINE
  8
ボルト／ビス
  6
CONTINUOUS
 62
    64
 10
168.12343
 20
10.82071
 11
168.12343
 21
11.14146
  0
LINE
  8
ボルト／ビス
  6
CONTINUOUS
 62
    64
 10
168.135105
 20
11.173535
 11
168.256762
 21
11.173535
  0
LINE
  8
ボルト／ビス
  6
CONTINUOUS
 62
    64
 10
168.135105
 20
11.07731
 11
168.256765
 21
11.07731
  0
LINE
  8
ボルト／ビス
  6
CONTINUOUS
 62
    64
 10
168.135105
 20
10.788635
 11
168.256762
 21
10.788635
  0
LINE
  8
ボルト／ビス
  6
CONTINUOUS
 62
    64
 10
168.135105
 20
10.88486
 11
168.256762
 21
10.88486
  0
LINE
  8
ボルト／ビス
  6
CONTINUOUS
 10
168.256762
 20
10.788635
 11
168.256762
 21
11.173535
  0
LINE
  8
ボルト／ビス
  6
CONTINUOUS
 10
168.256762
 20
10.781085
 11
168.32343
 21
10.781085
  0
LINE
  8
ボルト／ビス
  6
CONTINUOUS
 10
168.256762
 20
10.781085
 11
168.256762
 21
11.181085
  0
LINE
  8
ボルト／ビス
  6
CONTINUOUS
 10
168.256762
 20
11.181085
 11
168.32343
 21
11.181085
  0
LINE
  8
ボルト／ビス
  6
CONTINUOUS
 62
    64
 10
168.42343
 20
11.081085
 11
168.42343
 21
11.081085
  0
ENDBLK
  0
BLOCK
  2
*GRP_0005
 70
    65
 10
0.0
 20
0.0
  0
LINE
  8
ボルト／ビス
  6
CONTINUOUS
 10
168.42343
 20
56.014425
 11
168.356765
 21
56.014425
  0
LINE
  8
ボルト／ビス
  6
CONTINUOUS
 10
168.356765
 20
56.014425
 11
168.356765
 21
55.281092
  0
LINE
  8
ボルト／ビス
  6
CONTINUOUS
 10
168.356765
 20
55.281092
 11
168.42343
 21
55.281092
  0
LINE
  8
ボルト／ビス
  6
CONTINUOUS
 10
168.42343
 20
56.014425
 11
168.42343
 21
55.281092
  0
LINE
  8
ボルト／ビス
  6
CONTINUOUS
 10
168.32343
 20
55.947758
 11
168.356765
 21
55.947758
  0
LINE
  8
ボルト／ビス
  6
CONTINUOUS
 10
168.32343
 20
55.947758
 11
168.32343
 21
55.34776
  0
LINE
  8
ボルト／ビス
  6
CONTINUOUS
 10
168.32343
 20
55.34776
 11
168.356762
 21
55.34776
  0
LINE
  8
ボルト／ビス
  6
CONTINUOUS
 62
    64
 10
168.12343
 20
55.808135
 11
168.135105
 21
55.840207
  0
ARC
  8
ボルト／ビス
  6
CONTINUOUS
 62
    64
 10
168.22841
 20
55.792094
 40
0.104978
 50
179.999978
 51
207.278011
  0
ARC
  8
ボルト／ビス
  6
CONTINUOUS
 62
    64
 10
168.525833
 20
55.647757
 40
0.402401
 50
166.164993
 51
193.834976
  0
LINE
  8
ボルト／ビス
  6
CONTINUOUS
 62
    64
 10
168.12343
 20
55.487385
 11
168.135105
 21
55.455307
  0
ARC
  8
ボルト／ビス
  6
CONTINUOUS
 62
    64
 10
168.22841
 20
55.50342
 40
0.104978
 50
152.721945
 51
179.999978
  0
LINE
  8
ボルト／ビス
  6
CONTINUOUS
 62
    64
 10
168.12343
 20
55.808135
 11
168.12343
 21
55.487385
  0
LINE
  8
ボルト／ビス
  6
CONTINUOUS
 62
    64
 10
168.135105
 20
55.455307
 11
168.256762
 21
55.455307
  0
LINE
  8
ボルト／ビス
  6
CONTINUOUS
 62
    64
 10
168.135105
 20
55.551535
 11
168.256765
 21
55.551535
  0
LINE
  8
ボルト／ビス
  6
CONTINUOUS
 62
    64
 10
168.135105
 20
55.840207
 11
168.256762
 21
55.840207
  0
LINE
  8
ボルト／ビス
  6
CONTINUOUS
 62
    64
 10
168.135105
 20
55.743982
 11
168.256762
 21
55.743982
  0
LINE
  8
ボルト／ビス
  6
CONTINUOUS
 10
168.256762
 20
55.840207
 11
168.256762
 21
55.455307
  0
LINE
  8
ボルト／ビス
  6
CONTINUOUS
 10
168.256762
 20
55.847758
 11
168.32343
 21
55.847758
  0
LINE
  8
ボルト／ビス
  6
CONTINUOUS
 10
168.256762
 20
55.847758
 11
168.256762
 21
55.44776
  0
LINE
  8
ボルト／ビス
  6
CONTINUOUS
 10
168.256762
 20
55.44776
 11
168.32343
 21
55.44776
  0
LINE
  8
ボルト／ビス
  6
CONTINUOUS
 62
    64
 10
168.42343
 20
55.54776
 11
168.42343
 21
55.54776
  0
ENDBLK
  0
BLOCK
  2
*DIM_0006
 70
    65
 10
0.0
 20
0.0
  0
LINE
  8
寸法
  6
CONTINUOUS
 10
-60.792148
 20
-79.010843
 11
-60.792148
 21
-63.926245
  0
LINE
  8
寸法
  6
CONTINUOUS
 10
-58.185335
 20
-63.926245
 11
-60.792148
 21
-63.926245
  0
POINT
  8
寸法
 10
-58.185335
 20
-63.926245
  0
POINT
  8
寸法
 10
-60.792148
 20
-63.926245
  0
TEXT
  7
TextStyle03
  8
寸法
  6
CONTINUOUS
 10
-69.55625
 20
-63.55
  1
78.2
 40
3.0
 72
     5
 11
-62.99375
 21
-63.55
  0
ENDBLK
  0
BLOCK
  2
*DIM_0007
 70
    65
 10
0.0
 20
0.0
  0
LINE
  8
寸法
  6
CONTINUOUS
 10
11.088148
 20
-79.010843
 11
11.088148
 21
-63.926245
  0
LINE
  8
寸法
  6
CONTINUOUS
 10
8.481332
 20
-63.926245
 11
11.088148
 21
-63.926245
  0
POINT
  8
寸法
 10
8.481332
 20
-63.926245
  0
POINT
  8
寸法
 10
11.088148
 20
-63.926245
  0
TEXT
  7
TextStyle03
  8
寸法
  6
CONTINUOUS
 10
13.21875
 20
-63.55
  1
78.2
 40
3.0
 72
     5
 11
19.78125
 21
-63.55
  0
ENDBLK
  0
BLOCK
  2
*DIM_0008
 70
    65
 10
0.0
 20
0.0
  0
LINE
  8
寸法
  6
CONTINUOUS
 10
16.088148
 20
-84.510843
 11
24.35247
 21
-84.510843
  0
LINE
  8
寸法
  6
CONTINUOUS
 10
13.481332
 20
-80.794345
 11
24.35247
 21
-80.794345
  0
LINE
  8
寸法
  6
CONTINUOUS
 10
24.35247
 20
-84.510843
 11
24.35247
 21
-80.794345
  0
POINT
  8
寸法
 10
24.35247
 20
-84.510843
  0
POINT
  8
寸法
 10
24.35247
 20
-80.794345
  0
TEXT
  7
TextStyle03
  8
寸法
  6
CONTINUOUS
 10
27.3
 20
-86.775
  1
111.5
 40
3.0
 50
90.0
 72
     5
 11
27.3
 21
-78.525
  0
ENDBLK
  0
BLOCK
  2
*DIM_0009
 70
    65
 10
0.0
 20
0.0
  0
LINE
  8
寸法
  6
CONTINUOUS
 10
8.481332
 20
-63.926245
 11
-58.185335
 21
-63.926245
  0
POINT
  8
寸法
 10
8.481332
 20
-63.926245
  0
POINT
  8
寸法
 10
-58.185335
 20
-63.926245
  0
TEXT
  7
TextStyle03
  8
寸法
  6
CONTINUOUS
 10
-36.61875
 20
-63.55
  1
呼称寸法　2000
 40
3.0
 72
     5
 11
-13.18125
 21
-63.55
  0
ENDBLK
  0
BLOCK
  2
*DIM_0010
 70
    65
 10
0.0
 20
0.0
  0
LINE
  8
寸法
  6
CONTINUOUS
 10
166.13993
 20
9.040942
 11
151.055333
 21
9.040942
  0
LINE
  8
寸法
  6
CONTINUOUS
 10
151.055333
 20
11.647755
 11
151.055333
 21
9.040942
  0
POINT
  8
寸法
 10
151.055333
 20
11.647755
  0
POINT
  8
寸法
 10
151.055333
 20
9.040942
  0
TEXT
  7
TextStyle03
  8
寸法
  6
CONTINUOUS
 10
150.65
 20
0.31875
  1
78.2
 40
3.0
 50
90.0
 72
     5
 11
150.65
 21
6.88125
  0
ENDBLK
  0
BLOCK
  2
*DIM_0011
 70
    65
 10
0.0
 20
0.0
  0
LINE
  8
寸法
  6
CONTINUOUS
 10
166.13993
 20
57.587905
 11
151.055333
 21
57.587905
  0
LINE
  8
寸法
  6
CONTINUOUS
 10
151.055333
 20
54.98109
 11
151.055333
 21
57.587905
  0
POINT
  8
寸法
 10
151.055333
 20
54.98109
  0
POINT
  8
寸法
 10
151.055333
 20
57.587905
  0
TEXT
  7
TextStyle03
  8
寸法
  6
CONTINUOUS
 10
150.65
 20
59.76875
  1
78.2
 40
3.0
 50
90.0
 72
     5
 11
150.65
 21
66.33125
  0
ENDBLK
  0
BLOCK
  2
*DIM_0012
 70
    65
 10
0.0
 20
0.0
  0
LINE
  8
寸法
  6
CONTINUOUS
 10
151.055333
 20
11.647755
 11
151.055333
 21
54.98109
  0
POINT
  8
寸法
 10
151.055333
 20
11.647755
  0
POINT
  8
寸法
 10
151.055333
 20
54.98109
  0
TEXT
  7
TextStyle03
  8
寸法
  6
CONTINUOUS
 10
150.65
 20
21.60625
  1
呼称寸法　1300
 40
3.0
 50
90.0
 72
     5
 11
150.65
 21
45.04375
  0
ENDBLK
  0
BLOCK
  2
*DIM_0013
 70
    65
 10
0.0
 20
0.0
  0
LINE
  8
寸法
  6
CONTINUOUS
 10
171.63993
 20
4.04094
 11
171.63993
 21
-4.223383
  0
LINE
  8
寸法
  6
CONTINUOUS
 10
167.923432
 20
6.647755
 11
167.923432
 21
-4.223383
  0
LINE
  8
寸法
  6
CONTINUOUS
 10
171.63993
 20
-4.223383
 11
167.923432
 21
-4.223383
  0
POINT
  8
寸法
 10
171.63993
 20
-4.223383
  0
POINT
  8
寸法
 10
167.923432
 20
-4.223383
  0
TEXT
  7
TextStyle03
  8
寸法
  6
CONTINUOUS
 10
165.625
 20
-7.225
  1
111.5
 40
3.0
 50
360.0
 72
     5
 11
173.875
 21
-7.225
  0
ENDBLK
  0
BLOCK
  2
*DIM_0014
 70
    65
 10
0.0
 20
0.0
  0
LINE
  8
寸法
  6
BYBLOCK
 62
     0
 10
-41.51867
 20
8.017627
 11
-41.51867
 21
2.959893
  0
LINE
  8
寸法
  6
BYBLOCK
 62
     0
 10
-8.185335
 20
8.017627
 11
-8.185335
 21
2.959893
  0
LINE
  8
寸法
  6
BYBLOCK
 62
     0
 10
-41.51867
 20
2.959893
 11
-8.185335
 21
2.959893
  0
POINT
  8
寸法
 62
     0
 10
-41.51867
 20
2.959893
  0
POINT
  8
寸法
 62
     0
 10
-8.185335
 20
2.959893
  0
TEXT
  7
TextStyle03
  8
寸法
  6
CONTINUOUS
 62
     0
 10
-28.13125
 20
3.325
  1
1000
 40
3.0
 72
     5
 11
-21.56875
 21
3.325
  0
ENDBLK
  0
BLOCK
  2
*DIM_0015
 70
    65
 10
0.0
 20
0.0
  0
LINE
  8
寸法
  6
BYBLOCK
 62
     0
 10
-61.185337
 20
21.647755
 11
-90.130502
 21
21.647755
  0
LINE
  8
寸法
  6
BYBLOCK
 62
     0
 10
-61.185337
 20
44.98109
 11
-90.130502
 21
44.98109
  0
LINE
  8
寸法
  6
BYBLOCK
 62
     0
 10
-90.130502
 20
21.647755
 11
-90.130502
 21
44.98109
  0
POINT
  8
寸法
 62
     0
 10
-90.130502
 20
21.647755
  0
POINT
  8
寸法
 62
     0
 10
-90.130502
 20
44.98109
  0
TEXT
  7
TextStyle03
  8
寸法
  6
CONTINUOUS
 62
     0
 10
-90.6
 20
30.8625
  1
700
 40
3.0
 50
90.0
 72
     5
 11
-90.6
 21
35.7375
  0
ENDBLK
  0
BLOCK
  2
*DIM_0016
 70
    65
 10
0.0
 20
0.0
  0
LINE
  8
寸法
  6
BYBLOCK
 62
     0
 10
-48.185335
 20
57.981087
 11
-48.185335
 21
86.908707
  0
LINE
  8
寸法
  6
BYBLOCK
 62
     0
 10
-24.852002
 20
57.981087
 11
-24.852002
 21
86.908707
  0
LINE
  8
寸法
  6
BYBLOCK
 62
     0
 10
-48.185335
 20
86.908707
 11
-24.852002
 21
86.908707
  0
POINT
  8
寸法
 62
     0
 10
-48.185335
 20
86.908707
  0
POINT
  8
寸法
 62
     0
 10
-24.852002
 20
86.908707
  0
TEXT
  7
TextStyle03
  8
寸法
  6
CONTINUOUS
 62
     0
 10
-38.9625
 20
87.3
  1
700
 40
3.0
 72
     5
 11
-34.0875
 21
87.3
  0
ENDBLK
  0
BLOCK
  2
*DIM_0017
 70
    65
 10
0.0
 20
0.0
  0
LINE
  8
寸法
  6
BYBLOCK
 62
     0
 10
-1.51867
 20
57.981087
 11
-1.51867
 21
86.908707
  0
LINE
  8
寸法
  6
BYBLOCK
 62
     0
 10
-24.852002
 20
86.908707
 11
-1.51867
 21
86.908707
  0
POINT
  8
寸法
 62
     0
 10
-1.51867
 20
86.908707
  0
TEXT
  7
TextStyle03
  8
寸法
  6
CONTINUOUS
 62
     0
 10
-15.6375
 20
87.3
  1
700
 40
3.0
 72
     5
 11
-10.7625
 21
87.3
  0
ENDBLK
  0
BLOCK
  2
*DIM_0018
 70
    65
 10
0.0
 20
0.0
  0
LINE
  8
寸法
  6
CONTINUOUS
 10
124.500538
 20
-37.915262
 11
124.500538
 21
-29.097347
  0
LINE
  8
寸法
  6
CONTINUOUS
 10
156.88387
 20
-37.915262
 11
156.88387
 21
-29.097347
  0
LINE
  8
寸法
  6
CONTINUOUS
 10
124.500538
 20
-29.097347
 11
156.88387
 21
-29.097347
  0
POINT
  8
寸法
 10
124.500538
 20
-29.097347
  0
POINT
  8
寸法
 10
156.88387
 20
-29.097347
  0
TEXT
  7
TextStyle03
  8
寸法
  6
CONTINUOUS
 10
136.55
 20
-28.725
  1
971.5
 40
3.0
 72
     5
 11
144.8
 21
-28.725
  0
ENDBLK
  0
BLOCK
  2
*DIM_0019
 70
    65
 10
0.0
 20
0.0
  0
LINE
  8
寸法
  6
CONTINUOUS
 10
161.88387
 20
-85.581927
 11
172.368625
 21
-85.581927
  0
LINE
  8
寸法
  6
CONTINUOUS
 10
161.88387
 20
-42.915262
 11
172.368625
 21
-42.915262
  0
LINE
  8
寸法
  6
CONTINUOUS
 10
172.368625
 20
-85.581927
 11
172.368625
 21
-42.915262
  0
POINT
  8
寸法
 10
172.368625
 20
-85.581927
  0
POINT
  8
寸法
 10
172.368625
 20
-42.915262
  0
TEXT
  7
TextStyle03
  8
寸法
  6
CONTINUOUS
 10
171.975
 20
-67.53125
  1
1280
 40
3.0
 50
90.0
 72
     5
 11
171.975
 21
-60.96875
  0
ENDBLK
  0
ENDSEC
  0
SECTION
  2
ENTITIES
  0
POLYLINE
  8
通り芯
  6
CONTINUOUS
 66
     1
 70
     1
  0
VERTEX
  8
通り芯
 10
-210.0
 20
-148.5
  0
VERTEX
  8
通り芯
 10
210.0
 20
-148.5
  0
VERTEX
  8
通り芯
 10
210.0
 20
148.5
  0
VERTEX
  8
通り芯
 10
-210.0
 20
148.5
  0
SEQEND
  0
INSERT
  2
*GRP_0001
  8
型材断面
  6
CONTINUOUS
 10
0.0
 20
0.0
  0
LINE
  8
型材断面
  6
CONTINUOUS
 10
-60.342148
 20
-84.960843
 11
-60.342148
 21
-84.510843
  0
LINE
  8
型材断面
  6
CONTINUOUS
 62
    47
 10
-60.792148
 20
-84.510843
 11
-60.792148
 21
-84.010843
  0
LINE
  8
型材断面
  6
CONTINUOUS
 62
    47
 10
-58.235335
 20
-83.215225
 11
-60.792148
 21
-84.010843
  0
LINE
  8
型材断面
  6
CONTINUOUS
 10
-60.342148
 20
-84.510843
 11
-60.792148
 21
-84.510843
  0
LINE
  8
型材断面
  6
CONTINUOUS
 10
-59.851998
 20
-82.127678
 11
-59.801998
 21
-82.127675
  0
LINE
  8
型材断面
  6
CONTINUOUS
 10
-59.851998
 20
-82.127678
 11
-59.851998
 21
-81.294343
  0
LINE
  8
型材断面
  6
CONTINUOUS
 10
-58.185335
 20
-80.794345
 11
-58.185335
 21
-81.294343
  0
LINE
  8
型材断面
  6
CONTINUOUS
 10
-59.851998
 20
-81.294343
 11
-58.185335
 21
-81.294343
  0
INSERT
  2
*GRP_0002
  8
型材断面
  6
CONTINUOUS
 10
0.0
 20
0.0
  0
LINE
  8
型材断面
  6
CONTINUOUS
 10
-58.235335
 20
-82.127675
 11
-58.235335
 21
-83.215225
  0
LINE
  8
型材断面
  6
CONTINUOUS
 10
10.638148
 20
-84.960843
 11
10.638148
 21
-84.510843
  0
LINE
  8
型材断面
  6
CONTINUOUS
 62
    47
 10
11.088148
 20
-84.510843
 11
11.088148
 21
-84.010843
  0
LINE
  8
型材断面
  6
CONTINUOUS
 62
    47
 10
8.531332
 20
-83.215225
 11
11.088148
 21
-84.010843
  0
LINE
  8
型材断面
  6
CONTINUOUS
 10
10.638148
 20
-84.510843
 11
11.088148
 21
-84.510843
  0
LINE
  8
型材断面
  6
CONTINUOUS
 10
-60.792148
 20
-84.510843
 11
11.088148
 21
-84.510843
  0
LINE
  8
型材断面
  6
CONTINUOUS
 10
-60.792148
 20
-84.010843
 11
11.088148
 21
-84.010843
  0
LINE
  8
型材断面
  6
CONTINUOUS
 10
8.531332
 20
-83.215225
 11
-58.235335
 21
-83.215225
  0
LINE
  8
型材断面
  6
CONTINUOUS
 10
10.638148
 20
-84.960843
 11
-60.342148
 21
-84.960843
  0
LINE
  8
型材断面
  6
CONTINUOUS
 10
10.147998
 20
-82.127678
 11
10.097998
 21
-82.127675
  0
LINE
  8
型材断面
  6
CONTINUOUS
 10
10.147998
 20
-82.127678
 11
10.147998
 21
-81.294343
  0
LINE
  8
型材断面
  6
CONTINUOUS
 10
8.481332
 20
-80.794345
 11
8.481332
 21
-81.294343
  0
LINE
  8
型材断面
  6
CONTINUOUS
 10
10.147998
 20
-81.294343
 11
8.481332
 21
-81.294343
  0
INSERT
  2
*GRP_0003
  8
型材断面
  6
CONTINUOUS
 10
0.0
 20
0.0
  0
LINE
  8
型材断面
  6
CONTINUOUS
 10
8.481332
 20
-80.794343
 11
-58.185335
 21
-80.794343
  0
LINE
  8
型材断面
  6
CONTINUOUS
 10
10.147998
 20
-82.127675
 11
-59.851998
 21
-82.127675
  0
LINE
  8
型材断面
  6
CONTINUOUS
 10
10.147998
 20
-81.294343
 11
-59.851998
 21
-81.294343
  0
LINE
  8
型材断面
  6
CONTINUOUS
 10
8.531332
 20
-82.127675
 11
8.531332
 21
-83.215225
  0
LINE
  8
型材断面
  6
DASHDOT
 10
173.704413
 20
33.314422
 11
-58.185335
 21
33.314422
  0
LINE
  8
型材断面
  6
CONTINUOUS
 10
7.648
 20
32.897755
 11
8.481332
 21
32.897755
  0
LINE
  8
型材断面
  6
CONTINUOUS
 10
7.648
 20
33.731087
 11
8.481332
 21
33.731087
  0
LINE
  8
型材断面
  6
CONTINUOUS
 10
-57.352002
 20
32.897755
 11
-58.185335
 21
32.897755
  0
LINE
  8
型材断面
  6
CONTINUOUS
 10
-57.352002
 20
33.731087
 11
-58.185335
 21
33.731087
  0
LINE
  8
型材断面
  6
DASHDOT
 10
-58.185335
 20
-86.575325
 11
-58.185335
 21
11.647755
  0
LINE
  8
型材断面
  6
CONTINUOUS
 10
172.08993
 20
9.49094
 11
171.63993
 21
9.49094
  0
LINE
  8
型材断面
  6
CONTINUOUS
 62
    47
 10
171.63993
 20
9.04094
 11
171.13993
 21
9.04094
  0
LINE
  8
型材断面
  6
CONTINUOUS
 62
    47
 10
170.344312
 20
11.597755
 11
171.13993
 21
9.04094
  0
LINE
  8
型材断面
  6
CONTINUOUS
 10
171.63993
 20
9.49094
 11
171.63993
 21
9.04094
  0
LINE
  8
型材断面
  6
CONTINUOUS
 10
169.256765
 20
9.98109
 11
169.256762
 21
10.03109
  0
LINE
  8
型材断面
  6
CONTINUOUS
 10
169.256765
 20
9.98109
 11
168.42343
 21
9.98109
  0
LINE
  8
型材断面
  6
CONTINUOUS
 10
167.923432
 20
11.647755
 11
168.42343
 21
11.647755
  0
LINE
  8
型材断面
  6
CONTINUOUS
 10
168.42343
 20
9.98109
 11
168.42343
 21
11.647755
  0
INSERT
  2
*GRP_0004
  8
型材断面
  6
CONTINUOUS
 10
0.0
 20
0.0
  0
LINE
  8
型材断面
  6
CONTINUOUS
 10
169.256762
 20
11.597755
 11
170.344312
 21
11.597755
  0
LINE
  8
型材断面
  6
CONTINUOUS
 10
10.147998
 20
9.98109
 11
-59.851998
 21
9.98109
  0
LINE
  8
型材断面
  6
CONTINUOUS
 10
11.088148
 20
9.04094
 11
-60.792148
 21
9.04094
  0
LINE
  8
型材断面
  6
DASHDOT
 10
8.481332
 20
-86.575325
 11
8.481332
 21
11.647755
  0
LINE
  8
型材断面
  6
DASHDOT
 10
173.704413
 20
11.647755
 11
8.481332
 21
11.647755
  0
LINE
  8
型材断面
  6
CONTINUOUS
 10
8.481332
 20
11.647755
 11
-58.185335
 21
11.647755
  0
LINE
  8
型材断面
  6
CONTINUOUS
 10
8.481332
 20
11.647755
 11
8.481332
 21
33.314422
  0
LINE
  8
型材断面
  6
CONTINUOUS
 10
7.648
 20
32.897755
 11
7.648
 21
12.481087
  0
LINE
  8
型材断面
  6
CONTINUOUS
 10
11.088148
 20
9.04094
 11
7.648
 21
12.481087
  0
LINE
  8
型材断面
  6
CONTINUOUS
 10
-58.185335
 20
11.647755
 11
-58.185335
 21
33.314422
  0
LINE
  8
型材断面
  6
CONTINUOUS
 10
-57.352002
 20
32.897755
 11
-57.352002
 21
12.481087
  0
LINE
  8
型材断面
  6
CONTINUOUS
 10
-60.792148
 20
9.04094
 11
-57.352002
 21
12.481087
  0
LINE
  8
型材断面
  6
CONTINUOUS
 10
172.08993
 20
57.137903
 11
171.63993
 21
57.137903
  0
LINE
  8
型材断面
  6
CONTINUOUS
 62
    47
 10
171.63993
 20
57.587903
 11
171.13993
 21
57.587903
  0
LINE
  8
型材断面
  6
CONTINUOUS
 62
    47
 10
170.344312
 20
55.03109
 11
171.13993
 21
57.587903
  0
LINE
  8
型材断面
  6
CONTINUOUS
 10
171.63993
 20
57.137903
 11
171.63993
 21
57.587903
  0
LINE
  8
型材断面
  6
CONTINUOUS
 10
169.256765
 20
56.647753
 11
169.256762
 21
56.597753
  0
LINE
  8
型材断面
  6
CONTINUOUS
 10
169.256765
 20
56.647753
 11
168.42343
 21
56.647753
  0
LINE
  8
型材断面
  6
CONTINUOUS
 10
167.923432
 20
54.98109
 11
168.42343
 21
54.98109
  0
LINE
  8
型材断面
  6
CONTINUOUS
 10
168.42343
 20
56.647753
 11
168.42343
 21
54.98109
  0
INSERT
  2
*GRP_0005
  8
型材断面
  6
CONTINUOUS
 10
0.0
 20
0.0
  0
LINE
  8
型材断面
  6
CONTINUOUS
 10
169.256762
 20
55.03109
 11
170.344312
 21
55.03109
  0
LINE
  8
型材断面
  6
CONTINUOUS
 10
10.147998
 20
56.647753
 11
-59.851998
 21
56.647753
  0
LINE
  8
型材断面
  6
CONTINUOUS
 10
11.088148
 20
57.587903
 11
-60.792148
 21
57.587903
  0
LINE
  8
型材断面
  6
DASHDOT
 10
-24.852002
 20
-86.575325
 11
-24.852002
 21
54.98109
  0
LINE
  8
型材断面
  6
DASHDOT
 10
173.704413
 20
54.98109
 11
8.481332
 21
54.98109
  0
LINE
  8
型材断面
  6
CONTINUOUS
 10
8.481332
 20
54.98109
 11
-58.185335
 21
54.98109
  0
LINE
  8
型材断面
  6
CONTINUOUS
 10
8.481332
 20
54.98109
 11
8.481332
 21
33.314422
  0
LINE
  8
型材断面
  6
CONTINUOUS
 10
11.088148
 20
57.587903
 11
7.648
 21
54.147758
  0
LINE
  8
型材断面
  6
CONTINUOUS
 10
7.648
 20
33.731087
 11
7.648
 21
54.147758
  0
LINE
  8
型材断面
  6
CONTINUOUS
 10
-58.185335
 20
54.98109
 11
-58.185335
 21
33.314422
  0
LINE
  8
型材断面
  6
CONTINUOUS
 10
-57.352002
 20
33.731087
 11
-57.352002
 21
54.147758
  0
LINE
  8
型材断面
  6
CONTINUOUS
 10
-60.792148
 20
57.587903
 11
-57.352002
 21
54.147758
  0
LINE
  8
型材断面
  6
CONTINUOUS
 10
-59.851998
 20
56.647753
 11
-59.851998
 21
9.98109
  0
LINE
  8
型材断面
  6
CONTINUOUS
 10
-60.792148
 20
57.587903
 11
-60.792148
 21
9.04094
  0
LINE
  8
型材断面
  6
CONTINUOUS
 10
171.63993
 20
57.587903
 11
171.63993
 21
9.04094
  0
LINE
  8
型材断面
  6
CONTINUOUS
 10
171.13993
 20
57.587903
 11
171.13993
 21
9.04094
  0
LINE
  8
型材断面
  6
CONTINUOUS
 10
170.344312
 20
11.597755
 11
170.344312
 21
55.03109
  0
LINE
  8
型材断面
  6
CONTINUOUS
 10
172.08993
 20
9.49094
 11
172.08993
 21
57.137903
  0
LINE
  8
型材断面
  6
CONTINUOUS
 10
167.92343
 20
11.647755
 11
167.92343
 21
54.98109
  0
LINE
  8
型材断面
  6
CONTINUOUS
 10
169.256762
 20
9.98109
 11
169.256762
 21
56.647753
  0
LINE
  8
型材断面
  6
CONTINUOUS
 10
168.42343
 20
9.98109
 11
168.42343
 21
56.647753
  0
LINE
  8
型材断面
  6
CONTINUOUS
 10
11.088148
 20
9.04094
 11
11.088148
 21
57.587903
  0
LINE
  8
型材断面
  6
CONTINUOUS
 10
10.147998
 20
9.98109
 11
10.147998
 21
56.647753
  0
LINE
  8
型材断面
  6
CONTINUOUS
 10
-60.815467
 20
33.314422
 11
-63.405975
 21
34.810052
  0
LINE
  8
型材断面
  6
CONTINUOUS
 10
-60.815467
 20
33.314422
 11
-63.405975
 21
31.818793
  0
LINE
  8
型材断面
  6
CONTINUOUS
 10
-63.405975
 20
31.818793
 11
-63.405975
 21
34.810052
  0
LINE
  8
型材断面
  6
CONTINUOUS
 10
-41.51867
 20
57.611218
 11
-43.0143
 21
60.201725
  0
LINE
  8
型材断面
  6
CONTINUOUS
 10
-41.51867
 20
57.611218
 11
-40.02304
 21
60.201725
  0
LINE
  8
型材断面
  6
CONTINUOUS
 10
-40.02304
 20
60.201725
 11
-43.0143
 21
60.201725
  0
LINE
  8
型材断面
  6
CONTINUOUS
 10
-99.037545
 20
99.488435
 11
-100.533175
 21
96.897927
  0
LINE
  8
型材断面
  6
CONTINUOUS
 10
-99.037545
 20
99.488435
 11
-97.541915
 21
96.897927
  0
LINE
  8
型材断面
  6
CONTINUOUS
 10
-97.541915
 20
96.897927
 11
-100.533175
 21
96.897927
  0
LINE
  8
型材断面
  6
CONTINUOUS
 10
-105.060132
 20
95.959332
 11
-58.818355
 21
95.959332
  0
LINE
  8
型材断面
  6
CONTINUOUS
 10
-41.51867
 20
9.017627
 11
-43.0143
 21
6.42712
  0
LINE
  8
型材断面
  6
CONTINUOUS
 10
-41.51867
 20
9.017627
 11
-40.02304
 21
6.42712
  0
LINE
  8
型材断面
  6
CONTINUOUS
 10
-40.02304
 20
6.42712
 11
-43.0143
 21
6.42712
  0
LINE
  8
型材断面
  6
CONTINUOUS
 10
11.111463
 20
33.314422
 11
13.70197
 21
34.810052
  0
LINE
  8
型材断面
  6
CONTINUOUS
 10
11.111463
 20
33.314422
 11
13.70197
 21
31.818793
  0
LINE
  8
型材断面
  6
CONTINUOUS
 10
13.70197
 20
31.818793
 11
13.70197
 21
34.810052
  0
LINE
  8
型材断面
  6
CONTINUOUS
 10
-8.185335
 20
57.611218
 11
-6.689705
 21
60.201725
  0
LINE
  8
型材断面
  6
CONTINUOUS
 10
-8.185335
 20
57.611218
 11
-9.680965
 21
60.201725
  0
LINE
  8
型材断面
  6
CONTINUOUS
 10
-9.680965
 20
60.201725
 11
-6.689705
 21
60.201725
  0
LINE
  8
型材断面
  6
CONTINUOUS
 10
-8.185335
 20
9.017627
 11
-6.689705
 21
6.42712
  0
LINE
  8
型材断面
  6
CONTINUOUS
 10
-8.185335
 20
9.017627
 11
-9.680965
 21
6.42712
  0
LINE
  8
型材断面
  6
CONTINUOUS
 10
-9.680965
 20
6.42712
 11
-6.689705
 21
6.42712
  0
LINE
  8
型材断面
  6
CONTINUOUS
 10
-105.060132
 20
90.662315
 11
-58.818355
 21
90.662315
  0
LINE
  8
型材断面
  6
CONTINUOUS
 10
-41.102002
 20
12.481087
 11
-41.102002
 21
11.647755
  0
LINE
  8
型材断面
  6
CONTINUOUS
 10
-41.935337
 20
12.481087
 11
-41.935337
 21
11.647755
  0
LINE
  8
型材断面
  6
CONTINUOUS
 10
-23.768703
 20
13.31442
 11
-25.935335
 21
13.31442
  0
LINE
  8
型材断面
  6
CONTINUOUS
 10
-41.935337
 20
12.481087
 11
-57.352002
 21
12.481087
  0
LINE
  8
型材断面
  6
CONTINUOUS
 10
-8.602002
 20
12.481087
 11
-8.602002
 21
11.647755
  0
LINE
  8
型材断面
  6
CONTINUOUS
 10
-7.768667
 20
12.481087
 11
-7.768667
 21
11.647755
  0
LINE
  8
型材断面
  6
CONTINUOUS
 10
-7.768667
 20
12.481087
 11
7.647998
 21
12.481087
  0
LINE
  8
型材断面
  6
CONTINUOUS
 10
-41.102002
 20
12.481087
 11
-8.602002
 21
12.481087
  0
LINE
  8
型材断面
  6
CONTINUOUS
 10
-23.768703
 20
53.314425
 11
-25.935335
 21
53.314425
  0
LINE
  8
型材断面
  6
CONTINUOUS
 10
-23.768703
 20
13.31442
 11
-23.768703
 21
53.314425
  0
LINE
  8
型材断面
  6
CONTINUOUS
 10
-24.602035
 20
13.31442
 11
-24.602035
 21
53.314425
  0
LINE
  8
型材断面
  6
CONTINUOUS
 10
-25.102002
 20
13.31442
 11
-25.102002
 21
53.314425
  0
LINE
  8
型材断面
  6
CONTINUOUS
 10
-25.935335
 20
13.304725
 11
-25.935335
 21
53.314425
  0
LINE
  8
型材断面
  6
CONTINUOUS
 10
-41.102002
 20
54.147758
 11
-41.102002
 21
54.98109
  0
LINE
  8
型材断面
  6
CONTINUOUS
 10
-41.935337
 20
54.147758
 11
-41.935337
 21
54.98109
  0
LINE
  8
型材断面
  6
CONTINUOUS
 10
-41.935337
 20
54.147758
 11
-57.352002
 21
54.147758
  0
LINE
  8
型材断面
  6
CONTINUOUS
 10
-8.602002
 20
54.147758
 11
-8.602002
 21
54.98109
  0
LINE
  8
型材断面
  6
CONTINUOUS
 10
-7.768667
 20
54.147758
 11
-7.768667
 21
54.98109
  0
LINE
  8
型材断面
  6
CONTINUOUS
 10
-7.768667
 20
54.147758
 11
7.647998
 21
54.147758
  0
LINE
  8
型材断面
  6
CONTINUOUS
 10
-41.102002
 20
54.147758
 11
-8.602002
 21
54.147758
  0
LINE
  8
型材断面
  6
CONTINUOUS
 10
121.441122
 20
-22.62663
 11
142.578698
 21
-22.62663
  0
POLYLINE
  8
ガラス
  6
CONTINUOUS
 66
     1
 70
     1
  0
VERTEX
  8
ガラス
 10
156.88387
 20
-42.915262
  0
VERTEX
  8
ガラス
 10
124.500538
 20
-42.915262
  0
VERTEX
  8
ガラス
 10
124.500538
 20
-85.581927
  0
VERTEX
  8
ガラス
 10
156.88387
 20
-85.581927
  0
SEQEND
  0
TEXT
  7
TextStyle03
  8
文字
  6
CONTINUOUS
 10
78.1
 20
125.25
  1
シリーズ：ＳＴＦＦＫＬ
 40
5.0
 72
     5
 11
139.35
 21
125.25
  0
TEXT
  7
TextStyle03
  8
文字
  6
CONTINUOUS
 10
78.1
 20
119.625
  1
　　　　　（固定）1300×2000タイプ
 40
5.0
 72
     5
 11
173.1
 21
119.625
  0
TEXT
  7
TextStyle03
  8
文字
  6
CONTINUOUS
 10
78.1
 20
114.0
  1
図面名　：外観姿図
 40
5.0
 72
     5
 11
128.1
 21
114.0
  0
TEXT
  7
TextStyle03
  8
文字
  6
CONTINUOUS
 10
78.1
 20
108.375
  1
　　　　　　
 40
5.0
 72
     5
 11
111.225
 21
108.375
  0
TEXT
  7
TextStyle03
  8
文字
  6
CONTINUOUS
 10
-96.3
 20
97.1
  1
は排水穴位置を示す
 40
3.0
 72
     5
 11
-66.3
 21
97.1
  0
TEXT
  7
TextStyle03
  8
文字
  6
CONTINUOUS
 10
-100.025
 20
91.575
  1
アンカー数量　１０ヶ所
 40
3.0
 72
     5
 11
-63.275
 21
91.575
  0
TEXT
  7
TextStyle03
  8
文字
  6
CONTINUOUS
 10
-95.8
 20
22.225
  1
アンカーピッチ
 40
3.0
 50
90.0
 72
     5
 11
-95.8
 21
45.475
  0
TEXT
  7
TextStyle03
  8
文字
  6
CONTINUOUS
 10
-50.75
 20
91.85
  1
アンカーピッチ
 40
3.0
 72
     5
 11
-27.5
 21
91.85
  0
TEXT
  7
TextStyle03
  8
文字
  6
CONTINUOUS
 10
143.725
 20
-83.35
  1
×２枚
 40
3.0
 72
     5
 11
153.475
 21
-83.35
  0
TEXT
  7
TextStyle03
  8
文字
  6
CONTINUOUS
 10
123.475
 20
-21.15
  1
ガラス寸法
 40
3.0
 72
     5
 11
139.975
 21
-21.15
  0
INSERT
  2
*DIM_0006
  8
寸法
  6
CONTINUOUS
 10
0.0
 20
0.0
  0
INSERT
  2
*DIM_0007
  8
寸法
  6
CONTINUOUS
 10
0.0
 20
0.0
  0
INSERT
  2
*DIM_0008
  8
寸法
  6
CONTINUOUS
 10
0.0
 20
0.0
  0
INSERT
  2
*DIM_0009
  8
寸法
  6
CONTINUOUS
 10
0.0
 20
0.0
  0
INSERT
  2
*DIM_0010
  8
寸法
  6
CONTINUOUS
 10
0.0
 20
0.0
  0
INSERT
  2
*DIM_0011
  8
寸法
  6
CONTINUOUS
 10
0.0
 20
0.0
  0
INSERT
  2
*DIM_0012
  8
寸法
  6
CONTINUOUS
 10
0.0
 20
0.0
  0
INSERT
  2
*DIM_0013
  8
寸法
  6
CONTINUOUS
 10
0.0
 20
0.0
  0
INSERT
  2
*DIM_0014
  8
寸法
  6
CONTINUOUS
 10
0.0
 20
0.0
  0
INSERT
  2
*DIM_0015
  8
寸法
  6
CONTINUOUS
 10
0.0
 20
0.0
  0
INSERT
  2
*DIM_0016
  8
寸法
  6
CONTINUOUS
 10
0.0
 20
0.0
  0
INSERT
  2
*DIM_0017
  8
寸法
  6
CONTINUOUS
 10
0.0
 20
0.0
  0
INSERT
  2
*DIM_0018
  8
寸法
  6
CONTINUOUS
 10
0.0
 20
0.0
  0
INSERT
  2
*DIM_0019
  8
寸法
  6
CONTINUOUS
 10
0.0
 20
0.0
  0
LINE
  8
曲げ物
  6
CONTINUOUS
 10
-6.285498
 20
35.11718
 11
-9.98081
 21
31.421868
  0
LINE
  8
曲げ物
  6
CONTINUOUS
 10
-6.988968
 20
33.58107
 11
-8.444697
 21
32.12534
  0
LINE
  8
曲げ物
  6
CONTINUOUS
 10
-7.821608
 20
34.41371
 11
-9.277337
 21
32.95798
  0
LINE
  8
曲げ物
  6
CONTINUOUS
 10
-6.988968
 20
33.58107
 11
-8.444697
 21
32.12534
  0
LINE
  8
曲げ物
  6
CONTINUOUS
 10
-7.821608
 20
34.41371
 11
-9.277337
 21
32.95798
  0
LINE
  8
曲げ物
  6
CONTINUOUS
 10
-39.618833
 20
35.11718
 11
-43.314145
 21
31.421868
  0
LINE
  8
曲げ物
  6
CONTINUOUS
 10
-40.322303
 20
33.58107
 11
-41.778032
 21
32.12534
  0
LINE
  8
曲げ物
  6
CONTINUOUS
 10
-41.154943
 20
34.41371
 11
-42.610672
 21
32.95798
  0
LINE
  8
曲げ物
  6
CONTINUOUS
 10
-40.322303
 20
33.58107
 11
-41.778032
 21
32.12534
  0
LINE
  8
曲げ物
  6
CONTINUOUS
 10
-41.154943
 20
34.41371
 11
-42.610672
 21
32.95798
  0
LINE
  8
St
  6
CONTINUOUS
 62
    47
 10
-60.342148
 20
-84.510843
 11
-60.792148
 21
-84.510843
  0
LINE
  8
St
  6
CONTINUOUS
 62
    47
 10
10.638148
 20
-84.510843
 11
11.088148
 21
-84.510843
  0
LINE
  8
St
  6
CONTINUOUS
 62
    47
 10
171.63993
 20
9.49094
 11
171.63993
 21
9.04094
  0
LINE
  8
St
  6
CONTINUOUS
 62
    47
 10
171.63993
 20
57.137903
 11
171.63993
 21
57.587903
  0
ENDSEC
  0
EOF
