  0
SECTION
  2
HEADER
  9
$EXTMIN
 10
-210.0
 20
-148.5
  9
$EXTMAX
 10
210.0
 20
148.5
  9
$PDMODE
 70
    32
  9
$PDSIZE
 40
1.5
  9
$LTSCALE
 40
10.0
  0
ENDSEC
  0
SECTION
  2
TABLES
  0
TABLE
  2
LTYPE
 70
    15
  0
LTYPE
  2
CONTINUOUS
 70
    64
  3
実線
 72
    65
 73
     0
 40
0.0
  0
LTYPE
  2
DASHED
 70
    64
  3
破線A
 72
    65
 73
     2
 40
0.6
 49
0.4
 49
-0.2
  0
LTYPE
  2
DASHEDX2
 70
    64
  3
破線B
 72
    65
 73
     2
 40
1.3
 49
0.9
 49
-0.4
  0
LTYPE
  2
DASHDOT
 70
    64
  3
１点鎖線A
 72
    65
 73
     4
 40
0.5375
 49
0.375
 49
-0.05
 49
0.0625
 49
-0.05
  0
LTYPE
  2
DASHDOTX2
 70
    64
  3
１点鎖線B
 72
    65
 73
     4
 40
1.075
 49
0.75
 49
-0.1
 49
0.125
 49
-0.1
  0
LTYPE
  2
DIVIDE2
 70
    64
  3
２点鎖線A
 72
    65
 73
     6
 40
0.5125
 49
0.3
 49
-0.0375
 49
0.05
 49
-0.0375
 49
0.05
 49
-0.0375
  0
LTYPE
  2
DIVIDE
 70
    64
  3
２点鎖線B
 72
    65
 73
     6
 40
1.05
 49
0.55
 49
-0.1
 49
0.1
 49
-0.1
 49
0.1
 49
-0.1
  0
LTYPE
  2
DOT
 70
    64
  3
点線A
 72
    65
 73
     2
 40
0.1125
 49
0.0625
 49
-0.05
  0
LTYPE
  2
DOTX2
 70
    64
  3
点線B
 72
    65
 73
     2
 40
0.275
 49
0.15
 49
-0.125
  0
LTYPE
  2
CONTINUOUS
 70
    64
  3
実線
 72
    65
 73
     0
 40
0.0
  0
LTYPE
  2
CONTINUOUS
 70
    64
  3
実線
 72
    65
 73
     0
 40
0.0
  0
LTYPE
  2
CONTINUOUS
 70
    64
  3
実線
 72
    65
 73
     0
 40
0.0
  0
LTYPE
  2
CONTINUOUS
 70
    64
  3
実線
 72
    65
 73
     0
 40
0.0
  0
LTYPE
  2
CONTINUOUS
 70
    64
  3
実線
 72
    65
 73
     0
 40
0.0
  0
LTYPE
  2
CONTINUOUS
 70
    64
  3
実線
 72
    65
 73
     0
 40
0.0
  0
ENDTAB
  0
TABLE
  2
LAYER
 70
    34
  0
LAYER
  2
通り芯
 70
     0
 62
    15
  6
CONTINUOUS
  0
LAYER
  2
補助線
 70
     0
 62
    16
  6
DOT
  0
LAYER
  2
躯体
 70
     0
 62
    31
  6
CONTINUOUS
  0
LAYER
  2
型材
 70
     0
 62
    32
  6
CONTINUOUS
  0
LAYER
  2
型材断面
 70
     0
 62
    47
  6
CONTINUOUS
  0
LAYER
  2
ガラス
 70
     0
 62
    48
  6
CONTINUOUS
  0
LAYER
  2
ゴム等
 70
     0
 62
    63
  6
CONTINUOUS
  0
LAYER
  2
ボルト／ビス
 70
     0
 62
    64
  6
CONTINUOUS
  0
LAYER
  2
文字
 70
     0
 62
    79
  6
CONTINUOUS
  0
LAYER
  2
寸法
 70
     0
 62
    80
  6
CONTINUOUS
  0
LAYER
  2
ﾊｯﾁﾝｸﾞ
 70
     0
 62
    95
  6
CONTINUOUS
  0
LAYER
  2
別途部材
 70
     0
 62
    96
  6
CONTINUOUS
  0
LAYER
  2
曲げ物
 70
     0
 62
   111
  6
CONTINUOUS
  0
LAYER
  2
鉄骨等
 70
     0
 62
   112
  6
CONTINUOUS
  0
LAYER
  2
St
 70
     0
 62
   127
  6
CONTINUOUS
  0
LAYER
  2
その他部品等
 70
     0
 62
   128
  6
CONTINUOUS
  0
LAYER
  2
ｶﾞｽｹｯﾄ
 70
     0
 62
   143
  6
CONTINUOUS
  0
LAYER
  2
ｽｹｯﾁ
 70
     0
 62
    14
  6
CONTINUOUS
  0
LAYER
  2
0
 70
     0
 62
    17
  6
CONTINUOUS
  0
LAYER
  2
1
 70
     0
 62
    30
  6
CONTINUOUS
  0
LAYER
  2
4
 70
     0
 62
    33
  6
CONTINUOUS
  0
LAYER
  2
ﾚｲﾔ3
 70
     0
 62
    46
  6
CONTINUOUS
  0
LAYER
  2
外形線
 70
     0
 62
    49
  6
CONTINUOUS
  0
LAYER
  2
部品
 70
     0
 62
    14
  6
CONTINUOUS
  0
LAYER
  2
サッシ芯
 70
     0
 62
    17
  6
DASHDOTX2
  0
LAYER
  2
寸法線
 70
     0
 62
    62
  6
CONTINUOUS
  0
LAYER
  2
姿図外形線
 70
     0
 62
    65
  6
CONTINUOUS
  0
LAYER
  2
姿補助線
 70
     0
 62
    30
  6
CONTINUOUS
  0
LAYER
  2
透視線
 70
     0
 62
    78
  6
DOT
  0
LAYER
  2
用紙
 70
     0
 62
    81
  6
CONTINUOUS
  0
LAYER
  2
実線図枠
 70
     0
 62
    94
  6
CONTINUOUS
  0
LAYER
  2
補助図枠
 70
     0
 62
    97
  6
CONTINUOUS
  0
LAYER
  2
建具記号
 70
     0
 62
   110
  6
CONTINUOUS
  0
LAYER
  2
補助文字
 70
     0
 62
   113
  6
CONTINUOUS
  0
ENDTAB
  0
TABLE
  2
STYLE
 70
    10
  0
STYLE
  2
STANDARD
 70
     0
 40
1.0
 41
1.0
 42
1.0
 50
0.0
 71
     0
  3
TXT
  4
BIGFONT
  0
STYLE
  2
TATE
 70
     4
 40
1.0
 41
1.0
 42
1.0
 50
0.0
 71
     0
  3
TXT
  4
BIGFONT
  0
STYLE
  2
TextStyle03
 70
     0
 40
1.0
 41
1.0
 42
1.0
 50
0.0
 71
     0
  3
MONOTXT
  4
BIGFONT
  0
STYLE
  2
TextStyle04
 70
     0
 40
1.0
 41
1.0
 42
1.0
 50
0.0
 71
     0
  3
MONOTXT
  4
BIGFONT
  0
STYLE
  2
TextStyle05
 70
     0
 40
1.0
 41
1.0
 42
1.0
 50
0.0
 71
     0
  3
MONOTXT
  4
BIGFONT
  0
STYLE
  2
TextStyle06
 70
     0
 40
1.0
 41
1.0
 42
1.0
 50
0.0
 71
     0
  3
MONOTXT
  4
BIGFONT
  0
STYLE
  2
TextStyle07
 70
     0
 40
1.0
 41
1.0
 42
1.0
 50
0.0
 71
     0
  3
MONOTXT
  4
BIGFONT
  0
STYLE
  2
TextStyle08
 70
     0
 40
1.0
 41
1.0
 42
1.0
 50
0.0
 71
     0
  3
MONOTXT
  4
BIGFONT
  0
STYLE
  2
TextStyle09
 70
     0
 40
1.0
 41
1.0
 42
1.0
 50
0.0
 71
     0
  3
MONOTXT
  4
BIGFONT
  0
STYLE
  2
TextStyle10
 70
     0
 40
1.0
 41
1.0
 42
1.0
 50
0.0
 71
     0
  3
MONOTXT
  4
BIGFONT
  0
ENDTAB
  0
ENDSEC
  0
SECTION
  2
BLOCKS
  0
BLOCK
  2
*GRP_0001
 70
    65
 10
0.0
 20
0.0
  0
LINE
  8
型材断面
  6
CONTINUOUS
 10
195.0
 20
133.5
 11
195.0
 21
-133.5
  0
LINE
  8
型材断面
  6
CONTINUOUS
 10
195.0
 20
-133.5
 11
-185.0
 21
-133.5
  0
LINE
  8
型材断面
  6
CONTINUOUS
 10
-185.0
 20
-133.5
 11
-185.0
 21
133.5
  0
LINE
  8
型材断面
  6
CONTINUOUS
 10
195.0
 20
133.5
 11
-185.0
 21
133.5
  0
LINE
  8
型材断面
  6
CONTINUOUS
 10
145.0
 20
-133.5
 11
145.0
 21
-118.5
  0
LINE
  8
型材断面
  6
CONTINUOUS
 10
195.0
 20
-118.5
 11
145.0
 21
-118.5
  0
ENDBLK
  0
BLOCK
  2
*GRP_0002
 70
    65
 10
0.0
 20
0.0
  0
LINE
  8
ボルト／ビス
  6
CONTINUOUS
 10
168.42343
 20
10.61442
 11
168.356765
 21
10.61442
  0
LINE
  8
ボルト／ビス
  6
CONTINUOUS
 10
168.356765
 20
10.61442
 11
168.356765
 21
11.34775
  0
LINE
  8
ボルト／ビス
  6
CONTINUOUS
 10
168.356765
 20
11.34775
 11
168.42343
 21
11.34775
  0
LINE
  8
ボルト／ビス
  6
CONTINUOUS
 10
168.42343
 20
10.61442
 11
168.42343
 21
11.34775
  0
LINE
  8
ボルト／ビス
  6
CONTINUOUS
 10
168.32343
 20
10.681085
 11
168.356765
 21
10.681085
  0
LINE
  8
ボルト／ビス
  6
CONTINUOUS
 10
168.32343
 20
10.681085
 11
168.32343
 21
11.281085
  0
LINE
  8
ボルト／ビス
  6
CONTINUOUS
 10
168.32343
 20
11.281085
 11
168.356762
 21
11.281085
  0
LINE
  8
ボルト／ビス
  6
CONTINUOUS
 62
    64
 10
168.12343
 20
10.82071
 11
168.135105
 21
10.788635
  0
ARC
  8
ボルト／ビス
  6
CONTINUOUS
 62
    64
 10
168.22841
 20
10.836748
 40
0.104978
 50
152.721989
 51
180.000022
  0
ARC
  8
ボルト／ビス
  6
CONTINUOUS
 62
    64
 10
168.525833
 20
10.981086
 40
0.402401
 50
166.165024
 51
193.835007
  0
LINE
  8
ボルト／ビス
  6
CONTINUOUS
 62
    64
 10
168.12343
 20
11.14146
 11
168.135105
 21
11.173535
  0
ARC
  8
ボルト／ビス
  6
CONTINUOUS
 62
    64
 10
168.22841
 20
11.125423
 40
0.104978
 50
180.000022
 51
207.278055
  0
LINE
  8
ボルト／ビス
  6
CONTINUOUS
 62
    64
 10
168.12343
 20
10.82071
 11
168.12343
 21
11.14146
  0
LINE
  8
ボルト／ビス
  6
CONTINUOUS
 62
    64
 10
168.135105
 20
11.173535
 11
168.256762
 21
11.173535
  0
LINE
  8
ボルト／ビス
  6
CONTINUOUS
 62
    64
 10
168.135105
 20
11.07731
 11
168.256765
 21
11.07731
  0
LINE
  8
ボルト／ビス
  6
CONTINUOUS
 62
    64
 10
168.135105
 20
10.788635
 11
168.256762
 21
10.788635
  0
LINE
  8
ボルト／ビス
  6
CONTINUOUS
 62
    64
 10
168.135105
 20
10.88486
 11
168.256762
 21
10.88486
  0
LINE
  8
ボルト／ビス
  6
CONTINUOUS
 10
168.256762
 20
10.788635
 11
168.256762
 21
11.173535
  0
LINE
  8
ボルト／ビス
  6
CONTINUOUS
 10
168.256762
 20
10.781085
 11
168.32343
 21
10.781085
  0
LINE
  8
ボルト／ビス
  6
CONTINUOUS
 10
168.256762
 20
10.781085
 11
168.256762
 21
11.181085
  0
LINE
  8
ボルト／ビス
  6
CONTINUOUS
 10
168.256762
 20
11.181085
 11
168.32343
 21
11.181085
  0
LINE
  8
ボルト／ビス
  6
CONTINUOUS
 62
    64
 10
168.42343
 20
11.081085
 11
168.42343
 21
11.081085
  0
ENDBLK
  0
BLOCK
  2
*GRP_0003
 70
    65
 10
0.0
 20
0.0
  0
LINE
  8
ボルト／ビス
  6
CONTINUOUS
 10
168.42343
 20
56.014425
 11
168.356765
 21
56.014425
  0
LINE
  8
ボルト／ビス
  6
CONTINUOUS
 10
168.356765
 20
56.014425
 11
168.356765
 21
55.281092
  0
LINE
  8
ボルト／ビス
  6
CONTINUOUS
 10
168.356765
 20
55.281092
 11
168.42343
 21
55.281092
  0
LINE
  8
ボルト／ビス
  6
CONTINUOUS
 10
168.42343
 20
56.014425
 11
168.42343
 21
55.281092
  0
LINE
  8
ボルト／ビス
  6
CONTINUOUS
 10
168.32343
 20
55.947758
 11
168.356765
 21
55.947758
  0
LINE
  8
ボルト／ビス
  6
CONTINUOUS
 10
168.32343
 20
55.947758
 11
168.32343
 21
55.34776
  0
LINE
  8
ボルト／ビス
  6
CONTINUOUS
 10
168.32343
 20
55.34776
 11
168.356762
 21
55.34776
  0
LINE
  8
ボルト／ビス
  6
CONTINUOUS
 62
    64
 10
168.12343
 20
55.808135
 11
168.135105
 21
55.840207
  0
ARC
  8
ボルト／ビス
  6
CONTINUOUS
 62
    64
 10
168.22841
 20
55.792094
 40
0.104978
 50
179.999978
 51
207.278011
  0
ARC
  8
ボルト／ビス
  6
CONTINUOUS
 62
    64
 10
168.525833
 20
55.647757
 40
0.402401
 50
166.164993
 51
193.834976
  0
LINE
  8
ボルト／ビス
  6
CONTINUOUS
 62
    64
 10
168.12343
 20
55.487385
 11
168.135105
 21
55.455307
  0
ARC
  8
ボルト／ビス
  6
CONTINUOUS
 62
    64
 10
168.22841
 20
55.50342
 40
0.104978
 50
152.721945
 51
179.999978
  0
LINE
  8
ボルト／ビス
  6
CONTINUOUS
 62
    64
 10
168.12343
 20
55.808135
 11
168.12343
 21
55.487385
  0
LINE
  8
ボルト／ビス
  6
CONTINUOUS
 62
    64
 10
168.135105
 20
55.455307
 11
168.256762
 21
55.455307
  0
LINE
  8
ボルト／ビス
  6
CONTINUOUS
 62
    64
 10
168.135105
 20
55.551535
 11
168.256765
 21
55.551535
  0
LINE
  8
ボルト／ビス
  6
CONTINUOUS
 62
    64
 10
168.135105
 20
55.840207
 11
168.256762
 21
55.840207
  0
LINE
  8
ボルト／ビス
  6
CONTINUOUS
 62
    64
 10
168.135105
 20
55.743982
 11
168.256762
 21
55.743982
  0
LINE
  8
ボルト／ビス
  6
CONTINUOUS
 10
168.256762
 20
55.840207
 11
168.256762
 21
55.455307
  0
LINE
  8
ボルト／ビス
  6
CONTINUOUS
 10
168.256762
 20
55.847758
 11
168.32343
 21
55.847758
  0
LINE
  8
ボルト／ビス
  6
CONTINUOUS
 10
168.256762
 20
55.847758
 11
168.256762
 21
55.44776
  0
LINE
  8
ボルト／ビス
  6
CONTINUOUS
 10
168.256762
 20
55.44776
 11
168.32343
 21
55.44776
  0
LINE
  8
ボルト／ビス
  6
CONTINUOUS
 62
    64
 10
168.42343
 20
55.54776
 11
168.42343
 21
55.54776
  0
ENDBLK
  0
BLOCK
  2
*GRP_0004
 70
    65
 10
0.0
 20
0.0
  0
LINE
  8
ボルト／ビス
  6
CONTINUOUS
 10
17.848
 20
-81.294343
 11
17.848
 21
-81.227678
  0
LINE
  8
ボルト／ビス
  6
CONTINUOUS
 10
17.848
 20
-81.227678
 11
17.11467
 21
-81.227678
  0
LINE
  8
ボルト／ビス
  6
CONTINUOUS
 10
17.11467
 20
-81.227678
 11
17.11467
 21
-81.294343
  0
LINE
  8
ボルト／ビス
  6
CONTINUOUS
 10
17.848
 20
-81.294343
 11
17.11467
 21
-81.294343
  0
LINE
  8
ボルト／ビス
  6
CONTINUOUS
 10
17.781335
 20
-81.194343
 11
17.781335
 21
-81.227678
  0
LINE
  8
ボルト／ビス
  6
CONTINUOUS
 10
17.781335
 20
-81.194343
 11
17.181335
 21
-81.194343
  0
LINE
  8
ボルト／ビス
  6
CONTINUOUS
 10
17.181335
 20
-81.194343
 11
17.181335
 21
-81.227675
  0
LINE
  8
ボルト／ビス
  6
CONTINUOUS
 62
    64
 10
17.64171
 20
-80.994343
 11
17.673785
 21
-81.006017
  0
ARC
  8
ボルト／ビス
  6
CONTINUOUS
 62
    64
 10
17.625671
 20
-81.099323
 40
0.104978
 50
89.999978
 51
117.278011
  0
ARC
  8
ボルト／ビス
  6
CONTINUOUS
 62
    64
 10
17.481333
 20
-81.396746
 40
0.402401
 50
76.164993
 51
103.834976
  0
LINE
  8
ボルト／ビス
  6
CONTINUOUS
 62
    64
 10
17.32096
 20
-80.994343
 11
17.288885
 21
-81.006017
  0
ARC
  8
ボルト／ビス
  6
CONTINUOUS
 62
    64
 10
17.336996
 20
-81.099323
 40
0.104978
 50
62.721945
 51
89.999978
  0
LINE
  8
ボルト／ビス
  6
CONTINUOUS
 62
    64
 10
17.64171
 20
-80.994343
 11
17.32096
 21
-80.994343
  0
LINE
  8
ボルト／ビス
  6
CONTINUOUS
 62
    64
 10
17.288885
 20
-81.006017
 11
17.288885
 21
-81.127675
  0
LINE
  8
ボルト／ビス
  6
CONTINUOUS
 62
    64
 10
17.38511
 20
-81.006017
 11
17.38511
 21
-81.127678
  0
LINE
  8
ボルト／ビス
  6
CONTINUOUS
 62
    64
 10
17.673785
 20
-81.006017
 11
17.673785
 21
-81.127675
  0
LINE
  8
ボルト／ビス
  6
CONTINUOUS
 62
    64
 10
17.57756
 20
-81.006017
 11
17.57756
 21
-81.127675
  0
LINE
  8
ボルト／ビス
  6
CONTINUOUS
 10
17.673785
 20
-81.127675
 11
17.288885
 21
-81.127675
  0
LINE
  8
ボルト／ビス
  6
CONTINUOUS
 10
17.681335
 20
-81.127675
 11
17.681335
 21
-81.194343
  0
LINE
  8
ボルト／ビス
  6
CONTINUOUS
 10
17.681335
 20
-81.127675
 11
17.281335
 21
-81.127675
  0
LINE
  8
ボルト／ビス
  6
CONTINUOUS
 10
17.281335
 20
-81.127675
 11
17.281335
 21
-81.194343
  0
LINE
  8
ボルト／ビス
  6
CONTINUOUS
 62
    64
 10
17.381335
 20
-81.294343
 11
17.381335
 21
-81.294343
  0
ENDBLK
  0
BLOCK
  2
*GRP_0005
 70
    65
 10
0.0
 20
0.0
  0
LINE
  8
ボルト／ビス
  6
CONTINUOUS
 10
-67.552002
 20
-81.294343
 11
-67.552002
 21
-81.227678
  0
LINE
  8
ボルト／ビス
  6
CONTINUOUS
 10
-67.552002
 20
-81.227678
 11
-66.81867
 21
-81.227678
  0
LINE
  8
ボルト／ビス
  6
CONTINUOUS
 10
-66.81867
 20
-81.227678
 11
-66.81867
 21
-81.294343
  0
LINE
  8
ボルト／ビス
  6
CONTINUOUS
 10
-67.552002
 20
-81.294343
 11
-66.81867
 21
-81.294343
  0
LINE
  8
ボルト／ビス
  6
CONTINUOUS
 10
-67.485335
 20
-81.194343
 11
-67.485335
 21
-81.227678
  0
LINE
  8
ボルト／ビス
  6
CONTINUOUS
 10
-67.485335
 20
-81.194343
 11
-66.885337
 21
-81.194343
  0
LINE
  8
ボルト／ビス
  6
CONTINUOUS
 10
-66.885337
 20
-81.194343
 11
-66.885337
 21
-81.227675
  0
LINE
  8
ボルト／ビス
  6
CONTINUOUS
 62
    64
 10
-67.345712
 20
-80.994343
 11
-67.377785
 21
-81.006017
  0
ARC
  8
ボルト／ビス
  6
CONTINUOUS
 62
    64
 10
-67.329673
 20
-81.099323
 40
0.104978
 50
62.721989
 51
90.000022
  0
ARC
  8
ボルト／ビス
  6
CONTINUOUS
 62
    64
 10
-67.185335
 20
-81.396746
 40
0.402401
 50
76.165024
 51
103.835007
  0
LINE
  8
ボルト／ビス
  6
CONTINUOUS
 62
    64
 10
-67.024963
 20
-80.994343
 11
-66.992885
 21
-81.006017
  0
ARC
  8
ボルト／ビス
  6
CONTINUOUS
 62
    64
 10
-67.040998
 20
-81.099323
 40
0.104978
 50
90.000022
 51
117.278055
  0
LINE
  8
ボルト／ビス
  6
CONTINUOUS
 62
    64
 10
-67.345712
 20
-80.994343
 11
-67.024963
 21
-80.994343
  0
LINE
  8
ボルト／ビス
  6
CONTINUOUS
 62
    64
 10
-66.992885
 20
-81.006017
 11
-66.992885
 21
-81.127675
  0
LINE
  8
ボルト／ビス
  6
CONTINUOUS
 62
    64
 10
-67.089113
 20
-81.006017
 11
-67.089113
 21
-81.127678
  0
LINE
  8
ボルト／ビス
  6
CONTINUOUS
 62
    64
 10
-67.377785
 20
-81.006017
 11
-67.377785
 21
-81.127675
  0
LINE
  8
ボルト／ビス
  6
CONTINUOUS
 62
    64
 10
-67.28156
 20
-81.006017
 11
-67.28156
 21
-81.127675
  0
LINE
  8
ボルト／ビス
  6
CONTINUOUS
 10
-67.377785
 20
-81.127675
 11
-66.992885
 21
-81.127675
  0
LINE
  8
ボルト／ビス
  6
CONTINUOUS
 10
-67.385335
 20
-81.127675
 11
-67.385335
 21
-81.194343
  0
LINE
  8
ボルト／ビス
  6
CONTINUOUS
 10
-67.385335
 20
-81.127675
 11
-66.985337
 21
-81.127675
  0
LINE
  8
ボルト／ビス
  6
CONTINUOUS
 10
-66.985337
 20
-81.127675
 11
-66.985337
 21
-81.194343
  0
LINE
  8
ボルト／ビス
  6
CONTINUOUS
 62
    64
 10
-67.085337
 20
-81.294343
 11
-67.085337
 21
-81.294343
  0
ENDBLK
  0
BLOCK
  2
*DIM_0006
 70
    65
 10
0.0
 20
0.0
  0
LINE
  8
寸法
  6
CONTINUOUS
 10
166.13993
 20
9.040942
 11
151.055333
 21
9.040942
  0
LINE
  8
寸法
  6
CONTINUOUS
 10
151.055333
 20
11.647755
 11
151.055333
 21
9.040942
  0
POINT
  8
寸法
 10
151.055333
 20
11.647755
  0
POINT
  8
寸法
 10
151.055333
 20
9.040942
  0
TEXT
  7
TextStyle03
  8
寸法
  6
CONTINUOUS
 10
150.65
 20
0.31875
  1
78.2
 40
3.0
 50
90.0
 72
     5
 11
150.65
 21
6.88125
  0
ENDBLK
  0
BLOCK
  2
*DIM_0007
 70
    65
 10
0.0
 20
0.0
  0
LINE
  8
寸法
  6
CONTINUOUS
 10
166.13993
 20
57.587905
 11
151.055333
 21
57.587905
  0
LINE
  8
寸法
  6
CONTINUOUS
 10
151.055333
 20
54.98109
 11
151.055333
 21
57.587905
  0
POINT
  8
寸法
 10
151.055333
 20
54.98109
  0
POINT
  8
寸法
 10
151.055333
 20
57.587905
  0
TEXT
  7
TextStyle03
  8
寸法
  6
CONTINUOUS
 10
150.65
 20
59.76875
  1
78.2
 40
3.0
 50
90.0
 72
     5
 11
150.65
 21
66.33125
  0
ENDBLK
  0
BLOCK
  2
*DIM_0008
 70
    65
 10
0.0
 20
0.0
  0
LINE
  8
寸法
  6
CONTINUOUS
 10
151.055333
 20
11.647755
 11
151.055333
 21
54.98109
  0
POINT
  8
寸法
 10
151.055333
 20
11.647755
  0
POINT
  8
寸法
 10
151.055333
 20
54.98109
  0
TEXT
  7
TextStyle03
  8
寸法
  6
CONTINUOUS
 10
150.65
 20
21.60625
  1
呼称寸法　1300
 40
3.0
 50
90.0
 72
     5
 11
150.65
 21
45.04375
  0
ENDBLK
  0
BLOCK
  2
*DIM_0009
 70
    65
 10
0.0
 20
0.0
  0
LINE
  8
寸法
  6
CONTINUOUS
 10
171.63993
 20
4.04094
 11
171.63993
 21
-4.223383
  0
LINE
  8
寸法
  6
CONTINUOUS
 10
167.923432
 20
6.647755
 11
167.923432
 21
-4.223383
  0
LINE
  8
寸法
  6
CONTINUOUS
 10
171.63993
 20
-4.223383
 11
167.923432
 21
-4.223383
  0
POINT
  8
寸法
 10
171.63993
 20
-4.223383
  0
POINT
  8
寸法
 10
167.923432
 20
-4.223383
  0
TEXT
  7
TextStyle03
  8
寸法
  6
CONTINUOUS
 10
165.625
 20
-7.225
  1
111.5
 40
3.0
 50
360.0
 72
     5
 11
173.875
 21
-7.225
  0
ENDBLK
  0
BLOCK
  2
*DIM_0010
 70
    65
 10
0.0
 20
0.0
  0
LINE
  8
寸法
  6
CONTINUOUS
 10
19.42148
 20
-79.010843
 11
19.42148
 21
-63.926245
  0
LINE
  8
寸法
  6
CONTINUOUS
 10
16.814665
 20
-63.926245
 11
19.42148
 21
-63.926245
  0
POINT
  8
寸法
 10
16.814665
 20
-63.926245
  0
POINT
  8
寸法
 10
19.42148
 20
-63.926245
  0
TEXT
  7
TextStyle03
  8
寸法
  6
CONTINUOUS
 10
21.56875
 20
-63.55
  1
78.2
 40
3.0
 72
     5
 11
28.13125
 21
-63.55
  0
ENDBLK
  0
BLOCK
  2
*DIM_0011
 70
    65
 10
0.0
 20
0.0
  0
LINE
  8
寸法
  6
CONTINUOUS
 10
24.42148
 20
-84.510843
 11
32.685802
 21
-84.510843
  0
LINE
  8
寸法
  6
CONTINUOUS
 10
21.814665
 20
-80.794345
 11
32.685802
 21
-80.794345
  0
LINE
  8
寸法
  6
CONTINUOUS
 10
32.685802
 20
-84.510843
 11
32.685802
 21
-80.794345
  0
POINT
  8
寸法
 10
32.685802
 20
-84.510843
  0
POINT
  8
寸法
 10
32.685802
 20
-80.794345
  0
TEXT
  7
TextStyle03
  8
寸法
  6
CONTINUOUS
 10
35.65
 20
-86.775
  1
111.5
 40
3.0
 50
90.0
 72
     5
 11
35.65
 21
-78.525
  0
ENDBLK
  0
BLOCK
  2
*DIM_0012
 70
    65
 10
0.0
 20
0.0
  0
LINE
  8
寸法
  6
CONTINUOUS
 10
-69.12548
 20
-79.010843
 11
-69.12548
 21
-63.926245
  0
LINE
  8
寸法
  6
CONTINUOUS
 10
-66.518667
 20
-63.926245
 11
-69.12548
 21
-63.926245
  0
POINT
  8
寸法
 10
-66.518667
 20
-63.926245
  0
POINT
  8
寸法
 10
-69.12548
 20
-63.926245
  0
TEXT
  7
TextStyle03
  8
寸法
  6
CONTINUOUS
 10
-77.88125
 20
-63.55
  1
78.2
 40
3.0
 72
     5
 11
-71.31875
 21
-63.55
  0
ENDBLK
  0
BLOCK
  2
*DIM_0013
 70
    65
 10
0.0
 20
0.0
  0
LINE
  8
寸法
  6
CONTINUOUS
 10
16.814665
 20
-63.926245
 11
-66.518667
 21
-63.926245
  0
POINT
  8
寸法
 10
16.814665
 20
-63.926245
  0
POINT
  8
寸法
 10
-66.518667
 20
-63.926245
  0
TEXT
  7
TextStyle03
  8
寸法
  6
CONTINUOUS
 10
-36.59375
 20
-63.55
  1
呼称寸法　2500
 40
3.0
 72
     5
 11
-13.15625
 21
-63.55
  0
ENDBLK
  0
BLOCK
  2
*DIM_0014
 70
    65
 10
0.0
 20
0.0
  0
LINE
  8
寸法
  6
BYBLOCK
 62
     0
 10
-49.852
 20
8.017627
 11
-49.852
 21
3.014497
  0
LINE
  8
寸法
  6
BYBLOCK
 62
     0
 10
0.147995
 20
8.017627
 11
0.147995
 21
3.014497
  0
LINE
  8
寸法
  6
BYBLOCK
 62
     0
 10
-49.852
 20
3.014497
 11
0.147995
 21
3.014497
  0
POINT
  8
寸法
 62
     0
 10
-49.852
 20
3.014497
  0
POINT
  8
寸法
 62
     0
 10
0.147995
 20
3.014497
  0
TEXT
  7
TextStyle03
  8
寸法
  6
CONTINUOUS
 62
     0
 10
-28.15625
 20
3.375
  1
1500
 40
3.0
 72
     5
 11
-21.59375
 21
3.375
  0
ENDBLK
  0
BLOCK
  2
*DIM_0015
 70
    65
 10
0.0
 20
0.0
  0
LINE
  8
寸法
  6
BYBLOCK
 62
     0
 10
-69.518667
 20
21.647755
 11
-98.463832
 21
21.647755
  0
LINE
  8
寸法
  6
BYBLOCK
 62
     0
 10
-69.518667
 20
44.98109
 11
-98.463832
 21
44.98109
  0
LINE
  8
寸法
  6
BYBLOCK
 62
     0
 10
-98.463832
 20
21.647755
 11
-98.463832
 21
44.98109
  0
POINT
  8
寸法
 62
     0
 10
-98.463832
 20
21.647755
  0
POINT
  8
寸法
 62
     0
 10
-98.463832
 20
44.98109
  0
TEXT
  7
TextStyle03
  8
寸法
  6
CONTINUOUS
 62
     0
 10
-98.925
 20
30.8625
  1
700
 40
3.0
 50
90.0
 72
     5
 11
-98.925
 21
35.7375
  0
ENDBLK
  0
BLOCK
  2
*DIM_0016
 70
    65
 10
0.0
 20
0.0
  0
LINE
  8
寸法
  6
BYBLOCK
 62
     0
 10
-59.852002
 20
57.981087
 11
-59.852002
 21
87.728708
  0
LINE
  8
寸法
  6
BYBLOCK
 62
     0
 10
-36.51867
 20
57.981087
 11
-36.51867
 21
87.728708
  0
LINE
  8
寸法
  6
BYBLOCK
 62
     0
 10
-59.852002
 20
87.728708
 11
-36.51867
 21
87.728708
  0
POINT
  8
寸法
 62
     0
 10
-59.852002
 20
87.728708
  0
POINT
  8
寸法
 62
     0
 10
-36.51867
 20
87.728708
  0
TEXT
  7
TextStyle03
  8
寸法
  6
CONTINUOUS
 62
     0
 10
-50.6375
 20
88.1
  1
700
 40
3.0
 72
     5
 11
-45.7625
 21
88.1
  0
ENDBLK
  0
BLOCK
  2
*DIM_0017
 70
    65
 10
0.0
 20
0.0
  0
LINE
  8
寸法
  6
BYBLOCK
 62
     0
 10
-13.185335
 20
57.981087
 11
-13.185335
 21
87.728708
  0
LINE
  8
寸法
  6
BYBLOCK
 62
     0
 10
-36.51867
 20
87.728708
 11
-13.185335
 21
87.728708
  0
POINT
  8
寸法
 62
     0
 10
-13.185335
 20
87.728708
  0
TEXT
  7
TextStyle03
  8
寸法
  6
CONTINUOUS
 62
     0
 10
-27.3125
 20
88.1
  1
700
 40
3.0
 72
     5
 11
-22.4375
 21
88.1
  0
ENDBLK
  0
BLOCK
  2
*DIM_0018
 70
    65
 10
0.0
 20
0.0
  0
LINE
  8
寸法
  6
BYBLOCK
 62
     0
 10
10.147998
 20
57.981087
 11
10.147998
 21
87.728708
  0
LINE
  8
寸法
  6
BYBLOCK
 62
     0
 10
-13.185335
 20
87.728708
 11
10.147998
 21
87.728708
  0
POINT
  8
寸法
 62
     0
 10
10.147998
 20
87.728708
  0
TEXT
  7
TextStyle03
  8
寸法
  6
CONTINUOUS
 62
     0
 10
-3.9625
 20
88.1
  1
700
 40
3.0
 72
     5
 11
0.9125
 21
88.1
  0
ENDBLK
  0
BLOCK
  2
*DIM_0019
 70
    65
 10
0.0
 20
0.0
  0
LINE
  8
寸法
  6
CONTINUOUS
 10
117.866878
 20
-40.504575
 11
117.866878
 21
-31.779615
  0
LINE
  8
寸法
  6
CONTINUOUS
 10
158.583545
 20
-40.504575
 11
158.583545
 21
-31.779615
  0
LINE
  8
寸法
  6
CONTINUOUS
 10
117.866878
 20
-31.779615
 11
158.583545
 21
-31.779615
  0
POINT
  8
寸法
 10
117.866878
 20
-31.779615
  0
POINT
  8
寸法
 10
158.583545
 20
-31.779615
  0
TEXT
  7
TextStyle03
  8
寸法
  6
CONTINUOUS
 10
133.25625
 20
-31.425
  1
1221.5
 40
3.0
 72
     5
 11
143.19375
 21
-31.425
  0
ENDBLK
  0
BLOCK
  2
*DIM_0020
 70
    65
 10
0.0
 20
0.0
  0
LINE
  8
寸法
  6
CONTINUOUS
 10
163.583545
 20
-45.504575
 11
174.573757
 21
-45.504575
  0
LINE
  8
寸法
  6
CONTINUOUS
 10
163.583545
 20
-88.171242
 11
174.573757
 21
-88.171242
  0
LINE
  8
寸法
  6
CONTINUOUS
 10
174.573757
 20
-45.504575
 11
174.573757
 21
-88.171242
  0
POINT
  8
寸法
 10
174.573757
 20
-45.504575
  0
POINT
  8
寸法
 10
174.573757
 20
-88.171242
  0
TEXT
  7
TextStyle03
  8
寸法
  6
CONTINUOUS
 10
174.175
 20
-70.13125
  1
1280
 40
3.0
 50
90.0
 72
     5
 11
174.175
 21
-63.56875
  0
ENDBLK
  0
ENDSEC
  0
SECTION
  2
ENTITIES
  0
POLYLINE
  8
通り芯
  6
CONTINUOUS
 66
     1
 70
     1
  0
VERTEX
  8
通り芯
 10
-210.0
 20
-148.5
  0
VERTEX
  8
通り芯
 10
210.0
 20
-148.5
  0
VERTEX
  8
通り芯
 10
210.0
 20
148.5
  0
VERTEX
  8
通り芯
 10
-210.0
 20
148.5
  0
SEQEND
  0
INSERT
  2
*GRP_0001
  8
型材断面
  6
CONTINUOUS
 10
0.0
 20
0.0
  0
LINE
  8
型材断面
  6
CONTINUOUS
 10
172.08993
 20
9.49094
 11
171.63993
 21
9.49094
  0
LINE
  8
型材断面
  6
CONTINUOUS
 62
    47
 10
171.63993
 20
9.04094
 11
171.13993
 21
9.04094
  0
LINE
  8
型材断面
  6
CONTINUOUS
 62
    47
 10
170.344312
 20
11.597755
 11
171.13993
 21
9.04094
  0
LINE
  8
型材断面
  6
CONTINUOUS
 10
171.63993
 20
9.49094
 11
171.63993
 21
9.04094
  0
LINE
  8
型材断面
  6
CONTINUOUS
 10
169.256765
 20
9.98109
 11
169.256762
 21
10.03109
  0
LINE
  8
型材断面
  6
CONTINUOUS
 10
169.256765
 20
9.98109
 11
168.42343
 21
9.98109
  0
LINE
  8
型材断面
  6
CONTINUOUS
 10
167.923432
 20
11.647755
 11
168.42343
 21
11.647755
  0
LINE
  8
型材断面
  6
CONTINUOUS
 10
168.42343
 20
9.98109
 11
168.42343
 21
11.647755
  0
INSERT
  2
*GRP_0002
  8
型材断面
  6
CONTINUOUS
 10
0.0
 20
0.0
  0
LINE
  8
型材断面
  6
CONTINUOUS
 10
169.256762
 20
11.597755
 11
170.344312
 21
11.597755
  0
LINE
  8
型材断面
  6
CONTINUOUS
 10
172.08993
 20
57.137903
 11
171.63993
 21
57.137903
  0
LINE
  8
型材断面
  6
CONTINUOUS
 62
    47
 10
171.63993
 20
57.587903
 11
171.13993
 21
57.587903
  0
LINE
  8
型材断面
  6
CONTINUOUS
 62
    47
 10
170.344312
 20
55.03109
 11
171.13993
 21
57.587903
  0
LINE
  8
型材断面
  6
CONTINUOUS
 10
171.63993
 20
57.137903
 11
171.63993
 21
57.587903
  0
LINE
  8
型材断面
  6
CONTINUOUS
 10
169.256765
 20
56.647753
 11
169.256762
 21
56.597753
  0
LINE
  8
型材断面
  6
CONTINUOUS
 10
169.256765
 20
56.647753
 11
168.42343
 21
56.647753
  0
LINE
  8
型材断面
  6
CONTINUOUS
 10
167.923432
 20
54.98109
 11
168.42343
 21
54.98109
  0
LINE
  8
型材断面
  6
CONTINUOUS
 10
168.42343
 20
56.647753
 11
168.42343
 21
54.98109
  0
INSERT
  2
*GRP_0003
  8
型材断面
  6
CONTINUOUS
 10
0.0
 20
0.0
  0
LINE
  8
型材断面
  6
CONTINUOUS
 10
169.256762
 20
55.03109
 11
170.344312
 21
55.03109
  0
LINE
  8
型材断面
  6
DASHDOT
 10
-24.852002
 20
-86.575325
 11
-24.852002
 21
54.98109
  0
LINE
  8
型材断面
  6
CONTINUOUS
 10
171.63993
 20
57.587903
 11
171.63993
 21
9.04094
  0
LINE
  8
型材断面
  6
CONTINUOUS
 10
171.13993
 20
57.587903
 11
171.13993
 21
9.04094
  0
LINE
  8
型材断面
  6
CONTINUOUS
 10
170.344312
 20
11.597755
 11
170.344312
 21
55.03109
  0
LINE
  8
型材断面
  6
CONTINUOUS
 10
172.08993
 20
9.49094
 11
172.08993
 21
57.137903
  0
LINE
  8
型材断面
  6
CONTINUOUS
 10
167.92343
 20
11.647755
 11
167.92343
 21
54.98109
  0
LINE
  8
型材断面
  6
CONTINUOUS
 10
169.256762
 20
9.98109
 11
169.256762
 21
56.647753
  0
LINE
  8
型材断面
  6
CONTINUOUS
 10
168.42343
 20
9.98109
 11
168.42343
 21
56.647753
  0
LINE
  8
型材断面
  6
CONTINUOUS
 10
18.97148
 20
-84.960843
 11
18.97148
 21
-84.510843
  0
LINE
  8
型材断面
  6
CONTINUOUS
 62
    47
 10
19.42148
 20
-84.510843
 11
19.42148
 21
-84.010843
  0
LINE
  8
型材断面
  6
CONTINUOUS
 62
    47
 10
16.864665
 20
-83.215225
 11
19.42148
 21
-84.010843
  0
LINE
  8
型材断面
  6
CONTINUOUS
 10
18.97148
 20
-84.510843
 11
19.42148
 21
-84.510843
  0
LINE
  8
型材断面
  6
CONTINUOUS
 10
18.48133
 20
-82.127678
 11
18.43133
 21
-82.127675
  0
LINE
  8
型材断面
  6
CONTINUOUS
 10
18.48133
 20
-82.127678
 11
18.48133
 21
-81.294343
  0
LINE
  8
型材断面
  6
CONTINUOUS
 10
16.814665
 20
-80.794345
 11
16.814665
 21
-81.294343
  0
LINE
  8
型材断面
  6
CONTINUOUS
 10
18.48133
 20
-81.294343
 11
16.814665
 21
-81.294343
  0
INSERT
  2
*GRP_0004
  8
型材断面
  6
CONTINUOUS
 10
0.0
 20
0.0
  0
LINE
  8
型材断面
  6
CONTINUOUS
 10
16.864665
 20
-82.127675
 11
16.864665
 21
-83.215225
  0
LINE
  8
型材断面
  6
CONTINUOUS
 10
15.981332
 20
32.897755
 11
16.814665
 21
32.897755
  0
LINE
  8
型材断面
  6
CONTINUOUS
 10
15.981332
 20
33.731087
 11
16.814665
 21
33.731087
  0
LINE
  8
型材断面
  6
DASHDOT
 10
16.814665
 20
-86.575325
 11
16.814665
 21
11.647755
  0
LINE
  8
型材断面
  6
DASHDOT
 10
173.704413
 20
11.647755
 11
16.814665
 21
11.647755
  0
LINE
  8
型材断面
  6
CONTINUOUS
 10
16.814665
 20
11.647755
 11
16.814665
 21
33.314422
  0
LINE
  8
型材断面
  6
CONTINUOUS
 10
15.981332
 20
32.897755
 11
15.981332
 21
12.481087
  0
LINE
  8
型材断面
  6
CONTINUOUS
 10
19.42148
 20
9.04094
 11
15.981332
 21
12.481087
  0
LINE
  8
型材断面
  6
DASHDOT
 10
173.704413
 20
54.98109
 11
16.814665
 21
54.98109
  0
LINE
  8
型材断面
  6
CONTINUOUS
 10
16.814665
 20
54.98109
 11
16.814665
 21
33.314422
  0
LINE
  8
型材断面
  6
CONTINUOUS
 10
19.42148
 20
57.587903
 11
15.981332
 21
54.147758
  0
LINE
  8
型材断面
  6
CONTINUOUS
 10
15.981332
 20
33.731087
 11
15.981332
 21
54.147758
  0
LINE
  8
型材断面
  6
CONTINUOUS
 10
19.42148
 20
9.04094
 11
19.42148
 21
57.587903
  0
LINE
  8
型材断面
  6
CONTINUOUS
 10
18.48133
 20
9.98109
 11
18.48133
 21
56.647753
  0
LINE
  8
型材断面
  6
CONTINUOUS
 10
-68.67548
 20
-84.960843
 11
-68.67548
 21
-84.510843
  0
LINE
  8
型材断面
  6
CONTINUOUS
 62
    47
 10
-69.12548
 20
-84.510843
 11
-69.12548
 21
-84.010843
  0
LINE
  8
型材断面
  6
CONTINUOUS
 62
    47
 10
-66.568667
 20
-83.215225
 11
-69.12548
 21
-84.010843
  0
LINE
  8
型材断面
  6
CONTINUOUS
 10
-68.67548
 20
-84.510843
 11
-69.12548
 21
-84.510843
  0
LINE
  8
型材断面
  6
CONTINUOUS
 10
-68.18533
 20
-82.127678
 11
-68.13533
 21
-82.127675
  0
LINE
  8
型材断面
  6
CONTINUOUS
 10
-68.18533
 20
-82.127678
 11
-68.18533
 21
-81.294343
  0
LINE
  8
型材断面
  6
CONTINUOUS
 10
-66.518667
 20
-80.794345
 11
-66.518667
 21
-81.294343
  0
LINE
  8
型材断面
  6
CONTINUOUS
 10
-68.18533
 20
-81.294343
 11
-66.518667
 21
-81.294343
  0
INSERT
  2
*GRP_0005
  8
型材断面
  6
CONTINUOUS
 10
0.0
 20
0.0
  0
LINE
  8
型材断面
  6
CONTINUOUS
 10
-66.568667
 20
-82.127675
 11
-66.568667
 21
-83.215225
  0
LINE
  8
型材断面
  6
DASHDOT
 10
173.704413
 20
33.314422
 11
-66.518667
 21
33.314422
  0
LINE
  8
型材断面
  6
CONTINUOUS
 10
-65.685335
 20
32.897755
 11
-66.518667
 21
32.897755
  0
LINE
  8
型材断面
  6
CONTINUOUS
 10
-65.685335
 20
33.731087
 11
-66.518667
 21
33.731087
  0
LINE
  8
型材断面
  6
DASHDOT
 10
-66.518667
 20
-86.575325
 11
-66.518667
 21
11.647755
  0
LINE
  8
型材断面
  6
CONTINUOUS
 10
-66.518667
 20
11.647755
 11
-66.518667
 21
33.314422
  0
LINE
  8
型材断面
  6
CONTINUOUS
 10
-65.685335
 20
32.897755
 11
-65.685335
 21
12.481087
  0
LINE
  8
型材断面
  6
CONTINUOUS
 10
-69.12548
 20
9.04094
 11
-65.685335
 21
12.481087
  0
LINE
  8
型材断面
  6
CONTINUOUS
 10
-66.518667
 20
54.98109
 11
-66.518667
 21
33.314422
  0
LINE
  8
型材断面
  6
CONTINUOUS
 10
-65.685335
 20
33.731087
 11
-65.685335
 21
54.147758
  0
LINE
  8
型材断面
  6
CONTINUOUS
 10
-69.12548
 20
57.587903
 11
-65.685335
 21
54.147758
  0
LINE
  8
型材断面
  6
CONTINUOUS
 10
-68.18533
 20
56.647753
 11
-68.18533
 21
9.98109
  0
LINE
  8
型材断面
  6
CONTINUOUS
 10
-69.12548
 20
57.587903
 11
-69.12548
 21
9.04094
  0
LINE
  8
型材断面
  6
CONTINUOUS
 10
-69.12548
 20
-84.510843
 11
19.42148
 21
-84.510843
  0
LINE
  8
型材断面
  6
CONTINUOUS
 10
-69.12548
 20
-84.010843
 11
19.42148
 21
-84.010843
  0
LINE
  8
型材断面
  6
CONTINUOUS
 10
16.864665
 20
-83.215225
 11
-66.568667
 21
-83.215225
  0
LINE
  8
型材断面
  6
CONTINUOUS
 10
18.97148
 20
-84.960843
 11
-68.67548
 21
-84.960843
  0
LINE
  8
型材断面
  6
CONTINUOUS
 10
16.814665
 20
-80.794343
 11
-66.518667
 21
-80.794343
  0
LINE
  8
型材断面
  6
CONTINUOUS
 10
18.48133
 20
-82.127675
 11
-68.18533
 21
-82.127675
  0
LINE
  8
型材断面
  6
CONTINUOUS
 10
18.48133
 20
-81.294343
 11
-68.18533
 21
-81.294343
  0
LINE
  8
型材断面
  6
CONTINUOUS
 10
18.48133
 20
9.98109
 11
-68.18533
 21
9.98109
  0
LINE
  8
型材断面
  6
CONTINUOUS
 10
19.42148
 20
9.04094
 11
-69.12548
 21
9.04094
  0
LINE
  8
型材断面
  6
CONTINUOUS
 10
16.814665
 20
11.647755
 11
-66.518667
 21
11.647755
  0
LINE
  8
型材断面
  6
CONTINUOUS
 10
18.48133
 20
56.647753
 11
-68.18533
 21
56.647753
  0
LINE
  8
型材断面
  6
CONTINUOUS
 10
19.42148
 20
57.587903
 11
-69.12548
 21
57.587903
  0
LINE
  8
型材断面
  6
CONTINUOUS
 10
16.814665
 20
54.98109
 11
-66.518667
 21
54.98109
  0
LINE
  8
型材断面
  6
CONTINUOUS
 10
-45.26867
 20
12.481087
 11
-45.26867
 21
11.647755
  0
LINE
  8
型材断面
  6
CONTINUOUS
 10
-46.102005
 20
12.481087
 11
-46.102005
 21
11.647755
  0
LINE
  8
型材断面
  6
CONTINUOUS
 10
-69.148798
 20
33.314422
 11
-71.739305
 21
34.810052
  0
LINE
  8
型材断面
  6
CONTINUOUS
 10
-69.148798
 20
33.314422
 11
-71.739305
 21
31.818793
  0
LINE
  8
型材断面
  6
CONTINUOUS
 10
-71.739305
 20
31.818793
 11
-71.739305
 21
34.810052
  0
LINE
  8
型材断面
  6
CONTINUOUS
 10
-49.852
 20
57.611218
 11
-51.34763
 21
60.201725
  0
LINE
  8
型材断面
  6
CONTINUOUS
 10
-49.852
 20
57.611218
 11
-48.35637
 21
60.201725
  0
LINE
  8
型材断面
  6
CONTINUOUS
 10
-48.35637
 20
60.201725
 11
-51.34763
 21
60.201725
  0
LINE
  8
型材断面
  6
CONTINUOUS
 10
-107.370875
 20
99.488435
 11
-108.866505
 21
96.897927
  0
LINE
  8
型材断面
  6
CONTINUOUS
 10
-107.370875
 20
99.488435
 11
-105.875245
 21
96.897927
  0
LINE
  8
型材断面
  6
CONTINUOUS
 10
-105.875245
 20
96.897927
 11
-108.866505
 21
96.897927
  0
LINE
  8
型材断面
  6
CONTINUOUS
 10
-113.393462
 20
95.959332
 11
-67.151685
 21
95.959332
  0
LINE
  8
型材断面
  6
CONTINUOUS
 10
-49.852
 20
9.017627
 11
-51.34763
 21
6.42712
  0
LINE
  8
型材断面
  6
CONTINUOUS
 10
-49.852
 20
9.017627
 11
-48.35637
 21
6.42712
  0
LINE
  8
型材断面
  6
CONTINUOUS
 10
-48.35637
 20
6.42712
 11
-51.34763
 21
6.42712
  0
LINE
  8
型材断面
  6
CONTINUOUS
 10
19.444793
 20
33.314422
 11
22.0353
 21
34.810052
  0
LINE
  8
型材断面
  6
CONTINUOUS
 10
19.444793
 20
33.314422
 11
22.0353
 21
31.818793
  0
LINE
  8
型材断面
  6
CONTINUOUS
 10
22.0353
 20
31.818793
 11
22.0353
 21
34.810052
  0
LINE
  8
型材断面
  6
CONTINUOUS
 10
0.147995
 20
57.611218
 11
1.643625
 21
60.201725
  0
LINE
  8
型材断面
  6
CONTINUOUS
 10
0.147995
 20
57.611218
 11
-1.347635
 21
60.201725
  0
LINE
  8
型材断面
  6
CONTINUOUS
 10
-1.347635
 20
60.201725
 11
1.643625
 21
60.201725
  0
LINE
  8
型材断面
  6
CONTINUOUS
 10
0.147995
 20
9.017627
 11
1.643625
 21
6.42712
  0
LINE
  8
型材断面
  6
CONTINUOUS
 10
0.147995
 20
9.017627
 11
-1.347635
 21
6.42712
  0
LINE
  8
型材断面
  6
CONTINUOUS
 10
-1.347635
 20
6.42712
 11
1.643625
 21
6.42712
  0
LINE
  8
型材断面
  6
CONTINUOUS
 10
-113.393462
 20
90.49515
 11
-67.151685
 21
90.49515
  0
LINE
  8
型材断面
  6
CONTINUOUS
 10
-23.768703
 20
13.31442
 11
-25.935335
 21
13.31442
  0
LINE
  8
型材断面
  6
CONTINUOUS
 10
-23.768703
 20
53.314425
 11
-25.935335
 21
53.314425
  0
LINE
  8
型材断面
  6
CONTINUOUS
 10
-23.768703
 20
13.31442
 11
-23.768703
 21
53.314425
  0
LINE
  8
型材断面
  6
CONTINUOUS
 10
-24.602035
 20
13.31442
 11
-24.602035
 21
53.314425
  0
LINE
  8
型材断面
  6
CONTINUOUS
 10
-25.102002
 20
13.31442
 11
-25.102002
 21
53.314425
  0
LINE
  8
型材断面
  6
CONTINUOUS
 10
-25.935335
 20
13.304725
 11
-25.935335
 21
53.314425
  0
LINE
  8
型材断面
  6
CONTINUOUS
 10
-46.102005
 20
12.481087
 11
-65.685335
 21
12.481087
  0
LINE
  8
型材断面
  6
CONTINUOUS
 10
-4.435335
 20
12.481087
 11
-4.435335
 21
11.647755
  0
LINE
  8
型材断面
  6
CONTINUOUS
 10
-3.602
 20
12.481087
 11
-3.602
 21
11.647755
  0
LINE
  8
型材断面
  6
CONTINUOUS
 10
-3.602
 20
12.481087
 11
15.98133
 21
12.481087
  0
LINE
  8
型材断面
  6
CONTINUOUS
 10
-45.26867
 20
12.481087
 11
-4.435335
 21
12.481087
  0
LINE
  8
型材断面
  6
CONTINUOUS
 10
-45.26867
 20
54.147758
 11
-45.26867
 21
54.98109
  0
LINE
  8
型材断面
  6
CONTINUOUS
 10
-46.102005
 20
54.147758
 11
-46.102005
 21
54.98109
  0
LINE
  8
型材断面
  6
CONTINUOUS
 10
-46.102005
 20
54.147758
 11
-65.685335
 21
54.147758
  0
LINE
  8
型材断面
  6
CONTINUOUS
 10
-4.435335
 20
54.147758
 11
-4.435335
 21
54.98109
  0
LINE
  8
型材断面
  6
CONTINUOUS
 10
-3.602
 20
54.147758
 11
-3.602
 21
54.98109
  0
LINE
  8
型材断面
  6
CONTINUOUS
 10
-3.602
 20
54.147758
 11
15.98133
 21
54.147758
  0
LINE
  8
型材断面
  6
CONTINUOUS
 10
-45.26867
 20
54.147758
 11
-4.435335
 21
54.147758
  0
LINE
  8
型材断面
  6
CONTINUOUS
 10
116.1213
 20
-25.258878
 11
137.258875
 21
-25.258878
  0
POLYLINE
  8
ガラス
  6
CONTINUOUS
 66
     1
 70
     1
  0
VERTEX
  8
ガラス
 10
158.583545
 20
-45.504575
  0
VERTEX
  8
ガラス
 10
117.866878
 20
-45.504575
  0
VERTEX
  8
ガラス
 10
117.866878
 20
-88.171242
  0
VERTEX
  8
ガラス
 10
158.583545
 20
-88.171242
  0
SEQEND
  0
TEXT
  7
TextStyle03
  8
文字
  6
CONTINUOUS
 10
78.1
 20
125.25
  1
シリーズ：ＳＴＦＦＫＬ
 40
5.0
 72
     5
 11
139.35
 21
125.25
  0
TEXT
  7
TextStyle03
  8
文字
  6
CONTINUOUS
 10
78.1
 20
119.625
  1
　　　　　（固定）1300×2500タイプ
 40
5.0
 72
     5
 11
173.1
 21
119.625
  0
TEXT
  7
TextStyle03
  8
文字
  6
CONTINUOUS
 10
78.1
 20
114.0
  1
図面名　：外観姿図
 40
5.0
 72
     5
 11
128.1
 21
114.0
  0
TEXT
  7
TextStyle03
  8
文字
  6
CONTINUOUS
 10
78.1
 20
108.375
  1
　　　　　　
 40
5.0
 72
     5
 11
111.225
 21
108.375
  0
TEXT
  7
TextStyle03
  8
文字
  6
CONTINUOUS
 10
-104.625
 20
97.1
  1
は排水穴位置を示す
 40
3.0
 72
     5
 11
-74.625
 21
97.1
  0
TEXT
  7
TextStyle03
  8
文字
  6
CONTINUOUS
 10
-108.35
 20
91.4
  1
アンカー数量　１２ヶ所
 40
3.0
 72
     5
 11
-71.6
 21
91.4
  0
TEXT
  7
TextStyle03
  8
文字
  6
CONTINUOUS
 10
-104.125
 20
22.225
  1
アンカーピッチ
 40
3.0
 50
90.0
 72
     5
 11
-104.125
 21
45.475
  0
TEXT
  7
TextStyle03
  8
文字
  6
CONTINUOUS
 10
-59.9
 20
93.0
  1
アンカーピッチ
 40
3.0
 72
     5
 11
-36.65
 21
93.0
  0
TEXT
  7
TextStyle03
  8
文字
  6
CONTINUOUS
 10
145.025
 20
-85.325
  1
×２枚
 40
3.0
 72
     5
 11
154.775
 21
-85.325
  0
TEXT
  7
TextStyle03
  8
文字
  6
CONTINUOUS
 10
118.175
 20
-23.8
  1
ガラス寸法
 40
3.0
 72
     5
 11
134.675
 21
-23.8
  0
INSERT
  2
*DIM_0006
  8
寸法
  6
CONTINUOUS
 10
0.0
 20
0.0
  0
INSERT
  2
*DIM_0007
  8
寸法
  6
CONTINUOUS
 10
0.0
 20
0.0
  0
INSERT
  2
*DIM_0008
  8
寸法
  6
CONTINUOUS
 10
0.0
 20
0.0
  0
INSERT
  2
*DIM_0009
  8
寸法
  6
CONTINUOUS
 10
0.0
 20
0.0
  0
INSERT
  2
*DIM_0010
  8
寸法
  6
CONTINUOUS
 10
0.0
 20
0.0
  0
INSERT
  2
*DIM_0011
  8
寸法
  6
CONTINUOUS
 10
0.0
 20
0.0
  0
INSERT
  2
*DIM_0012
  8
寸法
  6
CONTINUOUS
 10
0.0
 20
0.0
  0
INSERT
  2
*DIM_0013
  8
寸法
  6
CONTINUOUS
 10
0.0
 20
0.0
  0
INSERT
  2
*DIM_0014
  8
寸法
  6
CONTINUOUS
 10
0.0
 20
0.0
  0
INSERT
  2
*DIM_0015
  8
寸法
  6
CONTINUOUS
 10
0.0
 20
0.0
  0
INSERT
  2
*DIM_0016
  8
寸法
  6
CONTINUOUS
 10
0.0
 20
0.0
  0
INSERT
  2
*DIM_0017
  8
寸法
  6
CONTINUOUS
 10
0.0
 20
0.0
  0
INSERT
  2
*DIM_0018
  8
寸法
  6
CONTINUOUS
 10
0.0
 20
0.0
  0
INSERT
  2
*DIM_0019
  8
寸法
  6
CONTINUOUS
 10
0.0
 20
0.0
  0
INSERT
  2
*DIM_0020
  8
寸法
  6
CONTINUOUS
 10
0.0
 20
0.0
  0
LINE
  8
曲げ物
  6
CONTINUOUS
 10
-2.99604
 20
35.11718
 11
-6.691352
 21
31.421868
  0
LINE
  8
曲げ物
  6
CONTINUOUS
 10
-3.69951
 20
33.58107
 11
-5.15524
 21
32.12534
  0
LINE
  8
曲げ物
  6
CONTINUOUS
 10
-4.53215
 20
34.41371
 11
-5.98788
 21
32.95798
  0
LINE
  8
曲げ物
  6
CONTINUOUS
 10
-3.69951
 20
33.58107
 11
-5.15524
 21
32.12534
  0
LINE
  8
曲げ物
  6
CONTINUOUS
 10
-4.53215
 20
34.41371
 11
-5.98788
 21
32.95798
  0
LINE
  8
曲げ物
  6
CONTINUOUS
 10
-44.662705
 20
35.11718
 11
-48.358018
 21
31.421868
  0
LINE
  8
曲げ物
  6
CONTINUOUS
 10
-45.366175
 20
33.58107
 11
-46.821905
 21
32.12534
  0
LINE
  8
曲げ物
  6
CONTINUOUS
 10
-46.198815
 20
34.41371
 11
-47.654545
 21
32.95798
  0
LINE
  8
曲げ物
  6
CONTINUOUS
 10
-45.366175
 20
33.58107
 11
-46.821905
 21
32.12534
  0
LINE
  8
曲げ物
  6
CONTINUOUS
 10
-46.198815
 20
34.41371
 11
-47.654545
 21
32.95798
  0
LINE
  8
St
  6
CONTINUOUS
 62
    47
 10
171.63993
 20
9.49094
 11
171.63993
 21
9.04094
  0
LINE
  8
St
  6
CONTINUOUS
 62
    47
 10
171.63993
 20
57.137903
 11
171.63993
 21
57.587903
  0
LINE
  8
St
  6
CONTINUOUS
 62
    47
 10
18.97148
 20
-84.510843
 11
19.42148
 21
-84.510843
  0
LINE
  8
St
  6
CONTINUOUS
 62
    47
 10
-68.67548
 20
-84.510843
 11
-69.12548
 21
-84.510843
  0
ENDSEC
  0
EOF
