  0
SECTION
  2
HEADER
  9
$EXTMIN
 10
-210.0
 20
-148.5
  9
$EXTMAX
 10
210.0
 20
148.5
  9
$PDMODE
 70
    32
  9
$PDSIZE
 40
1.5
  9
$LTSCALE
 40
10.0
  0
ENDSEC
  0
SECTION
  2
TABLES
  0
TABLE
  2
LTYPE
 70
    15
  0
LTYPE
  2
CONTINUOUS
 70
    64
  3
実線
 72
    65
 73
     0
 40
0.0
  0
LTYPE
  2
DASHED
 70
    64
  3
破線A
 72
    65
 73
     2
 40
0.6
 49
0.4
 49
-0.2
  0
LTYPE
  2
DASHEDX2
 70
    64
  3
破線B
 72
    65
 73
     2
 40
1.3
 49
0.9
 49
-0.4
  0
LTYPE
  2
DASHDOT
 70
    64
  3
１点鎖線A
 72
    65
 73
     4
 40
0.5375
 49
0.375
 49
-0.05
 49
0.0625
 49
-0.05
  0
LTYPE
  2
DASHDOTX2
 70
    64
  3
１点鎖線B
 72
    65
 73
     4
 40
1.075
 49
0.75
 49
-0.1
 49
0.125
 49
-0.1
  0
LTYPE
  2
DIVIDE2
 70
    64
  3
２点鎖線A
 72
    65
 73
     6
 40
0.5125
 49
0.3
 49
-0.0375
 49
0.05
 49
-0.0375
 49
0.05
 49
-0.0375
  0
LTYPE
  2
DIVIDE
 70
    64
  3
２点鎖線B
 72
    65
 73
     6
 40
1.05
 49
0.55
 49
-0.1
 49
0.1
 49
-0.1
 49
0.1
 49
-0.1
  0
LTYPE
  2
DOT
 70
    64
  3
点線A
 72
    65
 73
     2
 40
0.1125
 49
0.0625
 49
-0.05
  0
LTYPE
  2
DOTX2
 70
    64
  3
点線B
 72
    65
 73
     2
 40
0.275
 49
0.15
 49
-0.125
  0
LTYPE
  2
CONTINUOUS
 70
    64
  3
実線
 72
    65
 73
     0
 40
0.0
  0
LTYPE
  2
CONTINUOUS
 70
    64
  3
実線
 72
    65
 73
     0
 40
0.0
  0
LTYPE
  2
CONTINUOUS
 70
    64
  3
実線
 72
    65
 73
     0
 40
0.0
  0
LTYPE
  2
CONTINUOUS
 70
    64
  3
実線
 72
    65
 73
     0
 40
0.0
  0
LTYPE
  2
CONTINUOUS
 70
    64
  3
実線
 72
    65
 73
     0
 40
0.0
  0
LTYPE
  2
CONTINUOUS
 70
    64
  3
実線
 72
    65
 73
     0
 40
0.0
  0
ENDTAB
  0
TABLE
  2
LAYER
 70
    34
  0
LAYER
  2
通り芯
 70
     0
 62
    15
  6
CONTINUOUS
  0
LAYER
  2
補助線
 70
     0
 62
    16
  6
DOT
  0
LAYER
  2
躯体
 70
     0
 62
    31
  6
CONTINUOUS
  0
LAYER
  2
型材
 70
     0
 62
    32
  6
CONTINUOUS
  0
LAYER
  2
型材断面
 70
     0
 62
    47
  6
CONTINUOUS
  0
LAYER
  2
ガラス
 70
     0
 62
    48
  6
CONTINUOUS
  0
LAYER
  2
ゴム等
 70
     0
 62
    63
  6
CONTINUOUS
  0
LAYER
  2
ボルト／ビス
 70
     0
 62
    64
  6
CONTINUOUS
  0
LAYER
  2
文字
 70
     0
 62
    79
  6
CONTINUOUS
  0
LAYER
  2
寸法
 70
     0
 62
    80
  6
CONTINUOUS
  0
LAYER
  2
ﾊｯﾁﾝｸﾞ
 70
     0
 62
    95
  6
CONTINUOUS
  0
LAYER
  2
別途部材
 70
     0
 62
    96
  6
CONTINUOUS
  0
LAYER
  2
曲げ物
 70
     0
 62
   111
  6
CONTINUOUS
  0
LAYER
  2
鉄骨等
 70
     0
 62
   112
  6
CONTINUOUS
  0
LAYER
  2
St
 70
     0
 62
   127
  6
CONTINUOUS
  0
LAYER
  2
その他部品等
 70
     0
 62
   128
  6
CONTINUOUS
  0
LAYER
  2
ｶﾞｽｹｯﾄ
 70
     0
 62
   143
  6
CONTINUOUS
  0
LAYER
  2
ｽｹｯﾁ
 70
     0
 62
    14
  6
CONTINUOUS
  0
LAYER
  2
0
 70
     0
 62
    17
  6
CONTINUOUS
  0
LAYER
  2
1
 70
     0
 62
    30
  6
CONTINUOUS
  0
LAYER
  2
4
 70
     0
 62
    33
  6
CONTINUOUS
  0
LAYER
  2
ﾚｲﾔ3
 70
     0
 62
    46
  6
CONTINUOUS
  0
LAYER
  2
外形線
 70
     0
 62
    49
  6
CONTINUOUS
  0
LAYER
  2
部品
 70
     0
 62
    14
  6
CONTINUOUS
  0
LAYER
  2
サッシ芯
 70
     0
 62
    17
  6
DASHDOTX2
  0
LAYER
  2
寸法線
 70
     0
 62
    62
  6
CONTINUOUS
  0
LAYER
  2
姿図外形線
 70
     0
 62
    65
  6
CONTINUOUS
  0
LAYER
  2
姿補助線
 70
     0
 62
    30
  6
CONTINUOUS
  0
LAYER
  2
透視線
 70
     0
 62
    78
  6
DOT
  0
LAYER
  2
用紙
 70
     0
 62
    81
  6
CONTINUOUS
  0
LAYER
  2
実線図枠
 70
     0
 62
    94
  6
CONTINUOUS
  0
LAYER
  2
補助図枠
 70
     0
 62
    97
  6
CONTINUOUS
  0
LAYER
  2
建具記号
 70
     0
 62
   110
  6
CONTINUOUS
  0
LAYER
  2
補助文字
 70
     0
 62
   113
  6
CONTINUOUS
  0
ENDTAB
  0
TABLE
  2
STYLE
 70
    10
  0
STYLE
  2
STANDARD
 70
     0
 40
1.0
 41
1.0
 42
1.0
 50
0.0
 71
     0
  3
TXT
  4
BIGFONT
  0
STYLE
  2
TATE
 70
     4
 40
1.0
 41
1.0
 42
1.0
 50
0.0
 71
     0
  3
TXT
  4
BIGFONT
  0
STYLE
  2
TextStyle03
 70
     0
 40
1.0
 41
1.0
 42
1.0
 50
0.0
 71
     0
  3
MONOTXT
  4
BIGFONT
  0
STYLE
  2
TextStyle04
 70
     0
 40
1.0
 41
1.0
 42
1.0
 50
0.0
 71
     0
  3
MONOTXT
  4
BIGFONT
  0
STYLE
  2
TextStyle05
 70
     0
 40
1.0
 41
1.0
 42
1.0
 50
0.0
 71
     0
  3
MONOTXT
  4
BIGFONT
  0
STYLE
  2
TextStyle06
 70
     0
 40
1.0
 41
1.0
 42
1.0
 50
0.0
 71
     0
  3
MONOTXT
  4
BIGFONT
  0
STYLE
  2
TextStyle07
 70
     0
 40
1.0
 41
1.0
 42
1.0
 50
0.0
 71
     0
  3
MONOTXT
  4
BIGFONT
  0
STYLE
  2
TextStyle08
 70
     0
 40
1.0
 41
1.0
 42
1.0
 50
0.0
 71
     0
  3
MONOTXT
  4
BIGFONT
  0
STYLE
  2
TextStyle09
 70
     0
 40
1.0
 41
1.0
 42
1.0
 50
0.0
 71
     0
  3
MONOTXT
  4
BIGFONT
  0
STYLE
  2
TextStyle10
 70
     0
 40
1.0
 41
1.0
 42
1.0
 50
0.0
 71
     0
  3
MONOTXT
  4
BIGFONT
  0
ENDTAB
  0
ENDSEC
  0
SECTION
  2
BLOCKS
  0
BLOCK
  2
*GRP_0001
 70
    65
 10
0.0
 20
0.0
  0
LINE
  8
型材断面
  6
CONTINUOUS
 10
195.0
 20
133.5
 11
195.0
 21
-133.5
  0
LINE
  8
型材断面
  6
CONTINUOUS
 10
195.0
 20
-133.5
 11
-185.0
 21
-133.5
  0
LINE
  8
型材断面
  6
CONTINUOUS
 10
-185.0
 20
-133.5
 11
-185.0
 21
133.5
  0
LINE
  8
型材断面
  6
CONTINUOUS
 10
195.0
 20
133.5
 11
-185.0
 21
133.5
  0
LINE
  8
型材断面
  6
CONTINUOUS
 10
145.0
 20
-133.5
 11
145.0
 21
-118.5
  0
LINE
  8
型材断面
  6
CONTINUOUS
 10
195.0
 20
-118.5
 11
145.0
 21
-118.5
  0
ENDBLK
  0
BLOCK
  2
*GRP_0002
 70
    65
 10
0.0
 20
0.0
  0
LINE
  8
ボルト／ビス
  6
CONTINUOUS
 10
168.42343
 20
10.61442
 11
168.356765
 21
10.61442
  0
LINE
  8
ボルト／ビス
  6
CONTINUOUS
 10
168.356765
 20
10.61442
 11
168.356765
 21
11.34775
  0
LINE
  8
ボルト／ビス
  6
CONTINUOUS
 10
168.356765
 20
11.34775
 11
168.42343
 21
11.34775
  0
LINE
  8
ボルト／ビス
  6
CONTINUOUS
 10
168.42343
 20
10.61442
 11
168.42343
 21
11.34775
  0
LINE
  8
ボルト／ビス
  6
CONTINUOUS
 10
168.32343
 20
10.681085
 11
168.356765
 21
10.681085
  0
LINE
  8
ボルト／ビス
  6
CONTINUOUS
 10
168.32343
 20
10.681085
 11
168.32343
 21
11.281085
  0
LINE
  8
ボルト／ビス
  6
CONTINUOUS
 10
168.32343
 20
11.281085
 11
168.356762
 21
11.281085
  0
LINE
  8
ボルト／ビス
  6
CONTINUOUS
 62
    64
 10
168.12343
 20
10.82071
 11
168.135105
 21
10.788635
  0
ARC
  8
ボルト／ビス
  6
CONTINUOUS
 62
    64
 10
168.22841
 20
10.836748
 40
0.104978
 50
152.721989
 51
180.000022
  0
ARC
  8
ボルト／ビス
  6
CONTINUOUS
 62
    64
 10
168.525833
 20
10.981086
 40
0.402401
 50
166.165024
 51
193.835007
  0
LINE
  8
ボルト／ビス
  6
CONTINUOUS
 62
    64
 10
168.12343
 20
11.14146
 11
168.135105
 21
11.173535
  0
ARC
  8
ボルト／ビス
  6
CONTINUOUS
 62
    64
 10
168.22841
 20
11.125423
 40
0.104978
 50
180.000022
 51
207.278055
  0
LINE
  8
ボルト／ビス
  6
CONTINUOUS
 62
    64
 10
168.12343
 20
10.82071
 11
168.12343
 21
11.14146
  0
LINE
  8
ボルト／ビス
  6
CONTINUOUS
 62
    64
 10
168.135105
 20
11.173535
 11
168.256762
 21
11.173535
  0
LINE
  8
ボルト／ビス
  6
CONTINUOUS
 62
    64
 10
168.135105
 20
11.07731
 11
168.256765
 21
11.07731
  0
LINE
  8
ボルト／ビス
  6
CONTINUOUS
 62
    64
 10
168.135105
 20
10.788635
 11
168.256762
 21
10.788635
  0
LINE
  8
ボルト／ビス
  6
CONTINUOUS
 62
    64
 10
168.135105
 20
10.88486
 11
168.256762
 21
10.88486
  0
LINE
  8
ボルト／ビス
  6
CONTINUOUS
 10
168.256762
 20
10.788635
 11
168.256762
 21
11.173535
  0
LINE
  8
ボルト／ビス
  6
CONTINUOUS
 10
168.256762
 20
10.781085
 11
168.32343
 21
10.781085
  0
LINE
  8
ボルト／ビス
  6
CONTINUOUS
 10
168.256762
 20
10.781085
 11
168.256762
 21
11.181085
  0
LINE
  8
ボルト／ビス
  6
CONTINUOUS
 10
168.256762
 20
11.181085
 11
168.32343
 21
11.181085
  0
LINE
  8
ボルト／ビス
  6
CONTINUOUS
 62
    64
 10
168.42343
 20
11.081085
 11
168.42343
 21
11.081085
  0
ENDBLK
  0
BLOCK
  2
*GRP_0003
 70
    65
 10
0.0
 20
0.0
  0
LINE
  8
ボルト／ビス
  6
CONTINUOUS
 10
168.42343
 20
56.014425
 11
168.356765
 21
56.014425
  0
LINE
  8
ボルト／ビス
  6
CONTINUOUS
 10
168.356765
 20
56.014425
 11
168.356765
 21
55.281092
  0
LINE
  8
ボルト／ビス
  6
CONTINUOUS
 10
168.356765
 20
55.281092
 11
168.42343
 21
55.281092
  0
LINE
  8
ボルト／ビス
  6
CONTINUOUS
 10
168.42343
 20
56.014425
 11
168.42343
 21
55.281092
  0
LINE
  8
ボルト／ビス
  6
CONTINUOUS
 10
168.32343
 20
55.947758
 11
168.356765
 21
55.947758
  0
LINE
  8
ボルト／ビス
  6
CONTINUOUS
 10
168.32343
 20
55.947758
 11
168.32343
 21
55.34776
  0
LINE
  8
ボルト／ビス
  6
CONTINUOUS
 10
168.32343
 20
55.34776
 11
168.356762
 21
55.34776
  0
LINE
  8
ボルト／ビス
  6
CONTINUOUS
 62
    64
 10
168.12343
 20
55.808135
 11
168.135105
 21
55.840207
  0
ARC
  8
ボルト／ビス
  6
CONTINUOUS
 62
    64
 10
168.22841
 20
55.792094
 40
0.104978
 50
179.999978
 51
207.278011
  0
ARC
  8
ボルト／ビス
  6
CONTINUOUS
 62
    64
 10
168.525833
 20
55.647757
 40
0.402401
 50
166.164993
 51
193.834976
  0
LINE
  8
ボルト／ビス
  6
CONTINUOUS
 62
    64
 10
168.12343
 20
55.487385
 11
168.135105
 21
55.455307
  0
ARC
  8
ボルト／ビス
  6
CONTINUOUS
 62
    64
 10
168.22841
 20
55.50342
 40
0.104978
 50
152.721945
 51
179.999978
  0
LINE
  8
ボルト／ビス
  6
CONTINUOUS
 62
    64
 10
168.12343
 20
55.808135
 11
168.12343
 21
55.487385
  0
LINE
  8
ボルト／ビス
  6
CONTINUOUS
 62
    64
 10
168.135105
 20
55.455307
 11
168.256762
 21
55.455307
  0
LINE
  8
ボルト／ビス
  6
CONTINUOUS
 62
    64
 10
168.135105
 20
55.551535
 11
168.256765
 21
55.551535
  0
LINE
  8
ボルト／ビス
  6
CONTINUOUS
 62
    64
 10
168.135105
 20
55.840207
 11
168.256762
 21
55.840207
  0
LINE
  8
ボルト／ビス
  6
CONTINUOUS
 62
    64
 10
168.135105
 20
55.743982
 11
168.256762
 21
55.743982
  0
LINE
  8
ボルト／ビス
  6
CONTINUOUS
 10
168.256762
 20
55.840207
 11
168.256762
 21
55.455307
  0
LINE
  8
ボルト／ビス
  6
CONTINUOUS
 10
168.256762
 20
55.847758
 11
168.32343
 21
55.847758
  0
LINE
  8
ボルト／ビス
  6
CONTINUOUS
 10
168.256762
 20
55.847758
 11
168.256762
 21
55.44776
  0
LINE
  8
ボルト／ビス
  6
CONTINUOUS
 10
168.256762
 20
55.44776
 11
168.32343
 21
55.44776
  0
LINE
  8
ボルト／ビス
  6
CONTINUOUS
 62
    64
 10
168.42343
 20
55.54776
 11
168.42343
 21
55.54776
  0
ENDBLK
  0
BLOCK
  2
*GRP_0004
 70
    65
 10
0.0
 20
0.0
  0
LINE
  8
ボルト／ビス
  6
CONTINUOUS
 10
26.181332
 20
-81.294343
 11
26.181332
 21
-81.227678
  0
LINE
  8
ボルト／ビス
  6
CONTINUOUS
 10
26.181332
 20
-81.227678
 11
25.448003
 21
-81.227678
  0
LINE
  8
ボルト／ビス
  6
CONTINUOUS
 10
25.448003
 20
-81.227678
 11
25.448003
 21
-81.294343
  0
LINE
  8
ボルト／ビス
  6
CONTINUOUS
 10
26.181332
 20
-81.294343
 11
25.448003
 21
-81.294343
  0
LINE
  8
ボルト／ビス
  6
CONTINUOUS
 10
26.114667
 20
-81.194343
 11
26.114667
 21
-81.227678
  0
LINE
  8
ボルト／ビス
  6
CONTINUOUS
 10
26.114667
 20
-81.194343
 11
25.514667
 21
-81.194343
  0
LINE
  8
ボルト／ビス
  6
CONTINUOUS
 10
25.514667
 20
-81.194343
 11
25.514667
 21
-81.227675
  0
LINE
  8
ボルト／ビス
  6
CONTINUOUS
 62
    64
 10
25.975043
 20
-80.994343
 11
26.007117
 21
-81.006017
  0
ARC
  8
ボルト／ビス
  6
CONTINUOUS
 62
    64
 10
25.959003
 20
-81.099323
 40
0.104978
 50
89.999978
 51
117.278011
  0
ARC
  8
ボルト／ビス
  6
CONTINUOUS
 62
    64
 10
25.814666
 20
-81.396746
 40
0.402401
 50
76.164993
 51
103.834976
  0
LINE
  8
ボルト／ビス
  6
CONTINUOUS
 62
    64
 10
25.654292
 20
-80.994343
 11
25.622218
 21
-81.006017
  0
ARC
  8
ボルト／ビス
  6
CONTINUOUS
 62
    64
 10
25.670329
 20
-81.099323
 40
0.104978
 50
62.721945
 51
89.999978
  0
LINE
  8
ボルト／ビス
  6
CONTINUOUS
 62
    64
 10
25.975043
 20
-80.994343
 11
25.654292
 21
-80.994343
  0
LINE
  8
ボルト／ビス
  6
CONTINUOUS
 62
    64
 10
25.622218
 20
-81.006017
 11
25.622218
 21
-81.127675
  0
LINE
  8
ボルト／ビス
  6
CONTINUOUS
 62
    64
 10
25.718442
 20
-81.006017
 11
25.718442
 21
-81.127678
  0
LINE
  8
ボルト／ビス
  6
CONTINUOUS
 62
    64
 10
26.007117
 20
-81.006017
 11
26.007117
 21
-81.127675
  0
LINE
  8
ボルト／ビス
  6
CONTINUOUS
 62
    64
 10
25.910893
 20
-81.006017
 11
25.910893
 21
-81.127675
  0
LINE
  8
ボルト／ビス
  6
CONTINUOUS
 10
26.007117
 20
-81.127675
 11
25.622218
 21
-81.127675
  0
LINE
  8
ボルト／ビス
  6
CONTINUOUS
 10
26.014667
 20
-81.127675
 11
26.014667
 21
-81.194343
  0
LINE
  8
ボルト／ビス
  6
CONTINUOUS
 10
26.014667
 20
-81.127675
 11
25.614667
 21
-81.127675
  0
LINE
  8
ボルト／ビス
  6
CONTINUOUS
 10
25.614667
 20
-81.127675
 11
25.614667
 21
-81.194343
  0
LINE
  8
ボルト／ビス
  6
CONTINUOUS
 62
    64
 10
25.714667
 20
-81.294343
 11
25.714667
 21
-81.294343
  0
ENDBLK
  0
BLOCK
  2
*GRP_0005
 70
    65
 10
0.0
 20
0.0
  0
LINE
  8
ボルト／ビス
  6
CONTINUOUS
 10
-75.885335
 20
-81.294343
 11
-75.885335
 21
-81.227678
  0
LINE
  8
ボルト／ビス
  6
CONTINUOUS
 10
-75.885335
 20
-81.227678
 11
-75.152002
 21
-81.227678
  0
LINE
  8
ボルト／ビス
  6
CONTINUOUS
 10
-75.152002
 20
-81.227678
 11
-75.152002
 21
-81.294343
  0
LINE
  8
ボルト／ビス
  6
CONTINUOUS
 10
-75.885335
 20
-81.294343
 11
-75.152002
 21
-81.294343
  0
LINE
  8
ボルト／ビス
  6
CONTINUOUS
 10
-75.818667
 20
-81.194343
 11
-75.818667
 21
-81.227678
  0
LINE
  8
ボルト／ビス
  6
CONTINUOUS
 10
-75.818667
 20
-81.194343
 11
-75.21867
 21
-81.194343
  0
LINE
  8
ボルト／ビス
  6
CONTINUOUS
 10
-75.21867
 20
-81.194343
 11
-75.21867
 21
-81.227675
  0
LINE
  8
ボルト／ビス
  6
CONTINUOUS
 62
    64
 10
-75.679045
 20
-80.994343
 11
-75.711118
 21
-81.006017
  0
ARC
  8
ボルト／ビス
  6
CONTINUOUS
 62
    64
 10
-75.663005
 20
-81.099323
 40
0.104978
 50
62.721989
 51
90.000022
  0
ARC
  8
ボルト／ビス
  6
CONTINUOUS
 62
    64
 10
-75.518668
 20
-81.396746
 40
0.402401
 50
76.165024
 51
103.835007
  0
LINE
  8
ボルト／ビス
  6
CONTINUOUS
 62
    64
 10
-75.358295
 20
-80.994343
 11
-75.326217
 21
-81.006017
  0
ARC
  8
ボルト／ビス
  6
CONTINUOUS
 62
    64
 10
-75.37433
 20
-81.099323
 40
0.104978
 50
90.000022
 51
117.278055
  0
LINE
  8
ボルト／ビス
  6
CONTINUOUS
 62
    64
 10
-75.679045
 20
-80.994343
 11
-75.358295
 21
-80.994343
  0
LINE
  8
ボルト／ビス
  6
CONTINUOUS
 62
    64
 10
-75.326217
 20
-81.006017
 11
-75.326217
 21
-81.127675
  0
LINE
  8
ボルト／ビス
  6
CONTINUOUS
 62
    64
 10
-75.422445
 20
-81.006017
 11
-75.422445
 21
-81.127678
  0
LINE
  8
ボルト／ビス
  6
CONTINUOUS
 62
    64
 10
-75.711118
 20
-81.006017
 11
-75.711118
 21
-81.127675
  0
LINE
  8
ボルト／ビス
  6
CONTINUOUS
 62
    64
 10
-75.614893
 20
-81.006017
 11
-75.614893
 21
-81.127675
  0
LINE
  8
ボルト／ビス
  6
CONTINUOUS
 10
-75.711118
 20
-81.127675
 11
-75.326217
 21
-81.127675
  0
LINE
  8
ボルト／ビス
  6
CONTINUOUS
 10
-75.718667
 20
-81.127675
 11
-75.718667
 21
-81.194343
  0
LINE
  8
ボルト／ビス
  6
CONTINUOUS
 10
-75.718667
 20
-81.127675
 11
-75.31867
 21
-81.127675
  0
LINE
  8
ボルト／ビス
  6
CONTINUOUS
 10
-75.31867
 20
-81.127675
 11
-75.31867
 21
-81.194343
  0
LINE
  8
ボルト／ビス
  6
CONTINUOUS
 62
    64
 10
-75.41867
 20
-81.294343
 11
-75.41867
 21
-81.294343
  0
ENDBLK
  0
BLOCK
  2
*DIM_0006
 70
    65
 10
0.0
 20
0.0
  0
LINE
  8
寸法
  6
CONTINUOUS
 10
166.13993
 20
9.040942
 11
151.055333
 21
9.040942
  0
LINE
  8
寸法
  6
CONTINUOUS
 10
151.055333
 20
11.647755
 11
151.055333
 21
9.040942
  0
POINT
  8
寸法
 10
151.055333
 20
11.647755
  0
POINT
  8
寸法
 10
151.055333
 20
9.040942
  0
TEXT
  7
TextStyle03
  8
寸法
  6
CONTINUOUS
 10
150.65
 20
0.31875
  1
78.2
 40
3.0
 50
90.0
 72
     5
 11
150.65
 21
6.88125
  0
ENDBLK
  0
BLOCK
  2
*DIM_0007
 70
    65
 10
0.0
 20
0.0
  0
LINE
  8
寸法
  6
CONTINUOUS
 10
166.13993
 20
57.587905
 11
151.055333
 21
57.587905
  0
LINE
  8
寸法
  6
CONTINUOUS
 10
151.055333
 20
54.98109
 11
151.055333
 21
57.587905
  0
POINT
  8
寸法
 10
151.055333
 20
54.98109
  0
POINT
  8
寸法
 10
151.055333
 20
57.587905
  0
TEXT
  7
TextStyle03
  8
寸法
  6
CONTINUOUS
 10
150.65
 20
59.76875
  1
78.2
 40
3.0
 50
90.0
 72
     5
 11
150.65
 21
66.33125
  0
ENDBLK
  0
BLOCK
  2
*DIM_0008
 70
    65
 10
0.0
 20
0.0
  0
LINE
  8
寸法
  6
CONTINUOUS
 10
151.055333
 20
11.647755
 11
151.055333
 21
54.98109
  0
POINT
  8
寸法
 10
151.055333
 20
11.647755
  0
POINT
  8
寸法
 10
151.055333
 20
54.98109
  0
TEXT
  7
TextStyle03
  8
寸法
  6
CONTINUOUS
 10
150.65
 20
21.60625
  1
呼称寸法　1300
 40
3.0
 50
90.0
 72
     5
 11
150.65
 21
45.04375
  0
ENDBLK
  0
BLOCK
  2
*DIM_0009
 70
    65
 10
0.0
 20
0.0
  0
LINE
  8
寸法
  6
CONTINUOUS
 10
171.63993
 20
4.04094
 11
171.63993
 21
-4.223383
  0
LINE
  8
寸法
  6
CONTINUOUS
 10
167.923432
 20
6.647755
 11
167.923432
 21
-4.223383
  0
LINE
  8
寸法
  6
CONTINUOUS
 10
171.63993
 20
-4.223383
 11
167.923432
 21
-4.223383
  0
POINT
  8
寸法
 10
171.63993
 20
-4.223383
  0
POINT
  8
寸法
 10
167.923432
 20
-4.223383
  0
TEXT
  7
TextStyle03
  8
寸法
  6
CONTINUOUS
 10
165.625
 20
-7.225
  1
111.5
 40
3.0
 50
360.0
 72
     5
 11
173.875
 21
-7.225
  0
ENDBLK
  0
BLOCK
  2
*DIM_0010
 70
    65
 10
0.0
 20
0.0
  0
LINE
  8
寸法
  6
CONTINUOUS
 10
27.754812
 20
-79.010843
 11
27.754812
 21
-63.926245
  0
LINE
  8
寸法
  6
CONTINUOUS
 10
25.147998
 20
-63.926245
 11
27.754812
 21
-63.926245
  0
POINT
  8
寸法
 10
25.147998
 20
-63.926245
  0
POINT
  8
寸法
 10
27.754812
 20
-63.926245
  0
TEXT
  7
TextStyle03
  8
寸法
  6
CONTINUOUS
 10
29.89375
 20
-63.55
  1
78.2
 40
3.0
 72
     5
 11
36.45625
 21
-63.55
  0
ENDBLK
  0
BLOCK
  2
*DIM_0011
 70
    65
 10
0.0
 20
0.0
  0
LINE
  8
寸法
  6
CONTINUOUS
 10
32.754812
 20
-84.510843
 11
41.019135
 21
-84.510843
  0
LINE
  8
寸法
  6
CONTINUOUS
 10
30.147998
 20
-80.794345
 11
41.019135
 21
-80.794345
  0
LINE
  8
寸法
  6
CONTINUOUS
 10
41.019135
 20
-84.510843
 11
41.019135
 21
-80.794345
  0
POINT
  8
寸法
 10
41.019135
 20
-84.510843
  0
POINT
  8
寸法
 10
41.019135
 20
-80.794345
  0
TEXT
  7
TextStyle03
  8
寸法
  6
CONTINUOUS
 10
44.0
 20
-86.775
  1
111.5
 40
3.0
 50
90.0
 72
     5
 11
44.0
 21
-78.525
  0
ENDBLK
  0
BLOCK
  2
*DIM_0012
 70
    65
 10
0.0
 20
0.0
  0
LINE
  8
寸法
  6
CONTINUOUS
 10
-77.458813
 20
-79.010843
 11
-77.458813
 21
-63.926245
  0
LINE
  8
寸法
  6
CONTINUOUS
 10
-74.852
 20
-63.926245
 11
-77.458813
 21
-63.926245
  0
POINT
  8
寸法
 10
-74.852
 20
-63.926245
  0
POINT
  8
寸法
 10
-77.458813
 20
-63.926245
  0
TEXT
  7
TextStyle03
  8
寸法
  6
CONTINUOUS
 10
-86.20625
 20
-63.55
  1
78.2
 40
3.0
 72
     5
 11
-79.64375
 21
-63.55
  0
ENDBLK
  0
BLOCK
  2
*DIM_0013
 70
    65
 10
0.0
 20
0.0
  0
LINE
  8
寸法
  6
CONTINUOUS
 10
25.147998
 20
-63.926245
 11
-74.852
 21
-63.926245
  0
POINT
  8
寸法
 10
25.147998
 20
-63.926245
  0
POINT
  8
寸法
 10
-74.852
 20
-63.926245
  0
TEXT
  7
TextStyle03
  8
寸法
  6
CONTINUOUS
 10
-36.59375
 20
-63.55
  1
呼称寸法　3000
 40
3.0
 72
     5
 11
-13.15625
 21
-63.55
  0
ENDBLK
  0
BLOCK
  2
*DIM_0014
 70
    65
 10
0.0
 20
0.0
  0
LINE
  8
寸法
  6
BYBLOCK
 62
     0
 10
-58.185335
 20
8.017627
 11
-58.185335
 21
3.446735
  0
LINE
  8
寸法
  6
BYBLOCK
 62
     0
 10
8.48133
 20
8.017627
 11
8.48133
 21
3.446735
  0
LINE
  8
寸法
  6
BYBLOCK
 62
     0
 10
-58.185335
 20
3.446735
 11
8.48133
 21
3.446735
  0
POINT
  8
寸法
 62
     0
 10
-58.185335
 20
3.446735
  0
POINT
  8
寸法
 62
     0
 10
8.48133
 20
3.446735
  0
TEXT
  7
TextStyle03
  8
寸法
  6
CONTINUOUS
 62
     0
 10
-28.15625
 20
3.8
  1
2000
 40
3.0
 72
     5
 11
-21.59375
 21
3.8
  0
ENDBLK
  0
BLOCK
  2
*DIM_0015
 70
    65
 10
0.0
 20
0.0
  0
LINE
  8
寸法
  6
BYBLOCK
 62
     0
 10
-77.852002
 20
21.647755
 11
-106.797167
 21
21.647755
  0
LINE
  8
寸法
  6
BYBLOCK
 62
     0
 10
-77.852002
 20
44.98109
 11
-106.797167
 21
44.98109
  0
LINE
  8
寸法
  6
BYBLOCK
 62
     0
 10
-106.797167
 20
21.647755
 11
-106.797167
 21
44.98109
  0
POINT
  8
寸法
 62
     0
 10
-106.797167
 20
21.647755
  0
POINT
  8
寸法
 62
     0
 10
-106.797167
 20
44.98109
  0
TEXT
  7
TextStyle03
  8
寸法
  6
CONTINUOUS
 62
     0
 10
-107.25
 20
30.8625
  1
700
 40
3.0
 50
90.0
 72
     5
 11
-107.25
 21
35.7375
  0
ENDBLK
  0
BLOCK
  2
*DIM_0016
 70
    65
 10
0.0
 20
0.0
  0
LINE
  8
寸法
  6
BYBLOCK
 62
     0
 10
-64.852002
 20
57.981087
 11
-64.852002
 21
87.08916
  0
LINE
  8
寸法
  6
BYBLOCK
 62
     0
 10
-38.185335
 20
57.981087
 11
-38.185335
 21
87.08916
  0
LINE
  8
寸法
  6
BYBLOCK
 62
     0
 10
-64.852002
 20
87.08916
 11
-38.185335
 21
87.08916
  0
POINT
  8
寸法
 62
     0
 10
-64.852002
 20
87.08916
  0
POINT
  8
寸法
 62
     0
 10
-38.185335
 20
87.08916
  0
TEXT
  7
TextStyle03
  8
寸法
  6
CONTINUOUS
 62
     0
 10
-53.9875
 20
87.45
  1
800
 40
3.0
 72
     5
 11
-49.1125
 21
87.45
  0
ENDBLK
  0
BLOCK
  2
*DIM_0017
 70
    65
 10
0.0
 20
0.0
  0
LINE
  8
寸法
  6
BYBLOCK
 62
     0
 10
-11.51867
 20
57.981087
 11
-11.51867
 21
87.08916
  0
LINE
  8
寸法
  6
BYBLOCK
 62
     0
 10
-38.185335
 20
87.08916
 11
-11.51867
 21
87.08916
  0
POINT
  8
寸法
 62
     0
 10
-11.51867
 20
87.08916
  0
TEXT
  7
TextStyle03
  8
寸法
  6
CONTINUOUS
 62
     0
 10
-27.3125
 20
87.45
  1
800
 40
3.0
 72
     5
 11
-22.4375
 21
87.45
  0
ENDBLK
  0
BLOCK
  2
*DIM_0018
 70
    65
 10
0.0
 20
0.0
  0
LINE
  8
寸法
  6
BYBLOCK
 62
     0
 10
15.147998
 20
57.981087
 11
15.147998
 21
87.08916
  0
LINE
  8
寸法
  6
BYBLOCK
 62
     0
 10
-11.51867
 20
87.08916
 11
15.147998
 21
87.08916
  0
POINT
  8
寸法
 62
     0
 10
15.147998
 20
87.08916
  0
TEXT
  7
TextStyle03
  8
寸法
  6
CONTINUOUS
 62
     0
 10
-0.6375
 20
87.45
  1
800
 40
3.0
 72
     5
 11
4.2375
 21
87.45
  0
ENDBLK
  0
BLOCK
  2
*DIM_0019
 70
    65
 10
0.0
 20
0.0
  0
LINE
  8
寸法
  6
CONTINUOUS
 10
126.643625
 20
-47.834375
 11
126.643625
 21
-37.5899
  0
LINE
  8
寸法
  6
CONTINUOUS
 10
158.933625
 20
-47.834375
 11
158.933625
 21
-37.5899
  0
LINE
  8
寸法
  6
CONTINUOUS
 10
126.643625
 20
-37.5899
 11
158.933625
 21
-37.5899
  0
POINT
  8
寸法
 10
126.643625
 20
-37.5899
  0
POINT
  8
寸法
 10
158.933625
 20
-37.5899
  0
TEXT
  7
TextStyle03
  8
寸法
  6
CONTINUOUS
 10
138.65
 20
-37.225
  1
968.7
 40
3.0
 72
     5
 11
146.9
 21
-37.225
  0
ENDBLK
  0
BLOCK
  2
*DIM_0020
 70
    65
 10
0.0
 20
0.0
  0
LINE
  8
寸法
  6
CONTINUOUS
 10
163.933625
 20
-52.834375
 11
173.789177
 21
-52.834375
  0
LINE
  8
寸法
  6
CONTINUOUS
 10
163.933625
 20
-95.501043
 11
173.789177
 21
-95.501043
  0
LINE
  8
寸法
  6
CONTINUOUS
 10
173.789177
 20
-52.834375
 11
173.789177
 21
-95.501043
  0
POINT
  8
寸法
 10
173.789177
 20
-52.834375
  0
POINT
  8
寸法
 10
173.789177
 20
-95.501043
  0
TEXT
  7
TextStyle03
  8
寸法
  6
CONTINUOUS
 10
173.4
 20
-77.45625
  1
1280
 40
3.0
 50
90.0
 72
     5
 11
173.4
 21
-70.89375
  0
ENDBLK
  0
ENDSEC
  0
SECTION
  2
ENTITIES
  0
POLYLINE
  8
通り芯
  6
CONTINUOUS
 66
     1
 70
     1
  0
VERTEX
  8
通り芯
 10
-210.0
 20
-148.5
  0
VERTEX
  8
通り芯
 10
210.0
 20
-148.5
  0
VERTEX
  8
通り芯
 10
210.0
 20
148.5
  0
VERTEX
  8
通り芯
 10
-210.0
 20
148.5
  0
SEQEND
  0
INSERT
  2
*GRP_0001
  8
型材断面
  6
CONTINUOUS
 10
0.0
 20
0.0
  0
LINE
  8
型材断面
  6
CONTINUOUS
 10
172.08993
 20
9.49094
 11
171.63993
 21
9.49094
  0
LINE
  8
型材断面
  6
CONTINUOUS
 62
    47
 10
171.63993
 20
9.04094
 11
171.13993
 21
9.04094
  0
LINE
  8
型材断面
  6
CONTINUOUS
 62
    47
 10
170.344312
 20
11.597755
 11
171.13993
 21
9.04094
  0
LINE
  8
型材断面
  6
CONTINUOUS
 10
171.63993
 20
9.49094
 11
171.63993
 21
9.04094
  0
LINE
  8
型材断面
  6
CONTINUOUS
 10
169.256765
 20
9.98109
 11
169.256762
 21
10.03109
  0
LINE
  8
型材断面
  6
CONTINUOUS
 10
169.256765
 20
9.98109
 11
168.42343
 21
9.98109
  0
LINE
  8
型材断面
  6
CONTINUOUS
 10
167.923432
 20
11.647755
 11
168.42343
 21
11.647755
  0
LINE
  8
型材断面
  6
CONTINUOUS
 10
168.42343
 20
9.98109
 11
168.42343
 21
11.647755
  0
INSERT
  2
*GRP_0002
  8
型材断面
  6
CONTINUOUS
 10
0.0
 20
0.0
  0
LINE
  8
型材断面
  6
CONTINUOUS
 10
169.256762
 20
11.597755
 11
170.344312
 21
11.597755
  0
LINE
  8
型材断面
  6
CONTINUOUS
 10
172.08993
 20
57.137903
 11
171.63993
 21
57.137903
  0
LINE
  8
型材断面
  6
CONTINUOUS
 62
    47
 10
171.63993
 20
57.587903
 11
171.13993
 21
57.587903
  0
LINE
  8
型材断面
  6
CONTINUOUS
 62
    47
 10
170.344312
 20
55.03109
 11
171.13993
 21
57.587903
  0
LINE
  8
型材断面
  6
CONTINUOUS
 10
171.63993
 20
57.137903
 11
171.63993
 21
57.587903
  0
LINE
  8
型材断面
  6
CONTINUOUS
 10
169.256765
 20
56.647753
 11
169.256762
 21
56.597753
  0
LINE
  8
型材断面
  6
CONTINUOUS
 10
169.256765
 20
56.647753
 11
168.42343
 21
56.647753
  0
LINE
  8
型材断面
  6
CONTINUOUS
 10
167.923432
 20
54.98109
 11
168.42343
 21
54.98109
  0
LINE
  8
型材断面
  6
CONTINUOUS
 10
168.42343
 20
56.647753
 11
168.42343
 21
54.98109
  0
INSERT
  2
*GRP_0003
  8
型材断面
  6
CONTINUOUS
 10
0.0
 20
0.0
  0
LINE
  8
型材断面
  6
CONTINUOUS
 10
169.256762
 20
55.03109
 11
170.344312
 21
55.03109
  0
LINE
  8
型材断面
  6
DASHDOT
 10
-24.852002
 20
-86.575325
 11
-24.852002
 21
54.98109
  0
LINE
  8
型材断面
  6
CONTINUOUS
 10
171.63993
 20
57.587903
 11
171.63993
 21
9.04094
  0
LINE
  8
型材断面
  6
CONTINUOUS
 10
171.13993
 20
57.587903
 11
171.13993
 21
9.04094
  0
LINE
  8
型材断面
  6
CONTINUOUS
 10
170.344312
 20
11.597755
 11
170.344312
 21
55.03109
  0
LINE
  8
型材断面
  6
CONTINUOUS
 10
172.08993
 20
9.49094
 11
172.08993
 21
57.137903
  0
LINE
  8
型材断面
  6
CONTINUOUS
 10
167.92343
 20
11.647755
 11
167.92343
 21
54.98109
  0
LINE
  8
型材断面
  6
CONTINUOUS
 10
169.256762
 20
9.98109
 11
169.256762
 21
56.647753
  0
LINE
  8
型材断面
  6
CONTINUOUS
 10
168.42343
 20
9.98109
 11
168.42343
 21
56.647753
  0
LINE
  8
型材断面
  6
CONTINUOUS
 10
27.304812
 20
-84.960843
 11
27.304812
 21
-84.510843
  0
LINE
  8
型材断面
  6
CONTINUOUS
 62
    47
 10
27.754812
 20
-84.510843
 11
27.754812
 21
-84.010843
  0
LINE
  8
型材断面
  6
CONTINUOUS
 62
    47
 10
25.197998
 20
-83.215225
 11
27.754812
 21
-84.010843
  0
LINE
  8
型材断面
  6
CONTINUOUS
 10
27.304812
 20
-84.510843
 11
27.754812
 21
-84.510843
  0
LINE
  8
型材断面
  6
CONTINUOUS
 10
26.814662
 20
-82.127678
 11
26.764662
 21
-82.127675
  0
LINE
  8
型材断面
  6
CONTINUOUS
 10
26.814662
 20
-82.127678
 11
26.814662
 21
-81.294343
  0
LINE
  8
型材断面
  6
CONTINUOUS
 10
25.147998
 20
-80.794345
 11
25.147998
 21
-81.294343
  0
LINE
  8
型材断面
  6
CONTINUOUS
 10
26.814662
 20
-81.294343
 11
25.147998
 21
-81.294343
  0
INSERT
  2
*GRP_0004
  8
型材断面
  6
CONTINUOUS
 10
0.0
 20
0.0
  0
LINE
  8
型材断面
  6
CONTINUOUS
 10
25.197998
 20
-82.127675
 11
25.197998
 21
-83.215225
  0
LINE
  8
型材断面
  6
CONTINUOUS
 10
24.314665
 20
32.897755
 11
25.147998
 21
32.897755
  0
LINE
  8
型材断面
  6
CONTINUOUS
 10
24.314665
 20
33.731087
 11
25.147998
 21
33.731087
  0
LINE
  8
型材断面
  6
DASHDOT
 10
25.147998
 20
-86.575325
 11
25.147998
 21
11.647755
  0
LINE
  8
型材断面
  6
DASHDOT
 10
173.704413
 20
11.647755
 11
25.147998
 21
11.647755
  0
LINE
  8
型材断面
  6
CONTINUOUS
 10
25.147998
 20
11.647755
 11
25.147998
 21
33.314422
  0
LINE
  8
型材断面
  6
CONTINUOUS
 10
24.314665
 20
32.897755
 11
24.314665
 21
12.481087
  0
LINE
  8
型材断面
  6
CONTINUOUS
 10
27.754812
 20
9.04094
 11
24.314665
 21
12.481087
  0
LINE
  8
型材断面
  6
DASHDOT
 10
173.704413
 20
54.98109
 11
25.147998
 21
54.98109
  0
LINE
  8
型材断面
  6
CONTINUOUS
 10
25.147998
 20
54.98109
 11
25.147998
 21
33.314422
  0
LINE
  8
型材断面
  6
CONTINUOUS
 10
27.754812
 20
57.587903
 11
24.314665
 21
54.147758
  0
LINE
  8
型材断面
  6
CONTINUOUS
 10
24.314665
 20
33.731087
 11
24.314665
 21
54.147758
  0
LINE
  8
型材断面
  6
CONTINUOUS
 10
27.754812
 20
9.04094
 11
27.754812
 21
57.587903
  0
LINE
  8
型材断面
  6
CONTINUOUS
 10
26.814662
 20
9.98109
 11
26.814662
 21
56.647753
  0
LINE
  8
型材断面
  6
CONTINUOUS
 10
-77.008813
 20
-84.960843
 11
-77.008813
 21
-84.510843
  0
LINE
  8
型材断面
  6
CONTINUOUS
 62
    47
 10
-77.458813
 20
-84.510843
 11
-77.458813
 21
-84.010843
  0
LINE
  8
型材断面
  6
CONTINUOUS
 62
    47
 10
-74.902
 20
-83.215225
 11
-77.458813
 21
-84.010843
  0
LINE
  8
型材断面
  6
CONTINUOUS
 10
-77.008813
 20
-84.510843
 11
-77.458813
 21
-84.510843
  0
LINE
  8
型材断面
  6
CONTINUOUS
 10
-76.518663
 20
-82.127678
 11
-76.468663
 21
-82.127675
  0
LINE
  8
型材断面
  6
CONTINUOUS
 10
-76.518663
 20
-82.127678
 11
-76.518663
 21
-81.294343
  0
LINE
  8
型材断面
  6
CONTINUOUS
 10
-74.852
 20
-80.794345
 11
-74.852
 21
-81.294343
  0
LINE
  8
型材断面
  6
CONTINUOUS
 10
-76.518663
 20
-81.294343
 11
-74.852
 21
-81.294343
  0
INSERT
  2
*GRP_0005
  8
型材断面
  6
CONTINUOUS
 10
0.0
 20
0.0
  0
LINE
  8
型材断面
  6
CONTINUOUS
 10
-74.902
 20
-82.127675
 11
-74.902
 21
-83.215225
  0
LINE
  8
型材断面
  6
DASHDOT
 10
173.704413
 20
33.314422
 11
-74.852
 21
33.314422
  0
LINE
  8
型材断面
  6
CONTINUOUS
 10
-74.018667
 20
32.897755
 11
-74.852
 21
32.897755
  0
LINE
  8
型材断面
  6
CONTINUOUS
 10
-74.018667
 20
33.731087
 11
-74.852
 21
33.731087
  0
LINE
  8
型材断面
  6
DASHDOT
 10
-74.852
 20
-86.575325
 11
-74.852
 21
11.647755
  0
LINE
  8
型材断面
  6
CONTINUOUS
 10
-74.852
 20
11.647755
 11
-74.852
 21
33.314422
  0
LINE
  8
型材断面
  6
CONTINUOUS
 10
-74.018667
 20
32.897755
 11
-74.018667
 21
12.481087
  0
LINE
  8
型材断面
  6
CONTINUOUS
 10
-77.458813
 20
9.04094
 11
-74.018667
 21
12.481087
  0
LINE
  8
型材断面
  6
CONTINUOUS
 10
-74.852
 20
54.98109
 11
-74.852
 21
33.314422
  0
LINE
  8
型材断面
  6
CONTINUOUS
 10
-74.018667
 20
33.731087
 11
-74.018667
 21
54.147758
  0
LINE
  8
型材断面
  6
CONTINUOUS
 10
-77.458813
 20
57.587903
 11
-74.018667
 21
54.147758
  0
LINE
  8
型材断面
  6
CONTINUOUS
 10
-76.518663
 20
56.647753
 11
-76.518663
 21
9.98109
  0
LINE
  8
型材断面
  6
CONTINUOUS
 10
-77.458813
 20
57.587903
 11
-77.458813
 21
9.04094
  0
LINE
  8
型材断面
  6
CONTINUOUS
 10
-77.458813
 20
-84.510843
 11
27.754812
 21
-84.510843
  0
LINE
  8
型材断面
  6
CONTINUOUS
 10
-77.458813
 20
-84.010843
 11
27.754812
 21
-84.010843
  0
LINE
  8
型材断面
  6
CONTINUOUS
 10
25.197998
 20
-83.215225
 11
-74.902
 21
-83.215225
  0
LINE
  8
型材断面
  6
CONTINUOUS
 10
27.304812
 20
-84.960843
 11
-77.008813
 21
-84.960843
  0
LINE
  8
型材断面
  6
CONTINUOUS
 10
25.147998
 20
-80.794343
 11
-74.852
 21
-80.794343
  0
LINE
  8
型材断面
  6
CONTINUOUS
 10
26.814662
 20
-82.127675
 11
-76.518663
 21
-82.127675
  0
LINE
  8
型材断面
  6
CONTINUOUS
 10
26.814662
 20
-81.294343
 11
-76.518663
 21
-81.294343
  0
LINE
  8
型材断面
  6
CONTINUOUS
 10
26.814662
 20
9.98109
 11
-76.518663
 21
9.98109
  0
LINE
  8
型材断面
  6
CONTINUOUS
 10
27.754812
 20
9.04094
 11
-77.458813
 21
9.04094
  0
LINE
  8
型材断面
  6
CONTINUOUS
 10
25.147998
 20
11.647755
 11
-74.852
 21
11.647755
  0
LINE
  8
型材断面
  6
CONTINUOUS
 10
26.814662
 20
56.647753
 11
-76.518663
 21
56.647753
  0
LINE
  8
型材断面
  6
CONTINUOUS
 10
27.754812
 20
57.587903
 11
-77.458813
 21
57.587903
  0
LINE
  8
型材断面
  6
CONTINUOUS
 10
25.147998
 20
54.98109
 11
-74.852
 21
54.98109
  0
LINE
  8
型材断面
  6
CONTINUOUS
 10
-24.435335
 20
12.481087
 11
-24.435335
 21
11.647755
  0
LINE
  8
型材断面
  6
CONTINUOUS
 10
-25.26867
 20
12.481087
 11
-25.26867
 21
11.647755
  0
LINE
  8
型材断面
  6
CONTINUOUS
 10
-57.81589
 20
12.481087
 11
-57.81589
 21
11.647755
  0
LINE
  8
型材断面
  6
CONTINUOUS
 10
-58.649225
 20
12.481087
 11
-58.649225
 21
11.647755
  0
LINE
  8
型材断面
  6
DASHDOT
 10
-41.61311
 20
11.647755
 11
-41.61311
 21
54.98109
  0
LINE
  8
型材断面
  6
DASHDOT
 10
-8.090895
 20
11.647755
 11
-8.090895
 21
54.98109
  0
LINE
  8
型材断面
  6
CONTINUOUS
 10
-58.649225
 20
12.481087
 11
-74.018667
 21
12.481087
  0
LINE
  8
型材断面
  6
CONTINUOUS
 10
-25.26867
 20
12.481087
 11
-57.81589
 21
12.481087
  0
LINE
  8
型材断面
  6
CONTINUOUS
 10
8.111885
 20
12.481087
 11
8.111885
 21
11.647755
  0
LINE
  8
型材断面
  6
CONTINUOUS
 10
8.94522
 20
12.481087
 11
8.94522
 21
11.647755
  0
LINE
  8
型材断面
  6
CONTINUOUS
 10
8.94522
 20
12.481087
 11
24.314662
 21
12.481087
  0
LINE
  8
型材断面
  6
CONTINUOUS
 10
-24.435335
 20
12.481087
 11
8.111885
 21
12.481087
  0
LINE
  8
型材断面
  6
CONTINUOUS
 10
-24.435335
 20
54.147758
 11
-24.435335
 21
54.98109
  0
LINE
  8
型材断面
  6
CONTINUOUS
 10
-25.26867
 20
54.147758
 11
-25.26867
 21
54.98109
  0
LINE
  8
型材断面
  6
CONTINUOUS
 10
-57.81589
 20
54.147758
 11
-57.81589
 21
54.98109
  0
LINE
  8
型材断面
  6
CONTINUOUS
 10
-58.649225
 20
54.147758
 11
-58.649225
 21
54.98109
  0
LINE
  8
型材断面
  6
CONTINUOUS
 10
-58.649225
 20
54.147758
 11
-74.018667
 21
54.147758
  0
LINE
  8
型材断面
  6
CONTINUOUS
 10
-25.26867
 20
54.147758
 11
-57.81589
 21
54.147758
  0
LINE
  8
型材断面
  6
CONTINUOUS
 10
8.111885
 20
54.147758
 11
8.111885
 21
54.98109
  0
LINE
  8
型材断面
  6
CONTINUOUS
 10
8.94522
 20
54.147758
 11
8.94522
 21
54.98109
  0
LINE
  8
型材断面
  6
CONTINUOUS
 10
8.94522
 20
54.147758
 11
24.314662
 21
54.147758
  0
LINE
  8
型材断面
  6
CONTINUOUS
 10
-24.435335
 20
54.147758
 11
8.111885
 21
54.147758
  0
LINE
  8
型材断面
  6
CONTINUOUS
 10
-77.482132
 20
33.314422
 11
-80.07264
 21
34.810052
  0
LINE
  8
型材断面
  6
CONTINUOUS
 10
-77.482132
 20
33.314422
 11
-80.07264
 21
31.818793
  0
LINE
  8
型材断面
  6
CONTINUOUS
 10
-80.07264
 20
31.818793
 11
-80.07264
 21
34.810052
  0
LINE
  8
型材断面
  6
CONTINUOUS
 10
-58.185335
 20
57.611218
 11
-59.680965
 21
60.201725
  0
LINE
  8
型材断面
  6
CONTINUOUS
 10
-58.185335
 20
57.611218
 11
-56.689705
 21
60.201725
  0
LINE
  8
型材断面
  6
CONTINUOUS
 10
-56.689705
 20
60.201725
 11
-59.680965
 21
60.201725
  0
LINE
  8
型材断面
  6
CONTINUOUS
 10
-115.70421
 20
99.488435
 11
-117.19984
 21
96.897927
  0
LINE
  8
型材断面
  6
CONTINUOUS
 10
-115.70421
 20
99.488435
 11
-114.20858
 21
96.897927
  0
LINE
  8
型材断面
  6
CONTINUOUS
 10
-114.20858
 20
96.897927
 11
-117.19984
 21
96.897927
  0
LINE
  8
型材断面
  6
CONTINUOUS
 10
-121.726797
 20
95.959332
 11
-75.48502
 21
95.959332
  0
LINE
  8
型材断面
  6
CONTINUOUS
 10
-58.185335
 20
9.017627
 11
-59.680965
 21
6.42712
  0
LINE
  8
型材断面
  6
CONTINUOUS
 10
-58.185335
 20
9.017627
 11
-56.689705
 21
6.42712
  0
LINE
  8
型材断面
  6
CONTINUOUS
 10
-56.689705
 20
6.42712
 11
-59.680965
 21
6.42712
  0
LINE
  8
型材断面
  6
CONTINUOUS
 10
27.778127
 20
33.314422
 11
30.368635
 21
34.810052
  0
LINE
  8
型材断面
  6
CONTINUOUS
 10
27.778127
 20
33.314422
 11
30.368635
 21
31.818793
  0
LINE
  8
型材断面
  6
CONTINUOUS
 10
30.368635
 20
31.818793
 11
30.368635
 21
34.810052
  0
LINE
  8
型材断面
  6
CONTINUOUS
 10
8.48133
 20
57.611218
 11
9.97696
 21
60.201725
  0
LINE
  8
型材断面
  6
CONTINUOUS
 10
8.48133
 20
57.611218
 11
6.9857
 21
60.201725
  0
LINE
  8
型材断面
  6
CONTINUOUS
 10
6.9857
 20
60.201725
 11
9.97696
 21
60.201725
  0
LINE
  8
型材断面
  6
CONTINUOUS
 10
8.48133
 20
9.017627
 11
9.97696
 21
6.42712
  0
LINE
  8
型材断面
  6
CONTINUOUS
 10
8.48133
 20
9.017627
 11
6.9857
 21
6.42712
  0
LINE
  8
型材断面
  6
CONTINUOUS
 10
6.9857
 20
6.42712
 11
9.97696
 21
6.42712
  0
LINE
  8
型材断面
  6
CONTINUOUS
 10
-121.726797
 20
89.99366
 11
-75.48502
 21
89.99366
  0
LINE
  8
型材断面
  6
CONTINUOUS
 10
-40.52981
 20
13.31442
 11
-42.696443
 21
13.31442
  0
LINE
  8
型材断面
  6
CONTINUOUS
 10
-40.52981
 20
53.314425
 11
-42.696443
 21
53.314425
  0
LINE
  8
型材断面
  6
CONTINUOUS
 10
-40.52981
 20
13.31442
 11
-40.52981
 21
53.314425
  0
LINE
  8
型材断面
  6
CONTINUOUS
 10
-41.363142
 20
13.31442
 11
-41.363142
 21
53.314425
  0
LINE
  8
型材断面
  6
CONTINUOUS
 10
-41.86311
 20
13.31442
 11
-41.86311
 21
53.314425
  0
LINE
  8
型材断面
  6
CONTINUOUS
 10
-42.696443
 20
13.304725
 11
-42.696443
 21
53.314425
  0
LINE
  8
型材断面
  6
CONTINUOUS
 10
-9.174195
 20
13.31442
 11
-7.007563
 21
13.31442
  0
LINE
  8
型材断面
  6
CONTINUOUS
 10
-9.174195
 20
53.314425
 11
-7.007563
 21
53.314425
  0
LINE
  8
型材断面
  6
CONTINUOUS
 10
-9.174195
 20
13.31442
 11
-9.174195
 21
53.314425
  0
LINE
  8
型材断面
  6
CONTINUOUS
 10
-8.340863
 20
13.31442
 11
-8.340863
 21
53.314425
  0
LINE
  8
型材断面
  6
CONTINUOUS
 10
-7.840895
 20
13.31442
 11
-7.840895
 21
53.314425
  0
LINE
  8
型材断面
  6
CONTINUOUS
 10
-7.007563
 20
13.304725
 11
-7.007563
 21
53.314425
  0
LINE
  8
型材断面
  6
CONTINUOUS
 10
124.083282
 20
-31.708432
 11
145.220858
 21
-31.708432
  0
POLYLINE
  8
ガラス
  6
CONTINUOUS
 66
     1
 70
     1
  0
VERTEX
  8
ガラス
 10
158.933625
 20
-52.834375
  0
VERTEX
  8
ガラス
 10
126.643625
 20
-52.834375
  0
VERTEX
  8
ガラス
 10
126.643625
 20
-95.501043
  0
VERTEX
  8
ガラス
 10
158.933625
 20
-95.501043
  0
SEQEND
  0
TEXT
  7
TextStyle03
  8
文字
  6
CONTINUOUS
 10
78.1
 20
125.25
  1
シリーズ：ＳＴＦＦＫＬ
 40
5.0
 72
     5
 11
139.35
 21
125.25
  0
TEXT
  7
TextStyle03
  8
文字
  6
CONTINUOUS
 10
78.1
 20
119.625
  1
　　　　　（固定）1300×3000タイプ
 40
5.0
 72
     5
 11
173.1
 21
119.625
  0
TEXT
  7
TextStyle03
  8
文字
  6
CONTINUOUS
 10
78.1
 20
114.0
  1
図面名　：外観姿図
 40
5.0
 72
     5
 11
128.1
 21
114.0
  0
TEXT
  7
TextStyle03
  8
文字
  6
CONTINUOUS
 10
78.1
 20
108.375
  1
　　　　　　
 40
5.0
 72
     5
 11
111.225
 21
108.375
  0
TEXT
  7
TextStyle03
  8
文字
  6
CONTINUOUS
 10
-112.95
 20
97.1
  1
は排水穴位置を示す
 40
3.0
 72
     5
 11
-82.95
 21
97.1
  0
TEXT
  7
TextStyle03
  8
文字
  6
CONTINUOUS
 10
-116.675
 20
90.9
  1
アンカー数量　１２ヶ所
 40
3.0
 72
     5
 11
-79.925
 21
90.9
  0
TEXT
  7
TextStyle03
  8
文字
  6
CONTINUOUS
 10
-112.45
 20
22.225
  1
アンカーピッチ
 40
3.0
 50
90.0
 72
     5
 11
-112.45
 21
45.475
  0
TEXT
  7
TextStyle03
  8
文字
  6
CONTINUOUS
 10
-64.9
 20
92.375
  1
アンカーピッチ
 40
3.0
 72
     5
 11
-41.65
 21
92.375
  0
TEXT
  7
TextStyle03
  8
文字
  6
CONTINUOUS
 10
146.775
 20
-93.225
  1
×３枚
 40
3.0
 72
     5
 11
156.525
 21
-93.225
  0
TEXT
  7
TextStyle03
  8
文字
  6
CONTINUOUS
 10
126.125
 20
-30.225
  1
ガラス寸法
 40
3.0
 72
     5
 11
142.625
 21
-30.225
  0
INSERT
  2
*DIM_0006
  8
寸法
  6
CONTINUOUS
 10
0.0
 20
0.0
  0
INSERT
  2
*DIM_0007
  8
寸法
  6
CONTINUOUS
 10
0.0
 20
0.0
  0
INSERT
  2
*DIM_0008
  8
寸法
  6
CONTINUOUS
 10
0.0
 20
0.0
  0
INSERT
  2
*DIM_0009
  8
寸法
  6
CONTINUOUS
 10
0.0
 20
0.0
  0
INSERT
  2
*DIM_0010
  8
寸法
  6
CONTINUOUS
 10
0.0
 20
0.0
  0
INSERT
  2
*DIM_0011
  8
寸法
  6
CONTINUOUS
 10
0.0
 20
0.0
  0
INSERT
  2
*DIM_0012
  8
寸法
  6
CONTINUOUS
 10
0.0
 20
0.0
  0
INSERT
  2
*DIM_0013
  8
寸法
  6
CONTINUOUS
 10
0.0
 20
0.0
  0
INSERT
  2
*DIM_0014
  8
寸法
  6
CONTINUOUS
 10
0.0
 20
0.0
  0
INSERT
  2
*DIM_0015
  8
寸法
  6
CONTINUOUS
 10
0.0
 20
0.0
  0
INSERT
  2
*DIM_0016
  8
寸法
  6
CONTINUOUS
 10
0.0
 20
0.0
  0
INSERT
  2
*DIM_0017
  8
寸法
  6
CONTINUOUS
 10
0.0
 20
0.0
  0
INSERT
  2
*DIM_0018
  8
寸法
  6
CONTINUOUS
 10
0.0
 20
0.0
  0
INSERT
  2
*DIM_0019
  8
寸法
  6
CONTINUOUS
 10
0.0
 20
0.0
  0
INSERT
  2
*DIM_0020
  8
寸法
  6
CONTINUOUS
 10
0.0
 20
0.0
  0
LINE
  8
曲げ物
  6
CONTINUOUS
 10
-23.049245
 20
35.11718
 11
-26.744557
 21
31.421868
  0
LINE
  8
曲げ物
  6
CONTINUOUS
 10
-23.752715
 20
33.58107
 11
-25.208445
 21
32.12534
  0
LINE
  8
曲げ物
  6
CONTINUOUS
 10
-24.585355
 20
34.41371
 11
-26.041085
 21
32.95798
  0
LINE
  8
曲げ物
  6
CONTINUOUS
 10
-23.752715
 20
33.58107
 11
-25.208445
 21
32.12534
  0
LINE
  8
曲げ物
  6
CONTINUOUS
 10
-24.585355
 20
34.41371
 11
-26.041085
 21
32.95798
  0
LINE
  8
曲げ物
  6
CONTINUOUS
 10
10.30742
 20
35.11718
 11
6.612107
 21
31.421868
  0
LINE
  8
曲げ物
  6
CONTINUOUS
 10
9.60395
 20
33.58107
 11
8.14822
 21
32.12534
  0
LINE
  8
曲げ物
  6
CONTINUOUS
 10
8.77131
 20
34.41371
 11
7.31558
 21
32.95798
  0
LINE
  8
曲げ物
  6
CONTINUOUS
 10
9.60395
 20
33.58107
 11
8.14822
 21
32.12534
  0
LINE
  8
曲げ物
  6
CONTINUOUS
 10
8.77131
 20
34.41371
 11
7.31558
 21
32.95798
  0
LINE
  8
曲げ物
  6
CONTINUOUS
 10
-56.40591
 20
35.11718
 11
-60.101223
 21
31.421868
  0
LINE
  8
曲げ物
  6
CONTINUOUS
 10
-57.10938
 20
33.58107
 11
-58.56511
 21
32.12534
  0
LINE
  8
曲げ物
  6
CONTINUOUS
 10
-57.94202
 20
34.41371
 11
-59.39775
 21
32.95798
  0
LINE
  8
曲げ物
  6
CONTINUOUS
 10
-57.10938
 20
33.58107
 11
-58.56511
 21
32.12534
  0
LINE
  8
曲げ物
  6
CONTINUOUS
 10
-57.94202
 20
34.41371
 11
-59.39775
 21
32.95798
  0
LINE
  8
St
  6
CONTINUOUS
 62
    47
 10
171.63993
 20
9.49094
 11
171.63993
 21
9.04094
  0
LINE
  8
St
  6
CONTINUOUS
 62
    47
 10
171.63993
 20
57.137903
 11
171.63993
 21
57.587903
  0
LINE
  8
St
  6
CONTINUOUS
 62
    47
 10
27.304812
 20
-84.510843
 11
27.754812
 21
-84.510843
  0
LINE
  8
St
  6
CONTINUOUS
 62
    47
 10
-77.008813
 20
-84.510843
 11
-77.458813
 21
-84.510843
  0
ENDSEC
  0
EOF
