  0
SECTION
  2
HEADER
  9
$EXTMIN
 10
-210.0
 20
-148.5
  9
$EXTMAX
 10
210.0
 20
148.5
  9
$PDMODE
 70
    32
  9
$PDSIZE
 40
1.5
  9
$LTSCALE
 40
10.0
  0
ENDSEC
  0
SECTION
  2
TABLES
  0
TABLE
  2
LTYPE
 70
    15
  0
LTYPE
  2
CONTINUOUS
 70
    64
  3
実線
 72
    65
 73
     0
 40
0.0
  0
LTYPE
  2
DASHED
 70
    64
  3
破線A
 72
    65
 73
     2
 40
0.6
 49
0.4
 49
-0.2
  0
LTYPE
  2
DASHEDX2
 70
    64
  3
破線B
 72
    65
 73
     2
 40
1.3
 49
0.9
 49
-0.4
  0
LTYPE
  2
DASHDOT
 70
    64
  3
１点鎖線A
 72
    65
 73
     4
 40
0.5375
 49
0.375
 49
-0.05
 49
0.0625
 49
-0.05
  0
LTYPE
  2
DASHDOTX2
 70
    64
  3
１点鎖線B
 72
    65
 73
     4
 40
1.075
 49
0.75
 49
-0.1
 49
0.125
 49
-0.1
  0
LTYPE
  2
DIVIDE2
 70
    64
  3
２点鎖線A
 72
    65
 73
     6
 40
0.5125
 49
0.3
 49
-0.0375
 49
0.05
 49
-0.0375
 49
0.05
 49
-0.0375
  0
LTYPE
  2
DIVIDE
 70
    64
  3
２点鎖線B
 72
    65
 73
     6
 40
1.05
 49
0.55
 49
-0.1
 49
0.1
 49
-0.1
 49
0.1
 49
-0.1
  0
LTYPE
  2
DOT
 70
    64
  3
点線A
 72
    65
 73
     2
 40
0.1125
 49
0.0625
 49
-0.05
  0
LTYPE
  2
DOTX2
 70
    64
  3
点線B
 72
    65
 73
     2
 40
0.275
 49
0.15
 49
-0.125
  0
LTYPE
  2
CONTINUOUS
 70
    64
  3
実線
 72
    65
 73
     0
 40
0.0
  0
LTYPE
  2
CONTINUOUS
 70
    64
  3
実線
 72
    65
 73
     0
 40
0.0
  0
LTYPE
  2
CONTINUOUS
 70
    64
  3
実線
 72
    65
 73
     0
 40
0.0
  0
LTYPE
  2
CONTINUOUS
 70
    64
  3
実線
 72
    65
 73
     0
 40
0.0
  0
LTYPE
  2
CONTINUOUS
 70
    64
  3
実線
 72
    65
 73
     0
 40
0.0
  0
LTYPE
  2
CONTINUOUS
 70
    64
  3
実線
 72
    65
 73
     0
 40
0.0
  0
ENDTAB
  0
TABLE
  2
LAYER
 70
    34
  0
LAYER
  2
通り芯
 70
     0
 62
    15
  6
CONTINUOUS
  0
LAYER
  2
補助線
 70
     0
 62
    16
  6
DOT
  0
LAYER
  2
躯体
 70
     0
 62
    31
  6
CONTINUOUS
  0
LAYER
  2
型材
 70
     0
 62
    32
  6
CONTINUOUS
  0
LAYER
  2
型材断面
 70
     0
 62
    47
  6
CONTINUOUS
  0
LAYER
  2
ガラス
 70
     0
 62
    48
  6
CONTINUOUS
  0
LAYER
  2
ゴム等
 70
     0
 62
    63
  6
CONTINUOUS
  0
LAYER
  2
ボルト／ビス
 70
     0
 62
    64
  6
CONTINUOUS
  0
LAYER
  2
文字
 70
     0
 62
    79
  6
CONTINUOUS
  0
LAYER
  2
寸法
 70
     0
 62
    80
  6
CONTINUOUS
  0
LAYER
  2
ﾊｯﾁﾝｸﾞ
 70
     0
 62
    95
  6
CONTINUOUS
  0
LAYER
  2
別途部材
 70
     0
 62
    96
  6
CONTINUOUS
  0
LAYER
  2
曲げ物
 70
     0
 62
   111
  6
CONTINUOUS
  0
LAYER
  2
鉄骨等
 70
     0
 62
   112
  6
CONTINUOUS
  0
LAYER
  2
St
 70
     0
 62
   127
  6
CONTINUOUS
  0
LAYER
  2
その他部品等
 70
     0
 62
   128
  6
CONTINUOUS
  0
LAYER
  2
ｶﾞｽｹｯﾄ
 70
     0
 62
   143
  6
CONTINUOUS
  0
LAYER
  2
ｽｹｯﾁ
 70
     0
 62
    14
  6
CONTINUOUS
  0
LAYER
  2
0
 70
     0
 62
    17
  6
CONTINUOUS
  0
LAYER
  2
1
 70
     0
 62
    30
  6
CONTINUOUS
  0
LAYER
  2
4
 70
     0
 62
    33
  6
CONTINUOUS
  0
LAYER
  2
ﾚｲﾔ3
 70
     0
 62
    46
  6
CONTINUOUS
  0
LAYER
  2
外形線
 70
     0
 62
    49
  6
CONTINUOUS
  0
LAYER
  2
部品
 70
     0
 62
    14
  6
CONTINUOUS
  0
LAYER
  2
サッシ芯
 70
     0
 62
    17
  6
DASHDOTX2
  0
LAYER
  2
寸法線
 70
     0
 62
    62
  6
CONTINUOUS
  0
LAYER
  2
姿図外形線
 70
     0
 62
    65
  6
CONTINUOUS
  0
LAYER
  2
姿補助線
 70
     0
 62
    30
  6
CONTINUOUS
  0
LAYER
  2
透視線
 70
     0
 62
    78
  6
DOT
  0
LAYER
  2
用紙
 70
     0
 62
    81
  6
CONTINUOUS
  0
LAYER
  2
実線図枠
 70
     0
 62
    94
  6
CONTINUOUS
  0
LAYER
  2
補助図枠
 70
     0
 62
    97
  6
CONTINUOUS
  0
LAYER
  2
建具記号
 70
     0
 62
   110
  6
CONTINUOUS
  0
LAYER
  2
補助文字
 70
     0
 62
   113
  6
CONTINUOUS
  0
ENDTAB
  0
TABLE
  2
STYLE
 70
    10
  0
STYLE
  2
STANDARD
 70
     0
 40
1.0
 41
1.0
 42
1.0
 50
0.0
 71
     0
  3
TXT
  4
BIGFONT
  0
STYLE
  2
TATE
 70
     4
 40
1.0
 41
1.0
 42
1.0
 50
0.0
 71
     0
  3
TXT
  4
BIGFONT
  0
STYLE
  2
TextStyle03
 70
     0
 40
1.0
 41
1.0
 42
1.0
 50
0.0
 71
     0
  3
MONOTXT
  4
BIGFONT
  0
STYLE
  2
TextStyle04
 70
     0
 40
1.0
 41
1.0
 42
1.0
 50
0.0
 71
     0
  3
MONOTXT
  4
BIGFONT
  0
STYLE
  2
TextStyle05
 70
     0
 40
1.0
 41
1.0
 42
1.0
 50
0.0
 71
     0
  3
MONOTXT
  4
BIGFONT
  0
STYLE
  2
TextStyle06
 70
     0
 40
1.0
 41
1.0
 42
1.0
 50
0.0
 71
     0
  3
MONOTXT
  4
BIGFONT
  0
STYLE
  2
TextStyle07
 70
     0
 40
1.0
 41
1.0
 42
1.0
 50
0.0
 71
     0
  3
MONOTXT
  4
BIGFONT
  0
STYLE
  2
TextStyle08
 70
     0
 40
1.0
 41
1.0
 42
1.0
 50
0.0
 71
     0
  3
MONOTXT
  4
BIGFONT
  0
STYLE
  2
TextStyle09
 70
     0
 40
1.0
 41
1.0
 42
1.0
 50
0.0
 71
     0
  3
MONOTXT
  4
BIGFONT
  0
STYLE
  2
TextStyle10
 70
     0
 40
1.0
 41
1.0
 42
1.0
 50
0.0
 71
     0
  3
MONOTXT
  4
BIGFONT
  0
ENDTAB
  0
ENDSEC
  0
SECTION
  2
BLOCKS
  0
BLOCK
  2
*GRP_0001
 70
    65
 10
0.0
 20
0.0
  0
LINE
  8
型材断面
  6
CONTINUOUS
 10
195.0
 20
133.5
 11
195.0
 21
-133.5
  0
LINE
  8
型材断面
  6
CONTINUOUS
 10
195.0
 20
-133.5
 11
-185.0
 21
-133.5
  0
LINE
  8
型材断面
  6
CONTINUOUS
 10
-185.0
 20
-133.5
 11
-185.0
 21
133.5
  0
LINE
  8
型材断面
  6
CONTINUOUS
 10
195.0
 20
133.5
 11
-185.0
 21
133.5
  0
LINE
  8
型材断面
  6
CONTINUOUS
 10
145.0
 20
-133.5
 11
145.0
 21
-118.5
  0
LINE
  8
型材断面
  6
CONTINUOUS
 10
195.0
 20
-118.5
 11
145.0
 21
-118.5
  0
ENDBLK
  0
BLOCK
  2
*GRP_0002
 70
    65
 10
0.0
 20
0.0
  0
LINE
  8
ボルト／ビス
  6
CONTINUOUS
 10
168.42343
 20
10.61442
 11
168.356765
 21
10.61442
  0
LINE
  8
ボルト／ビス
  6
CONTINUOUS
 10
168.356765
 20
10.61442
 11
168.356765
 21
11.34775
  0
LINE
  8
ボルト／ビス
  6
CONTINUOUS
 10
168.356765
 20
11.34775
 11
168.42343
 21
11.34775
  0
LINE
  8
ボルト／ビス
  6
CONTINUOUS
 10
168.42343
 20
10.61442
 11
168.42343
 21
11.34775
  0
LINE
  8
ボルト／ビス
  6
CONTINUOUS
 10
168.32343
 20
10.681085
 11
168.356765
 21
10.681085
  0
LINE
  8
ボルト／ビス
  6
CONTINUOUS
 10
168.32343
 20
10.681085
 11
168.32343
 21
11.281085
  0
LINE
  8
ボルト／ビス
  6
CONTINUOUS
 10
168.32343
 20
11.281085
 11
168.356762
 21
11.281085
  0
LINE
  8
ボルト／ビス
  6
CONTINUOUS
 62
    64
 10
168.12343
 20
10.82071
 11
168.135105
 21
10.788635
  0
ARC
  8
ボルト／ビス
  6
CONTINUOUS
 62
    64
 10
168.22841
 20
10.836748
 40
0.104978
 50
152.721989
 51
180.000022
  0
ARC
  8
ボルト／ビス
  6
CONTINUOUS
 62
    64
 10
168.525833
 20
10.981086
 40
0.402401
 50
166.165024
 51
193.835007
  0
LINE
  8
ボルト／ビス
  6
CONTINUOUS
 62
    64
 10
168.12343
 20
11.14146
 11
168.135105
 21
11.173535
  0
ARC
  8
ボルト／ビス
  6
CONTINUOUS
 62
    64
 10
168.22841
 20
11.125423
 40
0.104978
 50
180.000022
 51
207.278055
  0
LINE
  8
ボルト／ビス
  6
CONTINUOUS
 62
    64
 10
168.12343
 20
10.82071
 11
168.12343
 21
11.14146
  0
LINE
  8
ボルト／ビス
  6
CONTINUOUS
 62
    64
 10
168.135105
 20
11.173535
 11
168.256762
 21
11.173535
  0
LINE
  8
ボルト／ビス
  6
CONTINUOUS
 62
    64
 10
168.135105
 20
11.07731
 11
168.256765
 21
11.07731
  0
LINE
  8
ボルト／ビス
  6
CONTINUOUS
 62
    64
 10
168.135105
 20
10.788635
 11
168.256762
 21
10.788635
  0
LINE
  8
ボルト／ビス
  6
CONTINUOUS
 62
    64
 10
168.135105
 20
10.88486
 11
168.256762
 21
10.88486
  0
LINE
  8
ボルト／ビス
  6
CONTINUOUS
 10
168.256762
 20
10.788635
 11
168.256762
 21
11.173535
  0
LINE
  8
ボルト／ビス
  6
CONTINUOUS
 10
168.256762
 20
10.781085
 11
168.32343
 21
10.781085
  0
LINE
  8
ボルト／ビス
  6
CONTINUOUS
 10
168.256762
 20
10.781085
 11
168.256762
 21
11.181085
  0
LINE
  8
ボルト／ビス
  6
CONTINUOUS
 10
168.256762
 20
11.181085
 11
168.32343
 21
11.181085
  0
LINE
  8
ボルト／ビス
  6
CONTINUOUS
 62
    64
 10
168.42343
 20
11.081085
 11
168.42343
 21
11.081085
  0
ENDBLK
  0
BLOCK
  2
*GRP_0003
 70
    65
 10
0.0
 20
0.0
  0
LINE
  8
ボルト／ビス
  6
CONTINUOUS
 10
168.42343
 20
56.014425
 11
168.356765
 21
56.014425
  0
LINE
  8
ボルト／ビス
  6
CONTINUOUS
 10
168.356765
 20
56.014425
 11
168.356765
 21
55.281092
  0
LINE
  8
ボルト／ビス
  6
CONTINUOUS
 10
168.356765
 20
55.281092
 11
168.42343
 21
55.281092
  0
LINE
  8
ボルト／ビス
  6
CONTINUOUS
 10
168.42343
 20
56.014425
 11
168.42343
 21
55.281092
  0
LINE
  8
ボルト／ビス
  6
CONTINUOUS
 10
168.32343
 20
55.947758
 11
168.356765
 21
55.947758
  0
LINE
  8
ボルト／ビス
  6
CONTINUOUS
 10
168.32343
 20
55.947758
 11
168.32343
 21
55.34776
  0
LINE
  8
ボルト／ビス
  6
CONTINUOUS
 10
168.32343
 20
55.34776
 11
168.356762
 21
55.34776
  0
LINE
  8
ボルト／ビス
  6
CONTINUOUS
 62
    64
 10
168.12343
 20
55.808135
 11
168.135105
 21
55.840207
  0
ARC
  8
ボルト／ビス
  6
CONTINUOUS
 62
    64
 10
168.22841
 20
55.792094
 40
0.104978
 50
179.999978
 51
207.278011
  0
ARC
  8
ボルト／ビス
  6
CONTINUOUS
 62
    64
 10
168.525833
 20
55.647757
 40
0.402401
 50
166.164993
 51
193.834976
  0
LINE
  8
ボルト／ビス
  6
CONTINUOUS
 62
    64
 10
168.12343
 20
55.487385
 11
168.135105
 21
55.455307
  0
ARC
  8
ボルト／ビス
  6
CONTINUOUS
 62
    64
 10
168.22841
 20
55.50342
 40
0.104978
 50
152.721945
 51
179.999978
  0
LINE
  8
ボルト／ビス
  6
CONTINUOUS
 62
    64
 10
168.12343
 20
55.808135
 11
168.12343
 21
55.487385
  0
LINE
  8
ボルト／ビス
  6
CONTINUOUS
 62
    64
 10
168.135105
 20
55.455307
 11
168.256762
 21
55.455307
  0
LINE
  8
ボルト／ビス
  6
CONTINUOUS
 62
    64
 10
168.135105
 20
55.551535
 11
168.256765
 21
55.551535
  0
LINE
  8
ボルト／ビス
  6
CONTINUOUS
 62
    64
 10
168.135105
 20
55.840207
 11
168.256762
 21
55.840207
  0
LINE
  8
ボルト／ビス
  6
CONTINUOUS
 62
    64
 10
168.135105
 20
55.743982
 11
168.256762
 21
55.743982
  0
LINE
  8
ボルト／ビス
  6
CONTINUOUS
 10
168.256762
 20
55.840207
 11
168.256762
 21
55.455307
  0
LINE
  8
ボルト／ビス
  6
CONTINUOUS
 10
168.256762
 20
55.847758
 11
168.32343
 21
55.847758
  0
LINE
  8
ボルト／ビス
  6
CONTINUOUS
 10
168.256762
 20
55.847758
 11
168.256762
 21
55.44776
  0
LINE
  8
ボルト／ビス
  6
CONTINUOUS
 10
168.256762
 20
55.44776
 11
168.32343
 21
55.44776
  0
LINE
  8
ボルト／ビス
  6
CONTINUOUS
 62
    64
 10
168.42343
 20
55.54776
 11
168.42343
 21
55.54776
  0
ENDBLK
  0
BLOCK
  2
*GRP_0004
 70
    65
 10
0.0
 20
0.0
  0
LINE
  8
ボルト／ビス
  6
CONTINUOUS
 10
42.847998
 20
-81.294343
 11
42.847998
 21
-81.227678
  0
LINE
  8
ボルト／ビス
  6
CONTINUOUS
 10
42.847998
 20
-81.227678
 11
42.114667
 21
-81.227678
  0
LINE
  8
ボルト／ビス
  6
CONTINUOUS
 10
42.114667
 20
-81.227678
 11
42.114667
 21
-81.294343
  0
LINE
  8
ボルト／ビス
  6
CONTINUOUS
 10
42.847998
 20
-81.294343
 11
42.114667
 21
-81.294343
  0
LINE
  8
ボルト／ビス
  6
CONTINUOUS
 10
42.781332
 20
-81.194343
 11
42.781332
 21
-81.227678
  0
LINE
  8
ボルト／ビス
  6
CONTINUOUS
 10
42.781332
 20
-81.194343
 11
42.181332
 21
-81.194343
  0
LINE
  8
ボルト／ビス
  6
CONTINUOUS
 10
42.181332
 20
-81.194343
 11
42.181332
 21
-81.227675
  0
LINE
  8
ボルト／ビス
  6
CONTINUOUS
 62
    64
 10
42.641707
 20
-80.994343
 11
42.673783
 21
-81.006017
  0
ARC
  8
ボルト／ビス
  6
CONTINUOUS
 62
    64
 10
42.625668
 20
-81.099323
 40
0.104978
 50
89.999978
 51
117.278011
  0
ARC
  8
ボルト／ビス
  6
CONTINUOUS
 62
    64
 10
42.481331
 20
-81.396746
 40
0.402401
 50
76.164993
 51
103.834976
  0
LINE
  8
ボルト／ビス
  6
CONTINUOUS
 62
    64
 10
42.320958
 20
-80.994343
 11
42.288883
 21
-81.006017
  0
ARC
  8
ボルト／ビス
  6
CONTINUOUS
 62
    64
 10
42.336994
 20
-81.099323
 40
0.104978
 50
62.721945
 51
89.999978
  0
LINE
  8
ボルト／ビス
  6
CONTINUOUS
 62
    64
 10
42.641707
 20
-80.994343
 11
42.320958
 21
-80.994343
  0
LINE
  8
ボルト／ビス
  6
CONTINUOUS
 62
    64
 10
42.288883
 20
-81.006017
 11
42.288883
 21
-81.127675
  0
LINE
  8
ボルト／ビス
  6
CONTINUOUS
 62
    64
 10
42.385108
 20
-81.006017
 11
42.385108
 21
-81.127678
  0
LINE
  8
ボルト／ビス
  6
CONTINUOUS
 62
    64
 10
42.673783
 20
-81.006017
 11
42.673783
 21
-81.127675
  0
LINE
  8
ボルト／ビス
  6
CONTINUOUS
 62
    64
 10
42.577557
 20
-81.006017
 11
42.577557
 21
-81.127675
  0
LINE
  8
ボルト／ビス
  6
CONTINUOUS
 10
42.673783
 20
-81.127675
 11
42.288883
 21
-81.127675
  0
LINE
  8
ボルト／ビス
  6
CONTINUOUS
 10
42.681332
 20
-81.127675
 11
42.681332
 21
-81.194343
  0
LINE
  8
ボルト／ビス
  6
CONTINUOUS
 10
42.681332
 20
-81.127675
 11
42.281332
 21
-81.127675
  0
LINE
  8
ボルト／ビス
  6
CONTINUOUS
 10
42.281332
 20
-81.127675
 11
42.281332
 21
-81.194343
  0
LINE
  8
ボルト／ビス
  6
CONTINUOUS
 62
    64
 10
42.381332
 20
-81.294343
 11
42.381332
 21
-81.294343
  0
ENDBLK
  0
BLOCK
  2
*GRP_0005
 70
    65
 10
0.0
 20
0.0
  0
LINE
  8
ボルト／ビス
  6
CONTINUOUS
 10
-92.552
 20
-81.294343
 11
-92.552
 21
-81.227678
  0
LINE
  8
ボルト／ビス
  6
CONTINUOUS
 10
-92.552
 20
-81.227678
 11
-91.818667
 21
-81.227678
  0
LINE
  8
ボルト／ビス
  6
CONTINUOUS
 10
-91.818667
 20
-81.227678
 11
-91.818667
 21
-81.294343
  0
LINE
  8
ボルト／ビス
  6
CONTINUOUS
 10
-92.552
 20
-81.294343
 11
-91.818667
 21
-81.294343
  0
LINE
  8
ボルト／ビス
  6
CONTINUOUS
 10
-92.485332
 20
-81.194343
 11
-92.485332
 21
-81.227678
  0
LINE
  8
ボルト／ビス
  6
CONTINUOUS
 10
-92.485332
 20
-81.194343
 11
-91.885335
 21
-81.194343
  0
LINE
  8
ボルト／ビス
  6
CONTINUOUS
 10
-91.885335
 20
-81.194343
 11
-91.885335
 21
-81.227675
  0
LINE
  8
ボルト／ビス
  6
CONTINUOUS
 62
    64
 10
-92.34571
 20
-80.994343
 11
-92.377783
 21
-81.006017
  0
ARC
  8
ボルト／ビス
  6
CONTINUOUS
 62
    64
 10
-92.32967
 20
-81.099323
 40
0.104978
 50
62.721989
 51
90.000022
  0
ARC
  8
ボルト／ビス
  6
CONTINUOUS
 62
    64
 10
-92.185333
 20
-81.396746
 40
0.402401
 50
76.165024
 51
103.835007
  0
LINE
  8
ボルト／ビス
  6
CONTINUOUS
 62
    64
 10
-92.02496
 20
-80.994343
 11
-91.992882
 21
-81.006017
  0
ARC
  8
ボルト／ビス
  6
CONTINUOUS
 62
    64
 10
-92.040995
 20
-81.099323
 40
0.104978
 50
90.000022
 51
117.278055
  0
LINE
  8
ボルト／ビス
  6
CONTINUOUS
 62
    64
 10
-92.34571
 20
-80.994343
 11
-92.02496
 21
-80.994343
  0
LINE
  8
ボルト／ビス
  6
CONTINUOUS
 62
    64
 10
-91.992882
 20
-81.006017
 11
-91.992882
 21
-81.127675
  0
LINE
  8
ボルト／ビス
  6
CONTINUOUS
 62
    64
 10
-92.08911
 20
-81.006017
 11
-92.08911
 21
-81.127678
  0
LINE
  8
ボルト／ビス
  6
CONTINUOUS
 62
    64
 10
-92.377783
 20
-81.006017
 11
-92.377783
 21
-81.127675
  0
LINE
  8
ボルト／ビス
  6
CONTINUOUS
 62
    64
 10
-92.281557
 20
-81.006017
 11
-92.281557
 21
-81.127675
  0
LINE
  8
ボルト／ビス
  6
CONTINUOUS
 10
-92.377783
 20
-81.127675
 11
-91.992882
 21
-81.127675
  0
LINE
  8
ボルト／ビス
  6
CONTINUOUS
 10
-92.385333
 20
-81.127675
 11
-92.385333
 21
-81.194343
  0
LINE
  8
ボルト／ビス
  6
CONTINUOUS
 10
-92.385333
 20
-81.127675
 11
-91.985335
 21
-81.127675
  0
LINE
  8
ボルト／ビス
  6
CONTINUOUS
 10
-91.985335
 20
-81.127675
 11
-91.985335
 21
-81.194343
  0
LINE
  8
ボルト／ビス
  6
CONTINUOUS
 62
    64
 10
-92.085335
 20
-81.294343
 11
-92.085335
 21
-81.294343
  0
ENDBLK
  0
BLOCK
  2
*DIM_0006
 70
    65
 10
0.0
 20
0.0
  0
LINE
  8
寸法
  6
CONTINUOUS
 10
166.13993
 20
9.040942
 11
151.055333
 21
9.040942
  0
LINE
  8
寸法
  6
CONTINUOUS
 10
151.055333
 20
11.647755
 11
151.055333
 21
9.040942
  0
POINT
  8
寸法
 10
151.055333
 20
11.647755
  0
POINT
  8
寸法
 10
151.055333
 20
9.040942
  0
TEXT
  7
TextStyle03
  8
寸法
  6
CONTINUOUS
 10
150.65
 20
0.31875
  1
78.2
 40
3.0
 50
90.0
 72
     5
 11
150.65
 21
6.88125
  0
ENDBLK
  0
BLOCK
  2
*DIM_0007
 70
    65
 10
0.0
 20
0.0
  0
LINE
  8
寸法
  6
CONTINUOUS
 10
166.13993
 20
57.587905
 11
151.055333
 21
57.587905
  0
LINE
  8
寸法
  6
CONTINUOUS
 10
151.055333
 20
54.98109
 11
151.055333
 21
57.587905
  0
POINT
  8
寸法
 10
151.055333
 20
54.98109
  0
POINT
  8
寸法
 10
151.055333
 20
57.587905
  0
TEXT
  7
TextStyle03
  8
寸法
  6
CONTINUOUS
 10
150.65
 20
59.76875
  1
78.2
 40
3.0
 50
90.0
 72
     5
 11
150.65
 21
66.33125
  0
ENDBLK
  0
BLOCK
  2
*DIM_0008
 70
    65
 10
0.0
 20
0.0
  0
LINE
  8
寸法
  6
CONTINUOUS
 10
151.055333
 20
11.647755
 11
151.055333
 21
54.98109
  0
POINT
  8
寸法
 10
151.055333
 20
11.647755
  0
POINT
  8
寸法
 10
151.055333
 20
54.98109
  0
TEXT
  7
TextStyle03
  8
寸法
  6
CONTINUOUS
 10
150.65
 20
21.60625
  1
呼称寸法　1300
 40
3.0
 50
90.0
 72
     5
 11
150.65
 21
45.04375
  0
ENDBLK
  0
BLOCK
  2
*DIM_0009
 70
    65
 10
0.0
 20
0.0
  0
LINE
  8
寸法
  6
CONTINUOUS
 10
171.63993
 20
4.04094
 11
171.63993
 21
-4.223383
  0
LINE
  8
寸法
  6
CONTINUOUS
 10
167.923432
 20
6.647755
 11
167.923432
 21
-4.223383
  0
LINE
  8
寸法
  6
CONTINUOUS
 10
171.63993
 20
-4.223383
 11
167.923432
 21
-4.223383
  0
POINT
  8
寸法
 10
171.63993
 20
-4.223383
  0
POINT
  8
寸法
 10
167.923432
 20
-4.223383
  0
TEXT
  7
TextStyle03
  8
寸法
  6
CONTINUOUS
 10
165.625
 20
-7.225
  1
111.5
 40
3.0
 50
360.0
 72
     5
 11
173.875
 21
-7.225
  0
ENDBLK
  0
BLOCK
  2
*DIM_0010
 70
    65
 10
0.0
 20
0.0
  0
LINE
  8
寸法
  6
CONTINUOUS
 10
44.421478
 20
-79.010843
 11
44.421478
 21
-63.926245
  0
LINE
  8
寸法
  6
CONTINUOUS
 10
41.814662
 20
-63.926245
 11
44.421478
 21
-63.926245
  0
POINT
  8
寸法
 10
41.814662
 20
-63.926245
  0
POINT
  8
寸法
 10
44.421478
 20
-63.926245
  0
TEXT
  7
TextStyle03
  8
寸法
  6
CONTINUOUS
 10
46.56875
 20
-63.55
  1
78.2
 40
3.0
 72
     5
 11
53.13125
 21
-63.55
  0
ENDBLK
  0
BLOCK
  2
*DIM_0011
 70
    65
 10
0.0
 20
0.0
  0
LINE
  8
寸法
  6
CONTINUOUS
 10
49.421478
 20
-84.510843
 11
57.6858
 21
-84.510843
  0
LINE
  8
寸法
  6
CONTINUOUS
 10
46.814662
 20
-80.794345
 11
57.6858
 21
-80.794345
  0
LINE
  8
寸法
  6
CONTINUOUS
 10
57.6858
 20
-84.510843
 11
57.6858
 21
-80.794345
  0
POINT
  8
寸法
 10
57.6858
 20
-84.510843
  0
POINT
  8
寸法
 10
57.6858
 20
-80.794345
  0
TEXT
  7
TextStyle03
  8
寸法
  6
CONTINUOUS
 10
60.65
 20
-86.775
  1
111.5
 40
3.0
 50
90.0
 72
     5
 11
60.65
 21
-78.525
  0
ENDBLK
  0
BLOCK
  2
*DIM_0012
 70
    65
 10
0.0
 20
0.0
  0
LINE
  8
寸法
  6
CONTINUOUS
 10
-94.125478
 20
-79.010843
 11
-94.125478
 21
-63.926245
  0
LINE
  8
寸法
  6
CONTINUOUS
 10
-91.518665
 20
-63.926245
 11
-94.125478
 21
-63.926245
  0
POINT
  8
寸法
 10
-91.518665
 20
-63.926245
  0
POINT
  8
寸法
 10
-94.125478
 20
-63.926245
  0
TEXT
  7
TextStyle03
  8
寸法
  6
CONTINUOUS
 10
-102.88125
 20
-63.55
  1
78.2
 40
3.0
 72
     5
 11
-96.31875
 21
-63.55
  0
ENDBLK
  0
BLOCK
  2
*DIM_0013
 70
    65
 10
0.0
 20
0.0
  0
LINE
  8
寸法
  6
CONTINUOUS
 10
41.814662
 20
-63.926245
 11
-91.518665
 21
-63.926245
  0
POINT
  8
寸法
 10
41.814662
 20
-63.926245
  0
POINT
  8
寸法
 10
-91.518665
 20
-63.926245
  0
TEXT
  7
TextStyle03
  8
寸法
  6
CONTINUOUS
 10
-36.59375
 20
-63.55
  1
呼称寸法　4000
 40
3.0
 72
     5
 11
-13.15625
 21
-63.55
  0
ENDBLK
  0
BLOCK
  2
*DIM_0014
 70
    65
 10
0.0
 20
0.0
  0
LINE
  8
寸法
  6
BYBLOCK
 62
     0
 10
-74.852
 20
8.017627
 11
-74.852
 21
3.122393
  0
LINE
  8
寸法
  6
BYBLOCK
 62
     0
 10
25.147995
 20
8.017627
 11
25.147995
 21
3.122393
  0
LINE
  8
寸法
  6
BYBLOCK
 62
     0
 10
-74.852
 20
3.122393
 11
25.147995
 21
3.122393
  0
POINT
  8
寸法
 62
     0
 10
-74.852
 20
3.122393
  0
POINT
  8
寸法
 62
     0
 10
25.147995
 20
3.122393
  0
TEXT
  7
TextStyle03
  8
寸法
  6
CONTINUOUS
 62
     0
 10
-28.18125
 20
3.475
  1
3000
 40
3.0
 72
     5
 11
-21.61875
 21
3.475
  0
ENDBLK
  0
BLOCK
  2
*DIM_0015
 70
    65
 10
0.0
 20
0.0
  0
LINE
  8
寸法
  6
BYBLOCK
 62
     0
 10
-94.518667
 20
21.647755
 11
-123.463833
 21
21.647755
  0
LINE
  8
寸法
  6
BYBLOCK
 62
     0
 10
-94.518667
 20
44.98109
 11
-123.463833
 21
44.98109
  0
LINE
  8
寸法
  6
BYBLOCK
 62
     0
 10
-123.463833
 20
21.647755
 11
-123.463833
 21
44.98109
  0
POINT
  8
寸法
 62
     0
 10
-123.463833
 20
21.647755
  0
POINT
  8
寸法
 62
     0
 10
-123.463833
 20
44.98109
  0
TEXT
  7
TextStyle03
  8
寸法
  6
CONTINUOUS
 62
     0
 10
-123.925
 20
30.8625
  1
700
 40
3.0
 50
90.0
 72
     5
 11
-123.925
 21
35.7375
  0
ENDBLK
  0
BLOCK
  2
*DIM_0016
 70
    65
 10
0.0
 20
0.0
  0
LINE
  8
寸法
  6
BYBLOCK
 62
     0
 10
-83.185335
 20
57.981087
 11
-83.185335
 21
87.08916
  0
LINE
  8
寸法
  6
BYBLOCK
 62
     0
 10
-59.852002
 20
57.981087
 11
-59.852002
 21
87.08916
  0
LINE
  8
寸法
  6
BYBLOCK
 62
     0
 10
-83.185335
 20
87.08916
 11
-59.852002
 21
87.08916
  0
POINT
  8
寸法
 62
     0
 10
-83.185335
 20
87.08916
  0
POINT
  8
寸法
 62
     0
 10
-59.852002
 20
87.08916
  0
TEXT
  7
TextStyle03
  8
寸法
  6
CONTINUOUS
 62
     0
 10
-73.9875
 20
87.45
  1
700
 40
3.0
 72
     5
 11
-69.1125
 21
87.45
  0
ENDBLK
  0
BLOCK
  2
*DIM_0017
 70
    65
 10
0.0
 20
0.0
  0
LINE
  8
寸法
  6
BYBLOCK
 62
     0
 10
-36.51867
 20
57.981087
 11
-36.51867
 21
87.08916
  0
LINE
  8
寸法
  6
BYBLOCK
 62
     0
 10
-59.852002
 20
87.08916
 11
-36.51867
 21
87.08916
  0
POINT
  8
寸法
 62
     0
 10
-36.51867
 20
87.08916
  0
TEXT
  7
TextStyle03
  8
寸法
  6
CONTINUOUS
 62
     0
 10
-50.6625
 20
87.45
  1
700
 40
3.0
 72
     5
 11
-45.7875
 21
87.45
  0
ENDBLK
  0
BLOCK
  2
*DIM_0018
 70
    65
 10
0.0
 20
0.0
  0
LINE
  8
寸法
  6
BYBLOCK
 62
     0
 10
-13.185335
 20
57.981087
 11
-13.185335
 21
87.08916
  0
LINE
  8
寸法
  6
BYBLOCK
 62
     0
 10
-36.51867
 20
87.08916
 11
-13.185335
 21
87.08916
  0
POINT
  8
寸法
 62
     0
 10
-13.185335
 20
87.08916
  0
TEXT
  7
TextStyle03
  8
寸法
  6
CONTINUOUS
 62
     0
 10
-27.3375
 20
87.45
  1
700
 40
3.0
 72
     5
 11
-22.4625
 21
87.45
  0
ENDBLK
  0
BLOCK
  2
*DIM_0019
 70
    65
 10
0.0
 20
0.0
  0
LINE
  8
寸法
  6
BYBLOCK
 62
     0
 10
10.147998
 20
57.981087
 11
10.147998
 21
87.08916
  0
LINE
  8
寸法
  6
BYBLOCK
 62
     0
 10
-13.185335
 20
87.08916
 11
10.147998
 21
87.08916
  0
POINT
  8
寸法
 62
     0
 10
10.147998
 20
87.08916
  0
TEXT
  7
TextStyle03
  8
寸法
  6
CONTINUOUS
 62
     0
 10
-3.9875
 20
87.45
  1
700
 40
3.0
 72
     5
 11
0.8875
 21
87.45
  0
ENDBLK
  0
BLOCK
  2
*DIM_0020
 70
    65
 10
0.0
 20
0.0
  0
LINE
  8
寸法
  6
BYBLOCK
 62
     0
 10
33.48133
 20
57.981087
 11
33.48133
 21
87.08916
  0
LINE
  8
寸法
  6
BYBLOCK
 62
     0
 10
10.147998
 20
87.08916
 11
33.48133
 21
87.08916
  0
POINT
  8
寸法
 62
     0
 10
33.48133
 20
87.08916
  0
TEXT
  7
TextStyle03
  8
寸法
  6
CONTINUOUS
 62
     0
 10
19.3375
 20
87.45
  1
700
 40
3.0
 72
     5
 11
24.2125
 21
87.45
  0
ENDBLK
  0
BLOCK
  2
*DIM_0021
 70
    65
 10
0.0
 20
0.0
  0
LINE
  8
寸法
  6
CONTINUOUS
 10
122.738192
 20
-35.733285
 11
122.738192
 21
-25.251962
  0
LINE
  8
寸法
  6
CONTINUOUS
 10
154.981525
 20
-35.733285
 11
154.981525
 21
-25.251962
  0
LINE
  8
寸法
  6
CONTINUOUS
 10
122.738192
 20
-25.251962
 11
154.981525
 21
-25.251962
  0
POINT
  8
寸法
 10
122.738192
 20
-25.251962
  0
POINT
  8
寸法
 10
154.981525
 20
-25.251962
  0
TEXT
  7
TextStyle03
  8
寸法
  6
CONTINUOUS
 10
134.725
 20
-24.9
  1
967.3
 40
3.0
 72
     5
 11
142.975
 21
-24.9
  0
ENDBLK
  0
BLOCK
  2
*DIM_0022
 70
    65
 10
0.0
 20
0.0
  0
LINE
  8
寸法
  6
CONTINUOUS
 10
159.981525
 20
-40.733285
 11
170.946628
 21
-40.733285
  0
LINE
  8
寸法
  6
CONTINUOUS
 10
159.981525
 20
-83.39995
 11
170.946628
 21
-83.39995
  0
LINE
  8
寸法
  6
CONTINUOUS
 10
170.946628
 20
-40.733285
 11
170.946628
 21
-83.39995
  0
POINT
  8
寸法
 10
170.946628
 20
-40.733285
  0
POINT
  8
寸法
 10
170.946628
 20
-83.39995
  0
TEXT
  7
TextStyle03
  8
寸法
  6
CONTINUOUS
 10
170.55
 20
-65.35625
  1
1280
 40
3.0
 50
90.0
 72
     5
 11
170.55
 21
-58.79375
  0
ENDBLK
  0
ENDSEC
  0
SECTION
  2
ENTITIES
  0
POLYLINE
  8
通り芯
  6
CONTINUOUS
 66
     1
 70
     1
  0
VERTEX
  8
通り芯
 10
-210.0
 20
-148.5
  0
VERTEX
  8
通り芯
 10
210.0
 20
-148.5
  0
VERTEX
  8
通り芯
 10
210.0
 20
148.5
  0
VERTEX
  8
通り芯
 10
-210.0
 20
148.5
  0
SEQEND
  0
INSERT
  2
*GRP_0001
  8
型材断面
  6
CONTINUOUS
 10
0.0
 20
0.0
  0
LINE
  8
型材断面
  6
CONTINUOUS
 10
172.08993
 20
9.49094
 11
171.63993
 21
9.49094
  0
LINE
  8
型材断面
  6
CONTINUOUS
 62
    47
 10
171.63993
 20
9.04094
 11
171.13993
 21
9.04094
  0
LINE
  8
型材断面
  6
CONTINUOUS
 62
    47
 10
170.344312
 20
11.597755
 11
171.13993
 21
9.04094
  0
LINE
  8
型材断面
  6
CONTINUOUS
 10
171.63993
 20
9.49094
 11
171.63993
 21
9.04094
  0
LINE
  8
型材断面
  6
CONTINUOUS
 10
169.256765
 20
9.98109
 11
169.256762
 21
10.03109
  0
LINE
  8
型材断面
  6
CONTINUOUS
 10
169.256765
 20
9.98109
 11
168.42343
 21
9.98109
  0
LINE
  8
型材断面
  6
CONTINUOUS
 10
167.923432
 20
11.647755
 11
168.42343
 21
11.647755
  0
LINE
  8
型材断面
  6
CONTINUOUS
 10
168.42343
 20
9.98109
 11
168.42343
 21
11.647755
  0
INSERT
  2
*GRP_0002
  8
型材断面
  6
CONTINUOUS
 10
0.0
 20
0.0
  0
LINE
  8
型材断面
  6
CONTINUOUS
 10
169.256762
 20
11.597755
 11
170.344312
 21
11.597755
  0
LINE
  8
型材断面
  6
CONTINUOUS
 10
172.08993
 20
57.137903
 11
171.63993
 21
57.137903
  0
LINE
  8
型材断面
  6
CONTINUOUS
 62
    47
 10
171.63993
 20
57.587903
 11
171.13993
 21
57.587903
  0
LINE
  8
型材断面
  6
CONTINUOUS
 62
    47
 10
170.344312
 20
55.03109
 11
171.13993
 21
57.587903
  0
LINE
  8
型材断面
  6
CONTINUOUS
 10
171.63993
 20
57.137903
 11
171.63993
 21
57.587903
  0
LINE
  8
型材断面
  6
CONTINUOUS
 10
169.256765
 20
56.647753
 11
169.256762
 21
56.597753
  0
LINE
  8
型材断面
  6
CONTINUOUS
 10
169.256765
 20
56.647753
 11
168.42343
 21
56.647753
  0
LINE
  8
型材断面
  6
CONTINUOUS
 10
167.923432
 20
54.98109
 11
168.42343
 21
54.98109
  0
LINE
  8
型材断面
  6
CONTINUOUS
 10
168.42343
 20
56.647753
 11
168.42343
 21
54.98109
  0
INSERT
  2
*GRP_0003
  8
型材断面
  6
CONTINUOUS
 10
0.0
 20
0.0
  0
LINE
  8
型材断面
  6
CONTINUOUS
 10
169.256762
 20
55.03109
 11
170.344312
 21
55.03109
  0
LINE
  8
型材断面
  6
DASHDOT
 10
-24.852002
 20
-86.575325
 11
-24.852002
 21
54.98109
  0
LINE
  8
型材断面
  6
CONTINUOUS
 10
171.63993
 20
57.587903
 11
171.63993
 21
9.04094
  0
LINE
  8
型材断面
  6
CONTINUOUS
 10
171.13993
 20
57.587903
 11
171.13993
 21
9.04094
  0
LINE
  8
型材断面
  6
CONTINUOUS
 10
170.344312
 20
11.597755
 11
170.344312
 21
55.03109
  0
LINE
  8
型材断面
  6
CONTINUOUS
 10
172.08993
 20
9.49094
 11
172.08993
 21
57.137903
  0
LINE
  8
型材断面
  6
CONTINUOUS
 10
167.92343
 20
11.647755
 11
167.92343
 21
54.98109
  0
LINE
  8
型材断面
  6
CONTINUOUS
 10
169.256762
 20
9.98109
 11
169.256762
 21
56.647753
  0
LINE
  8
型材断面
  6
CONTINUOUS
 10
168.42343
 20
9.98109
 11
168.42343
 21
56.647753
  0
LINE
  8
型材断面
  6
CONTINUOUS
 10
43.971478
 20
-84.960843
 11
43.971478
 21
-84.510843
  0
LINE
  8
型材断面
  6
CONTINUOUS
 62
    47
 10
44.421478
 20
-84.510843
 11
44.421478
 21
-84.010843
  0
LINE
  8
型材断面
  6
CONTINUOUS
 62
    47
 10
41.864662
 20
-83.215225
 11
44.421478
 21
-84.010843
  0
LINE
  8
型材断面
  6
CONTINUOUS
 10
43.971478
 20
-84.510843
 11
44.421478
 21
-84.510843
  0
LINE
  8
型材断面
  6
CONTINUOUS
 10
43.481328
 20
-82.127678
 11
43.431328
 21
-82.127675
  0
LINE
  8
型材断面
  6
CONTINUOUS
 10
43.481328
 20
-82.127678
 11
43.481328
 21
-81.294343
  0
LINE
  8
型材断面
  6
CONTINUOUS
 10
41.814662
 20
-80.794345
 11
41.814662
 21
-81.294343
  0
LINE
  8
型材断面
  6
CONTINUOUS
 10
43.481328
 20
-81.294343
 11
41.814662
 21
-81.294343
  0
INSERT
  2
*GRP_0004
  8
型材断面
  6
CONTINUOUS
 10
0.0
 20
0.0
  0
LINE
  8
型材断面
  6
CONTINUOUS
 10
41.864662
 20
-82.127675
 11
41.864662
 21
-83.215225
  0
LINE
  8
型材断面
  6
CONTINUOUS
 10
40.98133
 20
32.897755
 11
41.814662
 21
32.897755
  0
LINE
  8
型材断面
  6
CONTINUOUS
 10
40.98133
 20
33.731087
 11
41.814662
 21
33.731087
  0
LINE
  8
型材断面
  6
DASHDOT
 10
41.814662
 20
-86.575325
 11
41.814662
 21
11.647755
  0
LINE
  8
型材断面
  6
DASHDOT
 10
173.704413
 20
11.647755
 11
41.814662
 21
11.647755
  0
LINE
  8
型材断面
  6
CONTINUOUS
 10
41.814662
 20
11.647755
 11
41.814662
 21
33.314422
  0
LINE
  8
型材断面
  6
CONTINUOUS
 10
40.98133
 20
32.897755
 11
40.98133
 21
12.481087
  0
LINE
  8
型材断面
  6
CONTINUOUS
 10
44.421478
 20
9.04094
 11
40.98133
 21
12.481087
  0
LINE
  8
型材断面
  6
DASHDOT
 10
173.704413
 20
54.98109
 11
41.814662
 21
54.98109
  0
LINE
  8
型材断面
  6
CONTINUOUS
 10
41.814662
 20
54.98109
 11
41.814662
 21
33.314422
  0
LINE
  8
型材断面
  6
CONTINUOUS
 10
44.421478
 20
57.587903
 11
40.98133
 21
54.147758
  0
LINE
  8
型材断面
  6
CONTINUOUS
 10
40.98133
 20
33.731087
 11
40.98133
 21
54.147758
  0
LINE
  8
型材断面
  6
CONTINUOUS
 10
44.421478
 20
9.04094
 11
44.421478
 21
57.587903
  0
LINE
  8
型材断面
  6
CONTINUOUS
 10
43.481328
 20
9.98109
 11
43.481328
 21
56.647753
  0
LINE
  8
型材断面
  6
CONTINUOUS
 10
-93.675478
 20
-84.960843
 11
-93.675478
 21
-84.510843
  0
LINE
  8
型材断面
  6
CONTINUOUS
 62
    47
 10
-94.125478
 20
-84.510843
 11
-94.125478
 21
-84.010843
  0
LINE
  8
型材断面
  6
CONTINUOUS
 62
    47
 10
-91.568665
 20
-83.215225
 11
-94.125478
 21
-84.010843
  0
LINE
  8
型材断面
  6
CONTINUOUS
 10
-93.675478
 20
-84.510843
 11
-94.125478
 21
-84.510843
  0
LINE
  8
型材断面
  6
CONTINUOUS
 10
-93.185328
 20
-82.127678
 11
-93.135328
 21
-82.127675
  0
LINE
  8
型材断面
  6
CONTINUOUS
 10
-93.185328
 20
-82.127678
 11
-93.185328
 21
-81.294343
  0
LINE
  8
型材断面
  6
CONTINUOUS
 10
-91.518665
 20
-80.794345
 11
-91.518665
 21
-81.294343
  0
LINE
  8
型材断面
  6
CONTINUOUS
 10
-93.185328
 20
-81.294343
 11
-91.518665
 21
-81.294343
  0
INSERT
  2
*GRP_0005
  8
型材断面
  6
CONTINUOUS
 10
0.0
 20
0.0
  0
LINE
  8
型材断面
  6
CONTINUOUS
 10
-91.568665
 20
-82.127675
 11
-91.568665
 21
-83.215225
  0
LINE
  8
型材断面
  6
DASHDOT
 10
173.704413
 20
33.314422
 11
-91.518665
 21
33.314422
  0
LINE
  8
型材断面
  6
CONTINUOUS
 10
-90.685333
 20
32.897755
 11
-91.518665
 21
32.897755
  0
LINE
  8
型材断面
  6
CONTINUOUS
 10
-90.685333
 20
33.731087
 11
-91.518665
 21
33.731087
  0
LINE
  8
型材断面
  6
DASHDOT
 10
-91.518665
 20
-86.575325
 11
-91.518665
 21
11.647755
  0
LINE
  8
型材断面
  6
CONTINUOUS
 10
-91.518665
 20
11.647755
 11
-91.518665
 21
33.314422
  0
LINE
  8
型材断面
  6
CONTINUOUS
 10
-90.685333
 20
32.897755
 11
-90.685333
 21
12.481087
  0
LINE
  8
型材断面
  6
CONTINUOUS
 10
-94.125478
 20
9.04094
 11
-90.685333
 21
12.481087
  0
LINE
  8
型材断面
  6
CONTINUOUS
 10
-91.518665
 20
54.98109
 11
-91.518665
 21
33.314422
  0
LINE
  8
型材断面
  6
CONTINUOUS
 10
-90.685333
 20
33.731087
 11
-90.685333
 21
54.147758
  0
LINE
  8
型材断面
  6
CONTINUOUS
 10
-94.125478
 20
57.587903
 11
-90.685333
 21
54.147758
  0
LINE
  8
型材断面
  6
CONTINUOUS
 10
-93.185328
 20
56.647753
 11
-93.185328
 21
9.98109
  0
LINE
  8
型材断面
  6
CONTINUOUS
 10
-94.125478
 20
57.587903
 11
-94.125478
 21
9.04094
  0
LINE
  8
型材断面
  6
CONTINUOUS
 10
-94.125478
 20
-84.510843
 11
44.421478
 21
-84.510843
  0
LINE
  8
型材断面
  6
CONTINUOUS
 10
-94.125478
 20
-84.010843
 11
44.421478
 21
-84.010843
  0
LINE
  8
型材断面
  6
CONTINUOUS
 10
41.864662
 20
-83.215225
 11
-91.568665
 21
-83.215225
  0
LINE
  8
型材断面
  6
CONTINUOUS
 10
43.971478
 20
-84.960843
 11
-93.675478
 21
-84.960843
  0
LINE
  8
型材断面
  6
CONTINUOUS
 10
41.814662
 20
-80.794343
 11
-91.518665
 21
-80.794343
  0
LINE
  8
型材断面
  6
CONTINUOUS
 10
43.481328
 20
-82.127675
 11
-93.185328
 21
-82.127675
  0
LINE
  8
型材断面
  6
CONTINUOUS
 10
43.481328
 20
-81.294343
 11
-93.185328
 21
-81.294343
  0
LINE
  8
型材断面
  6
CONTINUOUS
 10
43.481328
 20
9.98109
 11
-93.185328
 21
9.98109
  0
LINE
  8
型材断面
  6
CONTINUOUS
 10
44.421478
 20
9.04094
 11
-94.125478
 21
9.04094
  0
LINE
  8
型材断面
  6
CONTINUOUS
 10
41.814662
 20
11.647755
 11
-91.518665
 21
11.647755
  0
LINE
  8
型材断面
  6
CONTINUOUS
 10
43.481328
 20
56.647753
 11
-93.185328
 21
56.647753
  0
LINE
  8
型材断面
  6
CONTINUOUS
 10
44.421478
 20
57.587903
 11
-94.125478
 21
57.587903
  0
LINE
  8
型材断面
  6
CONTINUOUS
 10
41.814662
 20
54.98109
 11
-91.518665
 21
54.98109
  0
LINE
  8
型材断面
  6
CONTINUOUS
 10
-94.148798
 20
33.314422
 11
-96.739305
 21
34.810052
  0
LINE
  8
型材断面
  6
CONTINUOUS
 10
-94.148798
 20
33.314422
 11
-96.739305
 21
31.818793
  0
LINE
  8
型材断面
  6
CONTINUOUS
 10
-96.739305
 20
31.818793
 11
-96.739305
 21
34.810052
  0
LINE
  8
型材断面
  6
CONTINUOUS
 10
-74.852
 20
57.611218
 11
-76.34763
 21
60.201725
  0
LINE
  8
型材断面
  6
CONTINUOUS
 10
-74.852
 20
57.611218
 11
-73.35637
 21
60.201725
  0
LINE
  8
型材断面
  6
CONTINUOUS
 10
-73.35637
 20
60.201725
 11
-76.34763
 21
60.201725
  0
LINE
  8
型材断面
  6
CONTINUOUS
 10
-132.370875
 20
99.488435
 11
-133.866505
 21
96.897927
  0
LINE
  8
型材断面
  6
CONTINUOUS
 10
-132.370875
 20
99.488435
 11
-130.875245
 21
96.897927
  0
LINE
  8
型材断面
  6
CONTINUOUS
 10
-130.875245
 20
96.897927
 11
-133.866505
 21
96.897927
  0
LINE
  8
型材断面
  6
CONTINUOUS
 10
-138.393463
 20
95.959332
 11
-92.151685
 21
95.959332
  0
LINE
  8
型材断面
  6
CONTINUOUS
 10
-74.852
 20
9.017627
 11
-76.34763
 21
6.42712
  0
LINE
  8
型材断面
  6
CONTINUOUS
 10
-74.852
 20
9.017627
 11
-73.35637
 21
6.42712
  0
LINE
  8
型材断面
  6
CONTINUOUS
 10
-73.35637
 20
6.42712
 11
-76.34763
 21
6.42712
  0
LINE
  8
型材断面
  6
CONTINUOUS
 10
44.444793
 20
33.314422
 11
47.0353
 21
34.810052
  0
LINE
  8
型材断面
  6
CONTINUOUS
 10
44.444793
 20
33.314422
 11
47.0353
 21
31.818793
  0
LINE
  8
型材断面
  6
CONTINUOUS
 10
47.0353
 20
31.818793
 11
47.0353
 21
34.810052
  0
LINE
  8
型材断面
  6
CONTINUOUS
 10
25.147995
 20
57.611218
 11
26.643625
 21
60.201725
  0
LINE
  8
型材断面
  6
CONTINUOUS
 10
25.147995
 20
57.611218
 11
23.652365
 21
60.201725
  0
LINE
  8
型材断面
  6
CONTINUOUS
 10
23.652365
 20
60.201725
 11
26.643625
 21
60.201725
  0
LINE
  8
型材断面
  6
CONTINUOUS
 10
25.147995
 20
9.017627
 11
26.643625
 21
6.42712
  0
LINE
  8
型材断面
  6
CONTINUOUS
 10
25.147995
 20
9.017627
 11
23.652365
 21
6.42712
  0
LINE
  8
型材断面
  6
CONTINUOUS
 10
23.652365
 20
6.42712
 11
26.643625
 21
6.42712
  0
LINE
  8
型材断面
  6
CONTINUOUS
 10
-138.393463
 20
89.432252
 11
-92.151685
 21
89.432252
  0
LINE
  8
型材断面
  6
CONTINUOUS
 10
-75.3395
 20
11.647755
 11
-75.3395
 21
12.481087
  0
LINE
  8
型材断面
  6
CONTINUOUS
 10
-74.506165
 20
11.647755
 11
-74.506165
 21
12.481087
  0
LINE
  8
型材断面
  6
CONTINUOUS
 10
-42.006167
 20
11.647755
 11
-42.006167
 21
12.481087
  0
LINE
  8
型材断面
  6
CONTINUOUS
 10
-41.172833
 20
11.647755
 11
-41.172833
 21
12.481087
  0
LINE
  8
型材断面
  6
CONTINUOUS
 10
-57.243697
 20
13.31442
 11
-59.41033
 21
13.31442
  0
LINE
  8
型材断面
  6
CONTINUOUS
 10
-57.243697
 20
53.314425
 11
-59.41033
 21
53.314425
  0
LINE
  8
型材断面
  6
CONTINUOUS
 10
-57.243697
 20
13.31442
 11
-57.243697
 21
53.314425
  0
LINE
  8
型材断面
  6
CONTINUOUS
 10
-58.07703
 20
13.31442
 11
-58.07703
 21
53.314425
  0
LINE
  8
型材断面
  6
CONTINUOUS
 10
-58.576998
 20
13.31442
 11
-58.576998
 21
53.314425
  0
LINE
  8
型材断面
  6
CONTINUOUS
 10
-59.41033
 20
13.304725
 11
-59.41033
 21
53.314425
  0
LINE
  8
型材断面
  6
CONTINUOUS
 10
-23.768703
 20
13.31442
 11
-25.935335
 21
13.31442
  0
LINE
  8
型材断面
  6
CONTINUOUS
 10
-23.768703
 20
53.314425
 11
-25.935335
 21
53.314425
  0
LINE
  8
型材断面
  6
CONTINUOUS
 10
-23.768703
 20
13.31442
 11
-23.768703
 21
53.314425
  0
LINE
  8
型材断面
  6
CONTINUOUS
 10
-24.602035
 20
13.31442
 11
-24.602035
 21
53.314425
  0
LINE
  8
型材断面
  6
CONTINUOUS
 10
-25.102002
 20
13.31442
 11
-25.102002
 21
53.314425
  0
LINE
  8
型材断面
  6
CONTINUOUS
 10
-25.935335
 20
13.304725
 11
-25.935335
 21
53.314425
  0
LINE
  8
型材断面
  6
CONTINUOUS
 10
9.706293
 20
13.31442
 11
7.53966
 21
13.31442
  0
LINE
  8
型材断面
  6
CONTINUOUS
 10
9.706293
 20
53.314425
 11
7.53966
 21
53.314425
  0
LINE
  8
型材断面
  6
CONTINUOUS
 10
9.706293
 20
13.31442
 11
9.706293
 21
53.314425
  0
LINE
  8
型材断面
  6
CONTINUOUS
 10
8.87296
 20
13.31442
 11
8.87296
 21
53.314425
  0
LINE
  8
型材断面
  6
CONTINUOUS
 10
8.372992
 20
13.31442
 11
8.372992
 21
53.314425
  0
LINE
  8
型材断面
  6
CONTINUOUS
 10
7.53966
 20
13.304725
 11
7.53966
 21
53.314425
  0
LINE
  8
型材断面
  6
DASHDOT
 10
8.622992
 20
11.647755
 11
8.622992
 21
54.98109
  0
LINE
  8
型材断面
  6
DASHDOT
 10
-58.326998
 20
11.647755
 11
-58.326998
 21
54.98109
  0
LINE
  8
型材断面
  6
CONTINUOUS
 10
-75.3395
 20
12.481087
 11
-90.685333
 21
12.481087
  0
LINE
  8
型材断面
  6
CONTINUOUS
 10
-42.006167
 20
12.481087
 11
-74.506165
 21
12.481087
  0
LINE
  8
型材断面
  6
CONTINUOUS
 10
25.635495
 20
11.647755
 11
25.635495
 21
12.481087
  0
LINE
  8
型材断面
  6
CONTINUOUS
 10
24.80216
 20
11.647755
 11
24.80216
 21
12.481087
  0
LINE
  8
型材断面
  6
CONTINUOUS
 10
-7.697837
 20
11.647755
 11
-7.697837
 21
12.481087
  0
LINE
  8
型材断面
  6
CONTINUOUS
 10
-8.531172
 20
11.647755
 11
-8.531172
 21
12.481087
  0
LINE
  8
型材断面
  6
CONTINUOUS
 10
25.635495
 20
12.481087
 11
40.981328
 21
12.481087
  0
LINE
  8
型材断面
  6
CONTINUOUS
 10
-7.697837
 20
12.481087
 11
24.80216
 21
12.481087
  0
LINE
  8
型材断面
  6
CONTINUOUS
 10
-41.172833
 20
12.481087
 11
-8.531172
 21
12.481087
  0
LINE
  8
型材断面
  6
CONTINUOUS
 10
-75.3395
 20
54.98109
 11
-75.3395
 21
54.147758
  0
LINE
  8
型材断面
  6
CONTINUOUS
 10
-74.506165
 20
54.98109
 11
-74.506165
 21
54.147758
  0
LINE
  8
型材断面
  6
CONTINUOUS
 10
-42.006167
 20
54.98109
 11
-42.006167
 21
54.147758
  0
LINE
  8
型材断面
  6
CONTINUOUS
 10
-41.172833
 20
54.98109
 11
-41.172833
 21
54.147758
  0
LINE
  8
型材断面
  6
CONTINUOUS
 10
-75.3395
 20
54.147758
 11
-90.685333
 21
54.147758
  0
LINE
  8
型材断面
  6
CONTINUOUS
 10
-42.006167
 20
54.147758
 11
-74.506165
 21
54.147758
  0
LINE
  8
型材断面
  6
CONTINUOUS
 10
25.635495
 20
54.98109
 11
25.635495
 21
54.147758
  0
LINE
  8
型材断面
  6
CONTINUOUS
 10
24.80216
 20
54.98109
 11
24.80216
 21
54.147758
  0
LINE
  8
型材断面
  6
CONTINUOUS
 10
-7.697837
 20
54.98109
 11
-7.697837
 21
54.147758
  0
LINE
  8
型材断面
  6
CONTINUOUS
 10
-8.531172
 20
54.98109
 11
-8.531172
 21
54.147758
  0
LINE
  8
型材断面
  6
CONTINUOUS
 10
25.635495
 20
54.147758
 11
40.981328
 21
54.147758
  0
LINE
  8
型材断面
  6
CONTINUOUS
 10
-7.697837
 20
54.147758
 11
24.80216
 21
54.147758
  0
LINE
  8
型材断面
  6
CONTINUOUS
 10
-41.172833
 20
54.147758
 11
-8.531172
 21
54.147758
  0
LINE
  8
型材断面
  6
CONTINUOUS
 10
122.749998
 20
-19.544675
 11
143.887572
 21
-19.544675
  0
POLYLINE
  8
ガラス
  6
CONTINUOUS
 66
     1
 70
     1
  0
VERTEX
  8
ガラス
 10
154.981525
 20
-40.733285
  0
VERTEX
  8
ガラス
 10
122.738192
 20
-40.733285
  0
VERTEX
  8
ガラス
 10
122.738192
 20
-83.39995
  0
VERTEX
  8
ガラス
 10
154.981525
 20
-83.39995
  0
SEQEND
  0
TEXT
  7
TextStyle03
  8
文字
  6
CONTINUOUS
 10
78.1
 20
125.25
  1
シリーズ：ＳＴＦＦＫＬ
 40
5.0
 72
     5
 11
139.35
 21
125.25
  0
TEXT
  7
TextStyle03
  8
文字
  6
CONTINUOUS
 10
78.1
 20
119.625
  1
　　　　　（固定）1300×4000タイプ
 40
5.0
 72
     5
 11
173.1
 21
119.625
  0
TEXT
  7
TextStyle03
  8
文字
  6
CONTINUOUS
 10
78.1
 20
114.0
  1
図面名　：外観姿図
 40
5.0
 72
     5
 11
128.1
 21
114.0
  0
TEXT
  7
TextStyle03
  8
文字
  6
CONTINUOUS
 10
78.1
 20
108.375
  1
　　　　　　
 40
5.0
 72
     5
 11
111.225
 21
108.375
  0
TEXT
  7
TextStyle03
  8
文字
  6
CONTINUOUS
 10
-129.6
 20
97.1
  1
は排水穴位置を示す
 40
3.0
 72
     5
 11
-99.6
 21
97.1
  0
TEXT
  7
TextStyle03
  8
文字
  6
CONTINUOUS
 10
-129.125
 20
22.225
  1
アンカーピッチ
 40
3.0
 50
90.0
 72
     5
 11
-129.125
 21
45.475
  0
TEXT
  7
TextStyle03
  8
文字
  6
CONTINUOUS
 10
-83.45
 20
93.0
  1
アンカーピッチ
 40
3.0
 72
     5
 11
-60.2
 21
93.0
  0
TEXT
  7
TextStyle03
  8
文字
  6
CONTINUOUS
 10
-133.325
 20
90.35
  1
アンカー数量　１６ヶ所
 40
3.0
 72
     5
 11
-96.575
 21
90.35
  0
TEXT
  7
TextStyle03
  8
文字
  6
CONTINUOUS
 10
141.45
 20
-80.825
  1
×４枚
 40
3.0
 72
     5
 11
151.2
 21
-80.825
  0
TEXT
  7
TextStyle03
  8
文字
  6
CONTINUOUS
 10
124.8
 20
-18.1
  1
ガラス寸法
 40
3.0
 72
     5
 11
141.3
 21
-18.1
  0
INSERT
  2
*DIM_0006
  8
寸法
  6
CONTINUOUS
 10
0.0
 20
0.0
  0
INSERT
  2
*DIM_0007
  8
寸法
  6
CONTINUOUS
 10
0.0
 20
0.0
  0
INSERT
  2
*DIM_0008
  8
寸法
  6
CONTINUOUS
 10
0.0
 20
0.0
  0
INSERT
  2
*DIM_0009
  8
寸法
  6
CONTINUOUS
 10
0.0
 20
0.0
  0
INSERT
  2
*DIM_0010
  8
寸法
  6
CONTINUOUS
 10
0.0
 20
0.0
  0
INSERT
  2
*DIM_0011
  8
寸法
  6
CONTINUOUS
 10
0.0
 20
0.0
  0
INSERT
  2
*DIM_0012
  8
寸法
  6
CONTINUOUS
 10
0.0
 20
0.0
  0
INSERT
  2
*DIM_0013
  8
寸法
  6
CONTINUOUS
 10
0.0
 20
0.0
  0
INSERT
  2
*DIM_0014
  8
寸法
  6
CONTINUOUS
 10
0.0
 20
0.0
  0
INSERT
  2
*DIM_0015
  8
寸法
  6
CONTINUOUS
 10
0.0
 20
0.0
  0
INSERT
  2
*DIM_0016
  8
寸法
  6
CONTINUOUS
 10
0.0
 20
0.0
  0
INSERT
  2
*DIM_0017
  8
寸法
  6
CONTINUOUS
 10
0.0
 20
0.0
  0
INSERT
  2
*DIM_0018
  8
寸法
  6
CONTINUOUS
 10
0.0
 20
0.0
  0
INSERT
  2
*DIM_0019
  8
寸法
  6
CONTINUOUS
 10
0.0
 20
0.0
  0
INSERT
  2
*DIM_0020
  8
寸法
  6
CONTINUOUS
 10
0.0
 20
0.0
  0
INSERT
  2
*DIM_0021
  8
寸法
  6
CONTINUOUS
 10
0.0
 20
0.0
  0
INSERT
  2
*DIM_0022
  8
寸法
  6
CONTINUOUS
 10
0.0
 20
0.0
  0
LINE
  8
曲げ物
  6
CONTINUOUS
 10
-6.881753
 20
35.11718
 11
-10.577065
 21
31.421868
  0
LINE
  8
曲げ物
  6
CONTINUOUS
 10
-7.585222
 20
33.58107
 11
-9.040953
 21
32.12534
  0
LINE
  8
曲げ物
  6
CONTINUOUS
 10
-8.417862
 20
34.41371
 11
-9.873592
 21
32.95798
  0
LINE
  8
曲げ物
  6
CONTINUOUS
 10
-7.585222
 20
33.58107
 11
-9.040953
 21
32.12534
  0
LINE
  8
曲げ物
  6
CONTINUOUS
 10
-8.417862
 20
34.41371
 11
-9.873592
 21
32.95798
  0
LINE
  8
曲げ物
  6
CONTINUOUS
 10
26.468245
 20
35.11718
 11
22.772933
 21
31.421868
  0
LINE
  8
曲げ物
  6
CONTINUOUS
 10
25.764775
 20
33.58107
 11
24.309045
 21
32.12534
  0
LINE
  8
曲げ物
  6
CONTINUOUS
 10
24.932135
 20
34.41371
 11
23.476405
 21
32.95798
  0
LINE
  8
曲げ物
  6
CONTINUOUS
 10
25.764775
 20
33.58107
 11
24.309045
 21
32.12534
  0
LINE
  8
曲げ物
  6
CONTINUOUS
 10
24.932135
 20
34.41371
 11
23.476405
 21
32.95798
  0
LINE
  8
曲げ物
  6
CONTINUOUS
 10
-73.581747
 20
35.11718
 11
-77.27706
 21
31.421868
  0
LINE
  8
曲げ物
  6
CONTINUOUS
 10
-74.285218
 20
33.58107
 11
-75.740948
 21
32.12534
  0
LINE
  8
曲げ物
  6
CONTINUOUS
 10
-75.117857
 20
34.41371
 11
-76.573588
 21
32.95798
  0
LINE
  8
曲げ物
  6
CONTINUOUS
 10
-74.285218
 20
33.58107
 11
-75.740948
 21
32.12534
  0
LINE
  8
曲げ物
  6
CONTINUOUS
 10
-75.117857
 20
34.41371
 11
-76.573588
 21
32.95798
  0
LINE
  8
曲げ物
  6
CONTINUOUS
 10
-40.23175
 20
35.11718
 11
-43.927063
 21
31.421868
  0
LINE
  8
曲げ物
  6
CONTINUOUS
 10
-40.93522
 20
33.58107
 11
-42.39095
 21
32.12534
  0
LINE
  8
曲げ物
  6
CONTINUOUS
 10
-41.76786
 20
34.41371
 11
-43.22359
 21
32.95798
  0
LINE
  8
曲げ物
  6
CONTINUOUS
 10
-40.93522
 20
33.58107
 11
-42.39095
 21
32.12534
  0
LINE
  8
曲げ物
  6
CONTINUOUS
 10
-41.76786
 20
34.41371
 11
-43.22359
 21
32.95798
  0
LINE
  8
St
  6
CONTINUOUS
 62
    47
 10
171.63993
 20
9.49094
 11
171.63993
 21
9.04094
  0
LINE
  8
St
  6
CONTINUOUS
 62
    47
 10
171.63993
 20
57.137903
 11
171.63993
 21
57.587903
  0
LINE
  8
St
  6
CONTINUOUS
 62
    47
 10
43.971478
 20
-84.510843
 11
44.421478
 21
-84.510843
  0
LINE
  8
St
  6
CONTINUOUS
 62
    47
 10
-93.675478
 20
-84.510843
 11
-94.125478
 21
-84.510843
  0
ENDSEC
  0
EOF
