  0
SECTION
  2
HEADER
  9
$EXTMIN
 10
-210.0
 20
-148.5
  9
$EXTMAX
 10
210.0
 20
148.5
  9
$PDMODE
 70
    32
  9
$PDSIZE
 40
1.5
  9
$LTSCALE
 40
10.0
  0
ENDSEC
  0
SECTION
  2
TABLES
  0
TABLE
  2
LTYPE
 70
    15
  0
LTYPE
  2
CONTINUOUS
 70
    64
  3
実線
 72
    65
 73
     0
 40
0.0
  0
LTYPE
  2
DASHED
 70
    64
  3
破線A
 72
    65
 73
     2
 40
0.6
 49
0.4
 49
-0.2
  0
LTYPE
  2
DASHEDX2
 70
    64
  3
破線B
 72
    65
 73
     2
 40
1.3
 49
0.9
 49
-0.4
  0
LTYPE
  2
DASHDOT
 70
    64
  3
１点鎖線A
 72
    65
 73
     4
 40
0.5375
 49
0.375
 49
-0.05
 49
0.0625
 49
-0.05
  0
LTYPE
  2
DASHDOTX2
 70
    64
  3
１点鎖線B
 72
    65
 73
     4
 40
1.075
 49
0.75
 49
-0.1
 49
0.125
 49
-0.1
  0
LTYPE
  2
DIVIDE2
 70
    64
  3
２点鎖線A
 72
    65
 73
     6
 40
0.5125
 49
0.3
 49
-0.0375
 49
0.05
 49
-0.0375
 49
0.05
 49
-0.0375
  0
LTYPE
  2
DIVIDE
 70
    64
  3
２点鎖線B
 72
    65
 73
     6
 40
1.05
 49
0.55
 49
-0.1
 49
0.1
 49
-0.1
 49
0.1
 49
-0.1
  0
LTYPE
  2
DOT
 70
    64
  3
点線A
 72
    65
 73
     2
 40
0.1125
 49
0.0625
 49
-0.05
  0
LTYPE
  2
DOTX2
 70
    64
  3
点線B
 72
    65
 73
     2
 40
0.275
 49
0.15
 49
-0.125
  0
LTYPE
  2
CONTINUOUS
 70
    64
  3
実線
 72
    65
 73
     0
 40
0.0
  0
LTYPE
  2
CONTINUOUS
 70
    64
  3
実線
 72
    65
 73
     0
 40
0.0
  0
LTYPE
  2
CONTINUOUS
 70
    64
  3
実線
 72
    65
 73
     0
 40
0.0
  0
LTYPE
  2
CONTINUOUS
 70
    64
  3
実線
 72
    65
 73
     0
 40
0.0
  0
LTYPE
  2
CONTINUOUS
 70
    64
  3
実線
 72
    65
 73
     0
 40
0.0
  0
LTYPE
  2
CONTINUOUS
 70
    64
  3
実線
 72
    65
 73
     0
 40
0.0
  0
ENDTAB
  0
TABLE
  2
LAYER
 70
    34
  0
LAYER
  2
通り芯
 70
     0
 62
    15
  6
CONTINUOUS
  0
LAYER
  2
補助線
 70
     0
 62
    16
  6
DOT
  0
LAYER
  2
躯体
 70
     0
 62
    31
  6
CONTINUOUS
  0
LAYER
  2
型材
 70
     0
 62
    32
  6
CONTINUOUS
  0
LAYER
  2
型材断面
 70
     0
 62
    47
  6
CONTINUOUS
  0
LAYER
  2
ガラス
 70
     0
 62
    48
  6
CONTINUOUS
  0
LAYER
  2
ゴム等
 70
     0
 62
    63
  6
CONTINUOUS
  0
LAYER
  2
ボルト／ビス
 70
     0
 62
    64
  6
CONTINUOUS
  0
LAYER
  2
文字
 70
     0
 62
    79
  6
CONTINUOUS
  0
LAYER
  2
寸法
 70
     0
 62
    80
  6
CONTINUOUS
  0
LAYER
  2
ﾊｯﾁﾝｸﾞ
 70
     0
 62
    95
  6
CONTINUOUS
  0
LAYER
  2
別途部材
 70
     0
 62
    96
  6
CONTINUOUS
  0
LAYER
  2
曲げ物
 70
     0
 62
   111
  6
CONTINUOUS
  0
LAYER
  2
鉄骨等
 70
     0
 62
   112
  6
CONTINUOUS
  0
LAYER
  2
St
 70
     0
 62
   127
  6
CONTINUOUS
  0
LAYER
  2
その他部品等
 70
     0
 62
   128
  6
CONTINUOUS
  0
LAYER
  2
ｶﾞｽｹｯﾄ
 70
     0
 62
   143
  6
CONTINUOUS
  0
LAYER
  2
ｽｹｯﾁ
 70
     0
 62
    14
  6
CONTINUOUS
  0
LAYER
  2
0
 70
     0
 62
    17
  6
CONTINUOUS
  0
LAYER
  2
1
 70
     0
 62
    30
  6
CONTINUOUS
  0
LAYER
  2
4
 70
     0
 62
    33
  6
CONTINUOUS
  0
LAYER
  2
ﾚｲﾔ3
 70
     0
 62
    46
  6
CONTINUOUS
  0
LAYER
  2
外形線
 70
     0
 62
    49
  6
CONTINUOUS
  0
LAYER
  2
部品
 70
     0
 62
    14
  6
CONTINUOUS
  0
LAYER
  2
サッシ芯
 70
     0
 62
    17
  6
DASHDOTX2
  0
LAYER
  2
寸法線
 70
     0
 62
    62
  6
CONTINUOUS
  0
LAYER
  2
姿図外形線
 70
     0
 62
    65
  6
CONTINUOUS
  0
LAYER
  2
姿補助線
 70
     0
 62
    30
  6
CONTINUOUS
  0
LAYER
  2
透視線
 70
     0
 62
    78
  6
DOT
  0
LAYER
  2
用紙
 70
     0
 62
    81
  6
CONTINUOUS
  0
LAYER
  2
実線図枠
 70
     0
 62
    94
  6
CONTINUOUS
  0
LAYER
  2
補助図枠
 70
     0
 62
    97
  6
CONTINUOUS
  0
LAYER
  2
建具記号
 70
     0
 62
   110
  6
CONTINUOUS
  0
LAYER
  2
補助文字
 70
     0
 62
   113
  6
CONTINUOUS
  0
ENDTAB
  0
TABLE
  2
STYLE
 70
    10
  0
STYLE
  2
STANDARD
 70
     0
 40
1.0
 41
1.0
 42
1.0
 50
0.0
 71
     0
  3
TXT
  4
BIGFONT
  0
STYLE
  2
TATE
 70
     4
 40
1.0
 41
1.0
 42
1.0
 50
0.0
 71
     0
  3
TXT
  4
BIGFONT
  0
STYLE
  2
TextStyle03
 70
     0
 40
1.0
 41
1.0
 42
1.0
 50
0.0
 71
     0
  3
MONOTXT
  4
BIGFONT
  0
STYLE
  2
TextStyle04
 70
     0
 40
1.0
 41
1.0
 42
1.0
 50
0.0
 71
     0
  3
MONOTXT
  4
BIGFONT
  0
STYLE
  2
TextStyle05
 70
     0
 40
1.0
 41
1.0
 42
1.0
 50
0.0
 71
     0
  3
MONOTXT
  4
BIGFONT
  0
STYLE
  2
TextStyle06
 70
     0
 40
1.0
 41
1.0
 42
1.0
 50
0.0
 71
     0
  3
MONOTXT
  4
BIGFONT
  0
STYLE
  2
TextStyle07
 70
     0
 40
1.0
 41
1.0
 42
1.0
 50
0.0
 71
     0
  3
MONOTXT
  4
BIGFONT
  0
STYLE
  2
TextStyle08
 70
     0
 40
1.0
 41
1.0
 42
1.0
 50
0.0
 71
     0
  3
MONOTXT
  4
BIGFONT
  0
STYLE
  2
TextStyle09
 70
     0
 40
1.0
 41
1.0
 42
1.0
 50
0.0
 71
     0
  3
MONOTXT
  4
BIGFONT
  0
STYLE
  2
TextStyle10
 70
     0
 40
1.0
 41
1.0
 42
1.0
 50
0.0
 71
     0
  3
MONOTXT
  4
BIGFONT
  0
ENDTAB
  0
ENDSEC
  0
SECTION
  2
BLOCKS
  0
BLOCK
  2
*GRP_0001
 70
    65
 10
0.0
 20
0.0
  0
LINE
  8
型材断面
  6
CONTINUOUS
 10
195.0
 20
133.5
 11
195.0
 21
-133.5
  0
LINE
  8
型材断面
  6
CONTINUOUS
 10
195.0
 20
-133.5
 11
-185.0
 21
-133.5
  0
LINE
  8
型材断面
  6
CONTINUOUS
 10
-185.0
 20
-133.5
 11
-185.0
 21
133.5
  0
LINE
  8
型材断面
  6
CONTINUOUS
 10
195.0
 20
133.5
 11
-185.0
 21
133.5
  0
LINE
  8
型材断面
  6
CONTINUOUS
 10
145.0
 20
-133.5
 11
145.0
 21
-118.5
  0
LINE
  8
型材断面
  6
CONTINUOUS
 10
195.0
 20
-118.5
 11
145.0
 21
-118.5
  0
ENDBLK
  0
BLOCK
  2
*GRP_0002
 70
    65
 10
0.0
 20
0.0
  0
LINE
  8
ボルト／ビス
  6
CONTINUOUS
 10
168.42343
 20
22.281087
 11
168.356765
 21
22.281087
  0
LINE
  8
ボルト／ビス
  6
CONTINUOUS
 10
168.356765
 20
22.281087
 11
168.356765
 21
23.014417
  0
LINE
  8
ボルト／ビス
  6
CONTINUOUS
 10
168.356765
 20
23.014417
 11
168.42343
 21
23.014417
  0
LINE
  8
ボルト／ビス
  6
CONTINUOUS
 10
168.42343
 20
22.281087
 11
168.42343
 21
23.014417
  0
LINE
  8
ボルト／ビス
  6
CONTINUOUS
 10
168.32343
 20
22.347753
 11
168.356765
 21
22.347753
  0
LINE
  8
ボルト／ビス
  6
CONTINUOUS
 10
168.32343
 20
22.347753
 11
168.32343
 21
22.947753
  0
LINE
  8
ボルト／ビス
  6
CONTINUOUS
 10
168.32343
 20
22.947753
 11
168.356762
 21
22.947753
  0
LINE
  8
ボルト／ビス
  6
CONTINUOUS
 62
    64
 10
168.12343
 20
22.487378
 11
168.135105
 21
22.455302
  0
ARC
  8
ボルト／ビス
  6
CONTINUOUS
 62
    64
 10
168.22841
 20
22.503416
 40
0.104978
 50
152.721989
 51
180.000022
  0
ARC
  8
ボルト／ビス
  6
CONTINUOUS
 62
    64
 10
168.525833
 20
22.647753
 40
0.402401
 50
166.165024
 51
193.835007
  0
LINE
  8
ボルト／ビス
  6
CONTINUOUS
 62
    64
 10
168.12343
 20
22.808128
 11
168.135105
 21
22.840202
  0
ARC
  8
ボルト／ビス
  6
CONTINUOUS
 62
    64
 10
168.22841
 20
22.79209
 40
0.104978
 50
180.000022
 51
207.278055
  0
LINE
  8
ボルト／ビス
  6
CONTINUOUS
 62
    64
 10
168.12343
 20
22.487378
 11
168.12343
 21
22.808128
  0
LINE
  8
ボルト／ビス
  6
CONTINUOUS
 62
    64
 10
168.135105
 20
22.840202
 11
168.256762
 21
22.840202
  0
LINE
  8
ボルト／ビス
  6
CONTINUOUS
 62
    64
 10
168.135105
 20
22.743978
 11
168.256765
 21
22.743978
  0
LINE
  8
ボルト／ビス
  6
CONTINUOUS
 62
    64
 10
168.135105
 20
22.455302
 11
168.256762
 21
22.455302
  0
LINE
  8
ボルト／ビス
  6
CONTINUOUS
 62
    64
 10
168.135105
 20
22.551527
 11
168.256762
 21
22.551527
  0
LINE
  8
ボルト／ビス
  6
CONTINUOUS
 10
168.256762
 20
22.455302
 11
168.256762
 21
22.840202
  0
LINE
  8
ボルト／ビス
  6
CONTINUOUS
 10
168.256762
 20
22.447753
 11
168.32343
 21
22.447753
  0
LINE
  8
ボルト／ビス
  6
CONTINUOUS
 10
168.256762
 20
22.447753
 11
168.256762
 21
22.847753
  0
LINE
  8
ボルト／ビス
  6
CONTINUOUS
 10
168.256762
 20
22.847753
 11
168.32343
 21
22.847753
  0
LINE
  8
ボルト／ビス
  6
CONTINUOUS
 62
    64
 10
168.42343
 20
22.747753
 11
168.42343
 21
22.747753
  0
ENDBLK
  0
BLOCK
  2
*GRP_0003
 70
    65
 10
0.0
 20
0.0
  0
LINE
  8
ボルト／ビス
  6
CONTINUOUS
 10
168.42343
 20
44.347758
 11
168.356765
 21
44.347758
  0
LINE
  8
ボルト／ビス
  6
CONTINUOUS
 10
168.356765
 20
44.347758
 11
168.356765
 21
43.614425
  0
LINE
  8
ボルト／ビス
  6
CONTINUOUS
 10
168.356765
 20
43.614425
 11
168.42343
 21
43.614425
  0
LINE
  8
ボルト／ビス
  6
CONTINUOUS
 10
168.42343
 20
44.347758
 11
168.42343
 21
43.614425
  0
LINE
  8
ボルト／ビス
  6
CONTINUOUS
 10
168.32343
 20
44.28109
 11
168.356765
 21
44.28109
  0
LINE
  8
ボルト／ビス
  6
CONTINUOUS
 10
168.32343
 20
44.28109
 11
168.32343
 21
43.681092
  0
LINE
  8
ボルト／ビス
  6
CONTINUOUS
 10
168.32343
 20
43.681092
 11
168.356762
 21
43.681092
  0
LINE
  8
ボルト／ビス
  6
CONTINUOUS
 62
    64
 10
168.12343
 20
44.141467
 11
168.135105
 21
44.17354
  0
ARC
  8
ボルト／ビス
  6
CONTINUOUS
 62
    64
 10
168.22841
 20
44.125427
 40
0.104978
 50
179.999978
 51
207.278011
  0
ARC
  8
ボルト／ビス
  6
CONTINUOUS
 62
    64
 10
168.525833
 20
43.981089
 40
0.402401
 50
166.164993
 51
193.834976
  0
LINE
  8
ボルト／ビス
  6
CONTINUOUS
 62
    64
 10
168.12343
 20
43.820717
 11
168.135105
 21
43.78864
  0
ARC
  8
ボルト／ビス
  6
CONTINUOUS
 62
    64
 10
168.22841
 20
43.836752
 40
0.104978
 50
152.721945
 51
179.999978
  0
LINE
  8
ボルト／ビス
  6
CONTINUOUS
 62
    64
 10
168.12343
 20
44.141467
 11
168.12343
 21
43.820717
  0
LINE
  8
ボルト／ビス
  6
CONTINUOUS
 62
    64
 10
168.135105
 20
43.78864
 11
168.256762
 21
43.78864
  0
LINE
  8
ボルト／ビス
  6
CONTINUOUS
 62
    64
 10
168.135105
 20
43.884867
 11
168.256765
 21
43.884867
  0
LINE
  8
ボルト／ビス
  6
CONTINUOUS
 62
    64
 10
168.135105
 20
44.17354
 11
168.256762
 21
44.17354
  0
LINE
  8
ボルト／ビス
  6
CONTINUOUS
 62
    64
 10
168.135105
 20
44.077315
 11
168.256762
 21
44.077315
  0
LINE
  8
ボルト／ビス
  6
CONTINUOUS
 10
168.256762
 20
44.17354
 11
168.256762
 21
43.78864
  0
LINE
  8
ボルト／ビス
  6
CONTINUOUS
 10
168.256762
 20
44.18109
 11
168.32343
 21
44.18109
  0
LINE
  8
ボルト／ビス
  6
CONTINUOUS
 10
168.256762
 20
44.18109
 11
168.256762
 21
43.781092
  0
LINE
  8
ボルト／ビス
  6
CONTINUOUS
 10
168.256762
 20
43.781092
 11
168.32343
 21
43.781092
  0
LINE
  8
ボルト／ビス
  6
CONTINUOUS
 62
    64
 10
168.42343
 20
43.881092
 11
168.42343
 21
43.881092
  0
ENDBLK
  0
BLOCK
  2
*GRP_0004
 70
    65
 10
0.0
 20
0.0
  0
LINE
  8
ボルト／ビス
  6
CONTINUOUS
 10
34.514665
 20
-81.294343
 11
34.514665
 21
-81.227678
  0
LINE
  8
ボルト／ビス
  6
CONTINUOUS
 10
34.514665
 20
-81.227678
 11
33.781335
 21
-81.227678
  0
LINE
  8
ボルト／ビス
  6
CONTINUOUS
 10
33.781335
 20
-81.227678
 11
33.781335
 21
-81.294343
  0
LINE
  8
ボルト／ビス
  6
CONTINUOUS
 10
34.514665
 20
-81.294343
 11
33.781335
 21
-81.294343
  0
LINE
  8
ボルト／ビス
  6
CONTINUOUS
 10
34.448
 20
-81.194343
 11
34.448
 21
-81.227678
  0
LINE
  8
ボルト／ビス
  6
CONTINUOUS
 10
34.448
 20
-81.194343
 11
33.848
 21
-81.194343
  0
LINE
  8
ボルト／ビス
  6
CONTINUOUS
 10
33.848
 20
-81.194343
 11
33.848
 21
-81.227675
  0
LINE
  8
ボルト／ビス
  6
CONTINUOUS
 62
    64
 10
34.308375
 20
-80.994343
 11
34.34045
 21
-81.006017
  0
ARC
  8
ボルト／ビス
  6
CONTINUOUS
 62
    64
 10
34.292336
 20
-81.099323
 40
0.104978
 50
89.999978
 51
117.278011
  0
ARC
  8
ボルト／ビス
  6
CONTINUOUS
 62
    64
 10
34.147998
 20
-81.396746
 40
0.402401
 50
76.164993
 51
103.834976
  0
LINE
  8
ボルト／ビス
  6
CONTINUOUS
 62
    64
 10
33.987625
 20
-80.994343
 11
33.95555
 21
-81.006017
  0
ARC
  8
ボルト／ビス
  6
CONTINUOUS
 62
    64
 10
34.003661
 20
-81.099323
 40
0.104978
 50
62.721945
 51
89.999978
  0
LINE
  8
ボルト／ビス
  6
CONTINUOUS
 62
    64
 10
34.308375
 20
-80.994343
 11
33.987625
 21
-80.994343
  0
LINE
  8
ボルト／ビス
  6
CONTINUOUS
 62
    64
 10
33.95555
 20
-81.006017
 11
33.95555
 21
-81.127675
  0
LINE
  8
ボルト／ビス
  6
CONTINUOUS
 62
    64
 10
34.051775
 20
-81.006017
 11
34.051775
 21
-81.127678
  0
LINE
  8
ボルト／ビス
  6
CONTINUOUS
 62
    64
 10
34.34045
 20
-81.006017
 11
34.34045
 21
-81.127675
  0
LINE
  8
ボルト／ビス
  6
CONTINUOUS
 62
    64
 10
34.244225
 20
-81.006017
 11
34.244225
 21
-81.127675
  0
LINE
  8
ボルト／ビス
  6
CONTINUOUS
 10
34.34045
 20
-81.127675
 11
33.95555
 21
-81.127675
  0
LINE
  8
ボルト／ビス
  6
CONTINUOUS
 10
34.348
 20
-81.127675
 11
34.348
 21
-81.194343
  0
LINE
  8
ボルト／ビス
  6
CONTINUOUS
 10
34.348
 20
-81.127675
 11
33.948
 21
-81.127675
  0
LINE
  8
ボルト／ビス
  6
CONTINUOUS
 10
33.948
 20
-81.127675
 11
33.948
 21
-81.194343
  0
LINE
  8
ボルト／ビス
  6
CONTINUOUS
 62
    64
 10
34.048
 20
-81.294343
 11
34.048
 21
-81.294343
  0
ENDBLK
  0
BLOCK
  2
*GRP_0005
 70
    65
 10
0.0
 20
0.0
  0
LINE
  8
ボルト／ビス
  6
CONTINUOUS
 10
-84.218667
 20
-81.294343
 11
-84.218667
 21
-81.227678
  0
LINE
  8
ボルト／ビス
  6
CONTINUOUS
 10
-84.218667
 20
-81.227678
 11
-83.485335
 21
-81.227678
  0
LINE
  8
ボルト／ビス
  6
CONTINUOUS
 10
-83.485335
 20
-81.227678
 11
-83.485335
 21
-81.294343
  0
LINE
  8
ボルト／ビス
  6
CONTINUOUS
 10
-84.218667
 20
-81.294343
 11
-83.485335
 21
-81.294343
  0
LINE
  8
ボルト／ビス
  6
CONTINUOUS
 10
-84.152
 20
-81.194343
 11
-84.152
 21
-81.227678
  0
LINE
  8
ボルト／ビス
  6
CONTINUOUS
 10
-84.152
 20
-81.194343
 11
-83.552002
 21
-81.194343
  0
LINE
  8
ボルト／ビス
  6
CONTINUOUS
 10
-83.552002
 20
-81.194343
 11
-83.552002
 21
-81.227675
  0
LINE
  8
ボルト／ビス
  6
CONTINUOUS
 62
    64
 10
-84.012377
 20
-80.994343
 11
-84.04445
 21
-81.006017
  0
ARC
  8
ボルト／ビス
  6
CONTINUOUS
 62
    64
 10
-83.996338
 20
-81.099323
 40
0.104978
 50
62.721989
 51
90.000022
  0
ARC
  8
ボルト／ビス
  6
CONTINUOUS
 62
    64
 10
-83.852
 20
-81.396746
 40
0.402401
 50
76.165024
 51
103.835007
  0
LINE
  8
ボルト／ビス
  6
CONTINUOUS
 62
    64
 10
-83.691627
 20
-80.994343
 11
-83.65955
 21
-81.006017
  0
ARC
  8
ボルト／ビス
  6
CONTINUOUS
 62
    64
 10
-83.707663
 20
-81.099323
 40
0.104978
 50
90.000022
 51
117.278055
  0
LINE
  8
ボルト／ビス
  6
CONTINUOUS
 62
    64
 10
-84.012377
 20
-80.994343
 11
-83.691627
 21
-80.994343
  0
LINE
  8
ボルト／ビス
  6
CONTINUOUS
 62
    64
 10
-83.65955
 20
-81.006017
 11
-83.65955
 21
-81.127675
  0
LINE
  8
ボルト／ビス
  6
CONTINUOUS
 62
    64
 10
-83.755778
 20
-81.006017
 11
-83.755778
 21
-81.127678
  0
LINE
  8
ボルト／ビス
  6
CONTINUOUS
 62
    64
 10
-84.04445
 20
-81.006017
 11
-84.04445
 21
-81.127675
  0
LINE
  8
ボルト／ビス
  6
CONTINUOUS
 62
    64
 10
-83.948225
 20
-81.006017
 11
-83.948225
 21
-81.127675
  0
LINE
  8
ボルト／ビス
  6
CONTINUOUS
 10
-84.04445
 20
-81.127675
 11
-83.65955
 21
-81.127675
  0
LINE
  8
ボルト／ビス
  6
CONTINUOUS
 10
-84.052
 20
-81.127675
 11
-84.052
 21
-81.194343
  0
LINE
  8
ボルト／ビス
  6
CONTINUOUS
 10
-84.052
 20
-81.127675
 11
-83.652002
 21
-81.127675
  0
LINE
  8
ボルト／ビス
  6
CONTINUOUS
 10
-83.652002
 20
-81.127675
 11
-83.652002
 21
-81.194343
  0
LINE
  8
ボルト／ビス
  6
CONTINUOUS
 62
    64
 10
-83.752002
 20
-81.294343
 11
-83.752002
 21
-81.294343
  0
ENDBLK
  0
BLOCK
  2
*DIM_0006
 70
    65
 10
0.0
 20
0.0
  0
LINE
  8
寸法
  6
CONTINUOUS
 10
151.055333
 20
23.314422
 11
151.055333
 21
43.314422
  0
POINT
  8
寸法
 10
151.055333
 20
23.314422
  0
POINT
  8
寸法
 10
151.055333
 20
43.314422
  0
TEXT
  7
TextStyle03
  8
寸法
  6
CONTINUOUS
 10
150.625
 20
22.45
  1
呼称寸法　600
 40
3.0
 50
90.0
 72
     5
 11
150.625
 21
44.2
  0
ENDBLK
  0
BLOCK
  2
*DIM_0007
 70
    65
 10
0.0
 20
0.0
  0
LINE
  8
寸法
  6
CONTINUOUS
 10
171.63993
 20
15.707608
 11
171.63993
 21
7.443285
  0
LINE
  8
寸法
  6
CONTINUOUS
 10
167.923432
 20
18.314422
 11
167.923432
 21
7.443285
  0
LINE
  8
寸法
  6
CONTINUOUS
 10
171.63993
 20
7.443285
 11
167.923432
 21
7.443285
  0
POINT
  8
寸法
 10
171.63993
 20
7.443285
  0
POINT
  8
寸法
 10
167.923432
 20
7.443285
  0
TEXT
  7
TextStyle03
  8
寸法
  6
CONTINUOUS
 10
165.6
 20
4.45
  1
111.5
 40
3.0
 50
360.0
 72
     5
 11
173.85
 21
4.45
  0
ENDBLK
  0
BLOCK
  2
*DIM_0008
 70
    65
 10
0.0
 20
0.0
  0
LINE
  8
寸法
  6
CONTINUOUS
 10
166.13993
 20
45.921237
 11
151.055333
 21
45.921237
  0
LINE
  8
寸法
  6
CONTINUOUS
 10
151.055333
 20
43.314422
 11
151.055333
 21
45.921237
  0
POINT
  8
寸法
 10
151.055333
 20
43.314422
  0
POINT
  8
寸法
 10
151.055333
 20
45.921237
  0
TEXT
  7
TextStyle03
  8
寸法
  6
CONTINUOUS
 10
150.625
 20
48.09375
  1
78.2
 40
3.0
 50
90.0
 72
     5
 11
150.625
 21
54.65625
  0
ENDBLK
  0
BLOCK
  2
*DIM_0009
 70
    65
 10
0.0
 20
0.0
  0
LINE
  8
寸法
  6
CONTINUOUS
 10
166.13993
 20
20.70761
 11
151.055333
 21
20.70761
  0
LINE
  8
寸法
  6
CONTINUOUS
 10
151.055333
 20
23.314422
 11
151.055333
 21
20.70761
  0
POINT
  8
寸法
 10
151.055333
 20
23.314422
  0
POINT
  8
寸法
 10
151.055333
 20
20.70761
  0
TEXT
  7
TextStyle03
  8
寸法
  6
CONTINUOUS
 10
150.625
 20
11.99375
  1
78.2
 40
3.0
 50
90.0
 72
     5
 11
150.625
 21
18.55625
  0
ENDBLK
  0
BLOCK
  2
*DIM_0010
 70
    65
 10
0.0
 20
0.0
  0
LINE
  8
寸法
  6
CONTINUOUS
 10
36.088145
 20
-79.010843
 11
36.088145
 21
-63.926245
  0
LINE
  8
寸法
  6
CONTINUOUS
 10
33.48133
 20
-63.926245
 11
36.088145
 21
-63.926245
  0
POINT
  8
寸法
 10
33.48133
 20
-63.926245
  0
POINT
  8
寸法
 10
36.088145
 20
-63.926245
  0
TEXT
  7
TextStyle03
  8
寸法
  6
CONTINUOUS
 10
38.21875
 20
-63.55
  1
78.2
 40
3.0
 72
     5
 11
44.78125
 21
-63.55
  0
ENDBLK
  0
BLOCK
  2
*DIM_0011
 70
    65
 10
0.0
 20
0.0
  0
LINE
  8
寸法
  6
CONTINUOUS
 10
41.088145
 20
-84.510843
 11
49.352468
 21
-84.510843
  0
LINE
  8
寸法
  6
CONTINUOUS
 10
38.48133
 20
-80.794345
 11
49.352468
 21
-80.794345
  0
LINE
  8
寸法
  6
CONTINUOUS
 10
49.352468
 20
-84.510843
 11
49.352468
 21
-80.794345
  0
POINT
  8
寸法
 10
49.352468
 20
-84.510843
  0
POINT
  8
寸法
 10
49.352468
 20
-80.794345
  0
TEXT
  7
TextStyle03
  8
寸法
  6
CONTINUOUS
 10
52.3
 20
-86.775
  1
111.5
 40
3.0
 50
90.0
 72
     5
 11
52.3
 21
-78.525
  0
ENDBLK
  0
BLOCK
  2
*DIM_0012
 70
    65
 10
0.0
 20
0.0
  0
LINE
  8
寸法
  6
CONTINUOUS
 10
-85.792145
 20
-79.010843
 11
-85.792145
 21
-63.926245
  0
LINE
  8
寸法
  6
CONTINUOUS
 10
-83.185333
 20
-63.926245
 11
-85.792145
 21
-63.926245
  0
POINT
  8
寸法
 10
-83.185333
 20
-63.926245
  0
POINT
  8
寸法
 10
-85.792145
 20
-63.926245
  0
TEXT
  7
TextStyle03
  8
寸法
  6
CONTINUOUS
 10
-94.55625
 20
-63.55
  1
78.2
 40
3.0
 72
     5
 11
-87.99375
 21
-63.55
  0
ENDBLK
  0
BLOCK
  2
*DIM_0013
 70
    65
 10
0.0
 20
0.0
  0
LINE
  8
寸法
  6
CONTINUOUS
 10
33.48133
 20
-63.926245
 11
-83.185333
 21
-63.926245
  0
POINT
  8
寸法
 10
33.48133
 20
-63.926245
  0
POINT
  8
寸法
 10
-83.185333
 20
-63.926245
  0
TEXT
  7
TextStyle03
  8
寸法
  6
CONTINUOUS
 10
-36.61875
 20
-63.55
  1
呼称寸法　3500
 40
3.0
 72
     5
 11
-13.18125
 21
-63.55
  0
ENDBLK
  0
BLOCK
  2
*DIM_0014
 70
    65
 10
0.0
 20
0.0
  0
LINE
  8
寸法
  6
BYBLOCK
 62
     0
 10
-66.51867
 20
19.684293
 11
-66.51867
 21
14.542495
  0
LINE
  8
寸法
  6
BYBLOCK
 62
     0
 10
16.814665
 20
19.684293
 11
16.814665
 21
14.542495
  0
LINE
  8
寸法
  6
BYBLOCK
 62
     0
 10
-66.51867
 20
14.542495
 11
16.814665
 21
14.542495
  0
POINT
  8
寸法
 62
     0
 10
-66.51867
 20
14.542495
  0
POINT
  8
寸法
 62
     0
 10
16.814665
 20
14.542495
  0
TEXT
  7
TextStyle03
  8
寸法
  6
CONTINUOUS
 62
     0
 10
-28.15625
 20
14.9
  1
2500
 40
3.0
 72
     5
 11
-21.59375
 21
14.9
  0
ENDBLK
  0
BLOCK
  2
*DIM_0015
 70
    65
 10
0.0
 20
0.0
  0
LINE
  8
寸法
  6
BYBLOCK
 62
     0
 10
-86.185337
 20
39.98109
 11
-99.478175
 21
39.98109
  0
LINE
  8
寸法
  6
BYBLOCK
 62
     0
 10
-86.185337
 20
26.647755
 11
-99.478175
 21
26.647755
  0
LINE
  8
寸法
  6
BYBLOCK
 62
     0
 10
-99.478175
 20
39.98109
 11
-99.478175
 21
26.647755
  0
POINT
  8
寸法
 62
     0
 10
-99.478175
 20
39.98109
  0
POINT
  8
寸法
 62
     0
 10
-99.478175
 20
26.647755
  0
TEXT
  7
TextStyle03
  8
寸法
  6
CONTINUOUS
 62
     0
 10
-99.925
 20
30.8625
  1
400
 40
3.0
 50
90.0
 72
     5
 11
-99.925
 21
35.7375
  0
ENDBLK
  0
BLOCK
  2
*DIM_0016
 70
    65
 10
0.0
 20
0.0
  0
LINE
  8
寸法
  6
BYBLOCK
 62
     0
 10
-78.185335
 20
46.314422
 11
-78.185335
 21
75.422495
  0
LINE
  8
寸法
  6
BYBLOCK
 62
     0
 10
-51.51867
 20
46.314422
 11
-51.51867
 21
75.422495
  0
LINE
  8
寸法
  6
BYBLOCK
 62
     0
 10
-78.185335
 20
75.422495
 11
-51.51867
 21
75.422495
  0
POINT
  8
寸法
 62
     0
 10
-78.185335
 20
75.422495
  0
POINT
  8
寸法
 62
     0
 10
-51.51867
 20
75.422495
  0
TEXT
  7
TextStyle03
  8
寸法
  6
CONTINUOUS
 62
     0
 10
-67.3125
 20
75.8
  1
800
 40
3.0
 72
     5
 11
-62.4375
 21
75.8
  0
ENDBLK
  0
BLOCK
  2
*DIM_0017
 70
    65
 10
0.0
 20
0.0
  0
LINE
  8
寸法
  6
BYBLOCK
 62
     0
 10
-24.852002
 20
46.314422
 11
-24.852002
 21
75.422495
  0
LINE
  8
寸法
  6
BYBLOCK
 62
     0
 10
-51.51867
 20
75.422495
 11
-24.852002
 21
75.422495
  0
POINT
  8
寸法
 62
     0
 10
-24.852002
 20
75.422495
  0
TEXT
  7
TextStyle03
  8
寸法
  6
CONTINUOUS
 62
     0
 10
-40.6625
 20
75.8
  1
800
 40
3.0
 72
     5
 11
-35.7875
 21
75.8
  0
ENDBLK
  0
BLOCK
  2
*DIM_0018
 70
    65
 10
0.0
 20
0.0
  0
LINE
  8
寸法
  6
BYBLOCK
 62
     0
 10
1.814665
 20
46.314422
 11
1.814665
 21
75.422495
  0
LINE
  8
寸法
  6
BYBLOCK
 62
     0
 10
-24.852002
 20
75.422495
 11
1.814665
 21
75.422495
  0
POINT
  8
寸法
 62
     0
 10
1.814665
 20
75.422495
  0
TEXT
  7
TextStyle03
  8
寸法
  6
CONTINUOUS
 62
     0
 10
-13.9875
 20
75.8
  1
800
 40
3.0
 72
     5
 11
-9.1125
 21
75.8
  0
ENDBLK
  0
BLOCK
  2
*DIM_0019
 70
    65
 10
0.0
 20
0.0
  0
LINE
  8
寸法
  6
BYBLOCK
 62
     0
 10
28.48133
 20
46.314422
 11
28.48133
 21
75.422495
  0
LINE
  8
寸法
  6
BYBLOCK
 62
     0
 10
1.814665
 20
75.422495
 11
28.48133
 21
75.422495
  0
POINT
  8
寸法
 62
     0
 10
28.48133
 20
75.422495
  0
TEXT
  7
TextStyle03
  8
寸法
  6
CONTINUOUS
 62
     0
 10
12.6875
 20
75.8
  1
800
 40
3.0
 72
     5
 11
17.5625
 21
75.8
  0
ENDBLK
  0
BLOCK
  2
*DIM_0020
 70
    65
 10
0.0
 20
0.0
  0
LINE
  8
寸法
  6
CONTINUOUS
 10
119.892742
 20
-60.104198
 11
119.892742
 21
-50.583518
  0
LINE
  8
寸法
  6
CONTINUOUS
 10
157.736075
 20
-60.104198
 11
157.736075
 21
-50.583518
  0
LINE
  8
寸法
  6
CONTINUOUS
 10
119.892742
 20
-50.583518
 11
157.736075
 21
-50.583518
  0
POINT
  8
寸法
 10
119.892742
 20
-50.583518
  0
POINT
  8
寸法
 10
157.736075
 20
-50.583518
  0
TEXT
  7
TextStyle03
  8
寸法
  6
CONTINUOUS
 10
133.80625
 20
-50.2
  1
1135.3
 40
3.0
 72
     5
 11
143.74375
 21
-50.2
  0
ENDBLK
  0
BLOCK
  2
*DIM_0021
 70
    65
 10
0.0
 20
0.0
  0
LINE
  8
寸法
  6
CONTINUOUS
 10
162.736075
 20
-65.104198
 11
173.185123
 21
-65.104198
  0
LINE
  8
寸法
  6
CONTINUOUS
 10
162.736075
 20
-84.43753
 11
173.185123
 21
-84.43753
  0
LINE
  8
寸法
  6
CONTINUOUS
 10
173.185123
 20
-65.104198
 11
173.185123
 21
-84.43753
  0
POINT
  8
寸法
 10
173.185123
 20
-65.104198
  0
POINT
  8
寸法
 10
173.185123
 20
-84.43753
  0
TEXT
  7
TextStyle03
  8
寸法
  6
CONTINUOUS
 10
172.775
 20
-77.1875
  1
580
 40
3.0
 50
90.0
 72
     5
 11
172.775
 21
-72.3125
  0
ENDBLK
  0
ENDSEC
  0
SECTION
  2
ENTITIES
  0
POLYLINE
  8
通り芯
  6
CONTINUOUS
 66
     1
 70
     1
  0
VERTEX
  8
通り芯
 10
-210.0
 20
-148.5
  0
VERTEX
  8
通り芯
 10
210.0
 20
-148.5
  0
VERTEX
  8
通り芯
 10
210.0
 20
148.5
  0
VERTEX
  8
通り芯
 10
-210.0
 20
148.5
  0
SEQEND
  0
INSERT
  2
*GRP_0001
  8
型材断面
  6
CONTINUOUS
 10
0.0
 20
0.0
  0
LINE
  8
型材断面
  6
CONTINUOUS
 10
172.08993
 20
21.157608
 11
171.63993
 21
21.157608
  0
LINE
  8
型材断面
  6
CONTINUOUS
 62
    47
 10
171.63993
 20
20.707608
 11
171.13993
 21
20.707608
  0
LINE
  8
型材断面
  6
CONTINUOUS
 62
    47
 10
170.344312
 20
23.264423
 11
171.13993
 21
20.707608
  0
LINE
  8
型材断面
  6
CONTINUOUS
 10
171.63993
 20
21.157608
 11
171.63993
 21
20.707608
  0
LINE
  8
型材断面
  6
CONTINUOUS
 10
171.63993
 20
45.921235
 11
171.63993
 21
20.707608
  0
LINE
  8
型材断面
  6
CONTINUOUS
 10
171.13993
 20
45.921235
 11
171.13993
 21
20.707608
  0
LINE
  8
型材断面
  6
CONTINUOUS
 10
172.08993
 20
45.471235
 11
171.63993
 21
45.471235
  0
LINE
  8
型材断面
  6
CONTINUOUS
 62
    47
 10
171.63993
 20
45.921235
 11
171.13993
 21
45.921235
  0
LINE
  8
型材断面
  6
CONTINUOUS
 62
    47
 10
170.344312
 20
43.364423
 11
171.13993
 21
45.921235
  0
LINE
  8
型材断面
  6
CONTINUOUS
 10
171.63993
 20
45.471235
 11
171.63993
 21
45.921235
  0
LINE
  8
型材断面
  6
CONTINUOUS
 10
170.344312
 20
23.264423
 11
170.344312
 21
43.364423
  0
LINE
  8
型材断面
  6
CONTINUOUS
 10
172.08993
 20
21.157608
 11
172.08993
 21
45.471235
  0
LINE
  8
型材断面
  6
CONTINUOUS
 10
169.256765
 20
21.647758
 11
169.256762
 21
21.697758
  0
LINE
  8
型材断面
  6
CONTINUOUS
 10
169.256765
 20
21.647758
 11
168.42343
 21
21.647758
  0
LINE
  8
型材断面
  6
CONTINUOUS
 10
167.923432
 20
23.314422
 11
168.42343
 21
23.314422
  0
LINE
  8
型材断面
  6
CONTINUOUS
 10
168.42343
 20
21.647758
 11
168.42343
 21
23.314422
  0
INSERT
  2
*GRP_0002
  8
型材断面
  6
CONTINUOUS
 10
0.0
 20
0.0
  0
LINE
  8
型材断面
  6
CONTINUOUS
 10
169.256765
 20
44.981085
 11
169.256762
 21
44.931085
  0
LINE
  8
型材断面
  6
CONTINUOUS
 10
169.256765
 20
44.981085
 11
168.42343
 21
44.981085
  0
LINE
  8
型材断面
  6
CONTINUOUS
 10
167.923432
 20
43.314422
 11
168.42343
 21
43.314422
  0
LINE
  8
型材断面
  6
CONTINUOUS
 10
168.42343
 20
44.981085
 11
168.42343
 21
43.314422
  0
INSERT
  2
*GRP_0003
  8
型材断面
  6
CONTINUOUS
 10
0.0
 20
0.0
  0
LINE
  8
型材断面
  6
CONTINUOUS
 10
167.92343
 20
23.314422
 11
167.92343
 21
43.314422
  0
LINE
  8
型材断面
  6
CONTINUOUS
 10
169.256762
 20
21.647758
 11
169.256762
 21
44.981085
  0
LINE
  8
型材断面
  6
CONTINUOUS
 10
168.42343
 20
21.647758
 11
168.42343
 21
44.981085
  0
LINE
  8
型材断面
  6
CONTINUOUS
 10
169.256762
 20
23.264423
 11
170.344312
 21
23.264423
  0
LINE
  8
型材断面
  6
CONTINUOUS
 10
169.256762
 20
43.364423
 11
170.344312
 21
43.364423
  0
LINE
  8
型材断面
  6
DASHDOT
 10
-24.852002
 20
-86.575325
 11
-24.852002
 21
43.314422
  0
LINE
  8
型材断面
  6
CONTINUOUS
 10
35.638145
 20
-84.960843
 11
35.638145
 21
-84.510843
  0
LINE
  8
型材断面
  6
CONTINUOUS
 62
    47
 10
36.088145
 20
-84.510843
 11
36.088145
 21
-84.010843
  0
LINE
  8
型材断面
  6
CONTINUOUS
 62
    47
 10
33.53133
 20
-83.215225
 11
36.088145
 21
-84.010843
  0
LINE
  8
型材断面
  6
CONTINUOUS
 10
35.638145
 20
-84.510843
 11
36.088145
 21
-84.510843
  0
LINE
  8
型材断面
  6
CONTINUOUS
 10
35.147995
 20
-82.127678
 11
35.097995
 21
-82.127675
  0
LINE
  8
型材断面
  6
CONTINUOUS
 10
35.147995
 20
-82.127678
 11
35.147995
 21
-81.294343
  0
LINE
  8
型材断面
  6
CONTINUOUS
 10
33.48133
 20
-80.794345
 11
33.48133
 21
-81.294343
  0
LINE
  8
型材断面
  6
CONTINUOUS
 10
35.147995
 20
-81.294343
 11
33.48133
 21
-81.294343
  0
INSERT
  2
*GRP_0004
  8
型材断面
  6
CONTINUOUS
 10
0.0
 20
0.0
  0
LINE
  8
型材断面
  6
CONTINUOUS
 10
33.53133
 20
-82.127675
 11
33.53133
 21
-83.215225
  0
LINE
  8
型材断面
  6
CONTINUOUS
 10
36.088145
 20
20.707608
 11
36.088145
 21
45.921235
  0
LINE
  8
型材断面
  6
CONTINUOUS
 10
35.147995
 20
21.647758
 11
35.147995
 21
44.981085
  0
LINE
  8
型材断面
  6
DASHDOT
 10
33.48133
 20
-86.575325
 11
33.48133
 21
23.314422
  0
LINE
  8
型材断面
  6
DASHDOT
 10
173.704413
 20
23.314422
 11
33.48133
 21
23.314422
  0
LINE
  8
型材断面
  6
DASHDOT
 10
173.704413
 20
43.314422
 11
33.48133
 21
43.314422
  0
LINE
  8
型材断面
  6
CONTINUOUS
 10
33.48133
 20
23.314422
 11
33.48133
 21
33.314422
  0
LINE
  8
型材断面
  6
CONTINUOUS
 10
33.48133
 20
43.314422
 11
33.48133
 21
33.314422
  0
LINE
  8
型材断面
  6
CONTINUOUS
 10
32.647998
 20
32.897755
 11
33.48133
 21
32.897755
  0
LINE
  8
型材断面
  6
CONTINUOUS
 10
32.647998
 20
33.731087
 11
33.48133
 21
33.731087
  0
LINE
  8
型材断面
  6
CONTINUOUS
 10
32.647998
 20
32.897755
 11
32.647998
 21
24.147755
  0
LINE
  8
型材断面
  6
CONTINUOUS
 10
36.088145
 20
20.707608
 11
32.647998
 21
24.147755
  0
LINE
  8
型材断面
  6
CONTINUOUS
 10
36.088145
 20
45.921235
 11
32.647998
 21
42.48109
  0
LINE
  8
型材断面
  6
CONTINUOUS
 10
32.647998
 20
33.731087
 11
32.647998
 21
42.48109
  0
LINE
  8
型材断面
  6
CONTINUOUS
 10
-85.342145
 20
-84.960843
 11
-85.342145
 21
-84.510843
  0
LINE
  8
型材断面
  6
CONTINUOUS
 62
    47
 10
-85.792145
 20
-84.510843
 11
-85.792145
 21
-84.010843
  0
LINE
  8
型材断面
  6
CONTINUOUS
 62
    47
 10
-83.235332
 20
-83.215225
 11
-85.792145
 21
-84.010843
  0
LINE
  8
型材断面
  6
CONTINUOUS
 10
-85.342145
 20
-84.510843
 11
-85.792145
 21
-84.510843
  0
LINE
  8
型材断面
  6
CONTINUOUS
 10
-84.851995
 20
-82.127678
 11
-84.801995
 21
-82.127675
  0
LINE
  8
型材断面
  6
CONTINUOUS
 10
-84.851995
 20
-82.127678
 11
-84.851995
 21
-81.294343
  0
LINE
  8
型材断面
  6
CONTINUOUS
 10
-83.185333
 20
-80.794345
 11
-83.185333
 21
-81.294343
  0
LINE
  8
型材断面
  6
CONTINUOUS
 10
-84.851995
 20
-81.294343
 11
-83.185333
 21
-81.294343
  0
INSERT
  2
*GRP_0005
  8
型材断面
  6
CONTINUOUS
 10
0.0
 20
0.0
  0
LINE
  8
型材断面
  6
CONTINUOUS
 10
-83.235332
 20
-82.127675
 11
-83.235332
 21
-83.215225
  0
LINE
  8
型材断面
  6
CONTINUOUS
 10
-84.851995
 20
44.981085
 11
-84.851995
 21
21.647758
  0
LINE
  8
型材断面
  6
CONTINUOUS
 10
-85.792145
 20
45.921235
 11
-85.792145
 21
20.707608
  0
LINE
  8
型材断面
  6
DASHDOT
 10
-83.185333
 20
-86.575325
 11
-83.185333
 21
23.314422
  0
LINE
  8
型材断面
  6
DASHDOT
 10
173.704413
 20
33.314422
 11
-83.185333
 21
33.314422
  0
LINE
  8
型材断面
  6
CONTINUOUS
 10
-82.352
 20
32.897755
 11
-83.185333
 21
32.897755
  0
LINE
  8
型材断面
  6
CONTINUOUS
 10
-82.352
 20
33.731087
 11
-83.185333
 21
33.731087
  0
LINE
  8
型材断面
  6
CONTINUOUS
 10
-83.185333
 20
23.314422
 11
-83.185333
 21
33.314422
  0
LINE
  8
型材断面
  6
CONTINUOUS
 10
-83.185333
 20
43.314422
 11
-83.185333
 21
33.314422
  0
LINE
  8
型材断面
  6
CONTINUOUS
 10
-82.352
 20
32.897755
 11
-82.352
 21
24.147755
  0
LINE
  8
型材断面
  6
CONTINUOUS
 10
-82.352
 20
33.731087
 11
-82.352
 21
42.48109
  0
LINE
  8
型材断面
  6
CONTINUOUS
 10
-85.792145
 20
45.921235
 11
-82.352
 21
42.48109
  0
LINE
  8
型材断面
  6
CONTINUOUS
 10
-85.792145
 20
20.707608
 11
-82.352
 21
24.147755
  0
LINE
  8
型材断面
  6
CONTINUOUS
 10
-85.792145
 20
-84.510843
 11
36.088145
 21
-84.510843
  0
LINE
  8
型材断面
  6
CONTINUOUS
 10
-85.792145
 20
-84.010843
 11
36.088145
 21
-84.010843
  0
LINE
  8
型材断面
  6
CONTINUOUS
 10
33.53133
 20
-83.215225
 11
-83.235332
 21
-83.215225
  0
LINE
  8
型材断面
  6
CONTINUOUS
 10
35.638145
 20
-84.960843
 11
-85.342145
 21
-84.960843
  0
LINE
  8
型材断面
  6
CONTINUOUS
 10
33.48133
 20
-80.794343
 11
-83.185333
 21
-80.794343
  0
LINE
  8
型材断面
  6
CONTINUOUS
 10
35.147995
 20
-82.127675
 11
-84.851995
 21
-82.127675
  0
LINE
  8
型材断面
  6
CONTINUOUS
 10
35.147995
 20
-81.294343
 11
-84.851995
 21
-81.294343
  0
LINE
  8
型材断面
  6
CONTINUOUS
 10
35.147995
 20
44.981085
 11
-84.851995
 21
44.981085
  0
LINE
  8
型材断面
  6
CONTINUOUS
 10
36.088145
 20
45.921235
 11
-85.792145
 21
45.921235
  0
LINE
  8
型材断面
  6
CONTINUOUS
 10
35.147995
 20
21.647758
 11
-84.851995
 21
21.647758
  0
LINE
  8
型材断面
  6
CONTINUOUS
 10
36.088145
 20
20.707608
 11
-85.792145
 21
20.707608
  0
LINE
  8
型材断面
  6
CONTINUOUS
 10
33.48133
 20
23.314422
 11
-83.185333
 21
23.314422
  0
LINE
  8
型材断面
  6
CONTINUOUS
 10
33.48133
 20
43.314422
 11
-83.185333
 21
43.314422
  0
LINE
  8
型材断面
  6
CONTINUOUS
 10
-66.51867
 20
45.944552
 11
-68.0143
 21
48.53506
  0
LINE
  8
型材断面
  6
CONTINUOUS
 10
-66.51867
 20
45.944552
 11
-65.02304
 21
48.53506
  0
LINE
  8
型材断面
  6
CONTINUOUS
 10
-65.02304
 20
48.53506
 11
-68.0143
 21
48.53506
  0
LINE
  8
型材断面
  6
CONTINUOUS
 10
-124.037545
 20
87.82177
 11
-125.533175
 21
85.231263
  0
LINE
  8
型材断面
  6
CONTINUOUS
 10
-124.037545
 20
87.82177
 11
-122.541915
 21
85.231263
  0
LINE
  8
型材断面
  6
CONTINUOUS
 10
-122.541915
 20
85.231263
 11
-125.533175
 21
85.231263
  0
LINE
  8
型材断面
  6
CONTINUOUS
 10
-130.060132
 20
84.292668
 11
-83.818355
 21
84.292668
  0
LINE
  8
型材断面
  6
CONTINUOUS
 10
-85.815467
 20
33.314422
 11
-88.405975
 21
34.810052
  0
LINE
  8
型材断面
  6
CONTINUOUS
 10
-85.815467
 20
33.314422
 11
-88.405975
 21
31.818793
  0
LINE
  8
型材断面
  6
CONTINUOUS
 10
-88.405975
 20
31.818793
 11
-88.405975
 21
34.810052
  0
LINE
  8
型材断面
  6
CONTINUOUS
 10
-66.51867
 20
20.684293
 11
-68.0143
 21
18.093785
  0
LINE
  8
型材断面
  6
CONTINUOUS
 10
-66.51867
 20
20.684293
 11
-65.02304
 21
18.093785
  0
LINE
  8
型材断面
  6
CONTINUOUS
 10
-65.02304
 20
18.093785
 11
-68.0143
 21
18.093785
  0
LINE
  8
型材断面
  6
CONTINUOUS
 10
16.814665
 20
45.944552
 11
18.310295
 21
48.53506
  0
LINE
  8
型材断面
  6
CONTINUOUS
 10
16.814665
 20
45.944552
 11
15.319035
 21
48.53506
  0
LINE
  8
型材断面
  6
CONTINUOUS
 10
15.319035
 20
48.53506
 11
18.310295
 21
48.53506
  0
LINE
  8
型材断面
  6
CONTINUOUS
 10
36.111463
 20
33.314422
 11
38.70197
 21
34.810052
  0
LINE
  8
型材断面
  6
CONTINUOUS
 10
36.111463
 20
33.314422
 11
38.70197
 21
31.818793
  0
LINE
  8
型材断面
  6
CONTINUOUS
 10
38.70197
 20
31.818793
 11
38.70197
 21
34.810052
  0
LINE
  8
型材断面
  6
CONTINUOUS
 10
16.814665
 20
20.684293
 11
18.310295
 21
18.093785
  0
LINE
  8
型材断面
  6
CONTINUOUS
 10
16.814665
 20
20.684293
 11
15.319035
 21
18.093785
  0
LINE
  8
型材断面
  6
CONTINUOUS
 10
15.319035
 20
18.093785
 11
18.310295
 21
18.093785
  0
LINE
  8
型材断面
  6
CONTINUOUS
 10
-130.060132
 20
78.336192
 11
-83.818355
 21
78.336192
  0
LINE
  8
型材断面
  6
CONTINUOUS
 10
-24.435335
 20
24.147755
 11
-24.435335
 21
23.314422
  0
LINE
  8
型材断面
  6
CONTINUOUS
 10
-25.26867
 20
24.147755
 11
-25.26867
 21
23.314422
  0
LINE
  8
型材断面
  6
DASHDOT
 10
-44.390888
 20
23.314422
 11
-44.390888
 21
43.314422
  0
LINE
  8
型材断面
  6
CONTINUOUS
 10
-45.47422
 20
24.981087
 11
-45.47422
 21
41.647758
  0
LINE
  8
型材断面
  6
CONTINUOUS
 10
-43.307588
 20
24.971393
 11
-43.307588
 21
41.638062
  0
LINE
  8
型材断面
  6
CONTINUOUS
 10
-44.640888
 20
24.981087
 11
-44.640888
 21
41.647758
  0
LINE
  8
型材断面
  6
CONTINUOUS
 10
-44.14092
 20
24.981087
 11
-44.14092
 21
41.647758
  0
LINE
  8
型材断面
  6
CONTINUOUS
 10
-45.47422
 20
24.981087
 11
-43.307588
 21
24.981087
  0
LINE
  8
型材断面
  6
CONTINUOUS
 10
-45.47422
 20
41.647758
 11
-43.307588
 21
41.647758
  0
LINE
  8
型材断面
  6
DASHDOT
 10
-5.313118
 20
23.314422
 11
-5.313118
 21
43.314422
  0
LINE
  8
型材断面
  6
CONTINUOUS
 10
-4.229785
 20
24.981087
 11
-4.229785
 21
41.647758
  0
LINE
  8
型材断面
  6
CONTINUOUS
 10
-6.396418
 20
24.971393
 11
-6.396418
 21
41.638062
  0
LINE
  8
型材断面
  6
CONTINUOUS
 10
-5.063118
 20
24.981087
 11
-5.063118
 21
41.647758
  0
LINE
  8
型材断面
  6
CONTINUOUS
 10
-5.563085
 20
24.981087
 11
-5.563085
 21
41.647758
  0
LINE
  8
型材断面
  6
CONTINUOUS
 10
-4.229785
 20
24.981087
 11
-6.396418
 21
24.981087
  0
LINE
  8
型材断面
  6
CONTINUOUS
 10
-4.229785
 20
41.647758
 11
-6.396418
 21
41.647758
  0
LINE
  8
型材断面
  6
CONTINUOUS
 10
13.66744
 20
23.314422
 11
13.66744
 21
24.147755
  0
LINE
  8
型材断面
  6
CONTINUOUS
 10
14.500775
 20
23.314422
 11
14.500775
 21
24.147755
  0
LINE
  8
型材断面
  6
CONTINUOUS
 10
32.647998
 20
24.147755
 11
14.500775
 21
24.147755
  0
LINE
  8
型材断面
  6
CONTINUOUS
 10
-24.435335
 20
24.147755
 11
13.66744
 21
24.147755
  0
LINE
  8
型材断面
  6
CONTINUOUS
 10
-63.371445
 20
23.314422
 11
-63.371445
 21
24.147755
  0
LINE
  8
型材断面
  6
CONTINUOUS
 10
-64.20478
 20
23.314422
 11
-64.20478
 21
24.147755
  0
LINE
  8
型材断面
  6
CONTINUOUS
 10
-82.352002
 20
24.147755
 11
-64.20478
 21
24.147755
  0
LINE
  8
型材断面
  6
CONTINUOUS
 10
-25.26867
 20
24.147755
 11
-63.371445
 21
24.147755
  0
LINE
  8
型材断面
  6
CONTINUOUS
 10
-24.435335
 20
42.48109
 11
-24.435335
 21
43.314422
  0
LINE
  8
型材断面
  6
CONTINUOUS
 10
-25.26867
 20
42.48109
 11
-25.26867
 21
43.314422
  0
LINE
  8
型材断面
  6
CONTINUOUS
 10
13.66744
 20
43.314422
 11
13.66744
 21
42.48109
  0
LINE
  8
型材断面
  6
CONTINUOUS
 10
14.500775
 20
43.314422
 11
14.500775
 21
42.48109
  0
LINE
  8
型材断面
  6
CONTINUOUS
 10
32.647998
 20
42.48109
 11
14.500775
 21
42.48109
  0
LINE
  8
型材断面
  6
CONTINUOUS
 10
-24.435335
 20
42.48109
 11
13.66744
 21
42.48109
  0
LINE
  8
型材断面
  6
CONTINUOUS
 10
-63.371445
 20
43.314422
 11
-63.371445
 21
42.48109
  0
LINE
  8
型材断面
  6
CONTINUOUS
 10
-64.20478
 20
43.314422
 11
-64.20478
 21
42.48109
  0
LINE
  8
型材断面
  6
CONTINUOUS
 10
-82.352002
 20
42.48109
 11
-64.20478
 21
42.48109
  0
LINE
  8
型材断面
  6
CONTINUOUS
 10
-25.26867
 20
42.48109
 11
-63.371445
 21
42.48109
  0
LINE
  8
型材断面
  6
CONTINUOUS
 10
119.740827
 20
-45.108727
 11
140.878403
 21
-45.108727
  0
POLYLINE
  8
ガラス
  6
CONTINUOUS
 66
     1
 70
     1
  0
VERTEX
  8
ガラス
 10
157.736075
 20
-65.104198
  0
VERTEX
  8
ガラス
 10
119.892742
 20
-65.104198
  0
VERTEX
  8
ガラス
 10
119.892742
 20
-84.43753
  0
VERTEX
  8
ガラス
 10
157.736075
 20
-84.43753
  0
SEQEND
  0
TEXT
  7
TextStyle03
  8
文字
  6
CONTINUOUS
 10
78.1
 20
125.25
  1
シリーズ：ＳＴＦＦＫＬ
 40
5.0
 72
     5
 11
139.35
 21
125.25
  0
TEXT
  7
TextStyle03
  8
文字
  6
CONTINUOUS
 10
78.1
 20
119.625
  1
　　　　　（固定）600×3500タイプ
 40
5.0
 72
     5
 11
170.2875
 21
119.625
  0
TEXT
  7
TextStyle03
  8
文字
  6
CONTINUOUS
 10
78.1
 20
114.0
  1
図面名　：外観姿図
 40
5.0
 72
     5
 11
128.1
 21
114.0
  0
TEXT
  7
TextStyle03
  8
文字
  6
CONTINUOUS
 10
78.1
 20
108.375
  1
　　　　　　
 40
5.0
 72
     5
 11
111.225
 21
108.375
  0
TEXT
  7
TextStyle03
  8
文字
  6
CONTINUOUS
 10
-121.25
 20
85.45
  1
は排水穴位置を示す
 40
3.0
 72
     5
 11
-91.25
 21
85.45
  0
TEXT
  7
TextStyle03
  8
文字
  6
CONTINUOUS
 10
-104.275
 20
11.775
  1
アンカーピッチ
 40
3.0
 50
90.0
 72
     5
 11
-104.275
 21
35.025
  0
TEXT
  7
TextStyle03
  8
文字
  6
CONTINUOUS
 10
-72.05
 20
80.275
  1
アンカーピッチ
 40
3.0
 72
     5
 11
-48.8
 21
80.275
  0
TEXT
  7
TextStyle03
  8
文字
  6
CONTINUOUS
 10
-124.975
 20
79.275
  1
アンカー数量　１４ヶ所
 40
3.0
 72
     5
 11
-88.225
 21
79.275
  0
TEXT
  7
TextStyle03
  8
文字
  6
CONTINUOUS
 10
145.375
 20
-82.7
  1
×３枚
 40
3.0
 72
     5
 11
155.125
 21
-82.7
  0
TEXT
  7
TextStyle03
  8
文字
  6
CONTINUOUS
 10
121.8
 20
-43.6
  1
ガラス寸法
 40
3.0
 72
     5
 11
138.3
 21
-43.6
  0
INSERT
  2
*DIM_0006
  8
寸法
  6
CONTINUOUS
 10
0.0
 20
0.0
  0
INSERT
  2
*DIM_0007
  8
寸法
  6
CONTINUOUS
 10
0.0
 20
0.0
  0
INSERT
  2
*DIM_0008
  8
寸法
  6
CONTINUOUS
 10
0.0
 20
0.0
  0
INSERT
  2
*DIM_0009
  8
寸法
  6
CONTINUOUS
 10
0.0
 20
0.0
  0
INSERT
  2
*DIM_0010
  8
寸法
  6
CONTINUOUS
 10
0.0
 20
0.0
  0
INSERT
  2
*DIM_0011
  8
寸法
  6
CONTINUOUS
 10
0.0
 20
0.0
  0
INSERT
  2
*DIM_0012
  8
寸法
  6
CONTINUOUS
 10
0.0
 20
0.0
  0
INSERT
  2
*DIM_0013
  8
寸法
  6
CONTINUOUS
 10
0.0
 20
0.0
  0
INSERT
  2
*DIM_0014
  8
寸法
  6
CONTINUOUS
 10
0.0
 20
0.0
  0
INSERT
  2
*DIM_0015
  8
寸法
  6
CONTINUOUS
 10
0.0
 20
0.0
  0
INSERT
  2
*DIM_0016
  8
寸法
  6
CONTINUOUS
 10
0.0
 20
0.0
  0
INSERT
  2
*DIM_0017
  8
寸法
  6
CONTINUOUS
 10
0.0
 20
0.0
  0
INSERT
  2
*DIM_0018
  8
寸法
  6
CONTINUOUS
 10
0.0
 20
0.0
  0
INSERT
  2
*DIM_0019
  8
寸法
  6
CONTINUOUS
 10
0.0
 20
0.0
  0
INSERT
  2
*DIM_0020
  8
寸法
  6
CONTINUOUS
 10
0.0
 20
0.0
  0
INSERT
  2
*DIM_0021
  8
寸法
  6
CONTINUOUS
 10
0.0
 20
0.0
  0
LINE
  8
曲げ物
  6
CONTINUOUS
 10
-23.049245
 20
35.11718
 11
-26.744557
 21
31.421868
  0
LINE
  8
曲げ物
  6
CONTINUOUS
 10
-23.752715
 20
33.58107
 11
-25.208445
 21
32.12534
  0
LINE
  8
曲げ物
  6
CONTINUOUS
 10
-24.585355
 20
34.41371
 11
-26.041085
 21
32.95798
  0
LINE
  8
曲げ物
  6
CONTINUOUS
 10
-23.752715
 20
33.58107
 11
-25.208445
 21
32.12534
  0
LINE
  8
曲げ物
  6
CONTINUOUS
 10
-24.585355
 20
34.41371
 11
-26.041085
 21
32.95798
  0
LINE
  8
曲げ物
  6
CONTINUOUS
 10
15.867425
 20
35.11718
 11
12.172113
 21
31.421868
  0
LINE
  8
曲げ物
  6
CONTINUOUS
 10
15.163955
 20
33.58107
 11
13.708225
 21
32.12534
  0
LINE
  8
曲げ物
  6
CONTINUOUS
 10
14.331315
 20
34.41371
 11
12.875585
 21
32.95798
  0
LINE
  8
曲げ物
  6
CONTINUOUS
 10
15.163955
 20
33.58107
 11
13.708225
 21
32.12534
  0
LINE
  8
曲げ物
  6
CONTINUOUS
 10
14.331315
 20
34.41371
 11
12.875585
 21
32.95798
  0
LINE
  8
曲げ物
  6
CONTINUOUS
 10
-61.965915
 20
35.11718
 11
-65.661228
 21
31.421868
  0
LINE
  8
曲げ物
  6
CONTINUOUS
 10
-62.669385
 20
33.58107
 11
-64.125115
 21
32.12534
  0
LINE
  8
曲げ物
  6
CONTINUOUS
 10
-63.502025
 20
34.41371
 11
-64.957755
 21
32.95798
  0
LINE
  8
曲げ物
  6
CONTINUOUS
 10
-62.669385
 20
33.58107
 11
-64.125115
 21
32.12534
  0
LINE
  8
曲げ物
  6
CONTINUOUS
 10
-63.502025
 20
34.41371
 11
-64.957755
 21
32.95798
  0
LINE
  8
St
  6
CONTINUOUS
 62
    47
 10
171.63993
 20
21.157608
 11
171.63993
 21
20.707608
  0
LINE
  8
St
  6
CONTINUOUS
 62
    47
 10
171.63993
 20
45.471235
 11
171.63993
 21
45.921235
  0
LINE
  8
St
  6
CONTINUOUS
 62
    47
 10
35.638145
 20
-84.510843
 11
36.088145
 21
-84.510843
  0
LINE
  8
St
  6
CONTINUOUS
 62
    47
 10
-85.342145
 20
-84.510843
 11
-85.792145
 21
-84.510843
  0
ENDSEC
  0
EOF
