  0
SECTION
  2
HEADER
  9
$EXTMIN
 10
-210.0
 20
-148.5
  9
$EXTMAX
 10
210.0
 20
148.5
  9
$PDMODE
 70
    32
  9
$PDSIZE
 40
1.5
  9
$LTSCALE
 40
10.0
  0
ENDSEC
  0
SECTION
  2
TABLES
  0
TABLE
  2
LTYPE
 70
    15
  0
LTYPE
  2
CONTINUOUS
 70
    64
  3
実線
 72
    65
 73
     0
 40
0.0
  0
LTYPE
  2
DASHED
 70
    64
  3
破線A
 72
    65
 73
     2
 40
0.6
 49
0.4
 49
-0.2
  0
LTYPE
  2
DASHEDX2
 70
    64
  3
破線B
 72
    65
 73
     2
 40
1.3
 49
0.9
 49
-0.4
  0
LTYPE
  2
DASHDOT
 70
    64
  3
１点鎖線A
 72
    65
 73
     4
 40
0.5375
 49
0.375
 49
-0.05
 49
0.0625
 49
-0.05
  0
LTYPE
  2
DASHDOTX2
 70
    64
  3
１点鎖線B
 72
    65
 73
     4
 40
1.075
 49
0.75
 49
-0.1
 49
0.125
 49
-0.1
  0
LTYPE
  2
DIVIDE2
 70
    64
  3
２点鎖線A
 72
    65
 73
     6
 40
0.5125
 49
0.3
 49
-0.0375
 49
0.05
 49
-0.0375
 49
0.05
 49
-0.0375
  0
LTYPE
  2
DIVIDE
 70
    64
  3
２点鎖線B
 72
    65
 73
     6
 40
1.05
 49
0.55
 49
-0.1
 49
0.1
 49
-0.1
 49
0.1
 49
-0.1
  0
LTYPE
  2
DOT
 70
    64
  3
点線A
 72
    65
 73
     2
 40
0.1125
 49
0.0625
 49
-0.05
  0
LTYPE
  2
DOTX2
 70
    64
  3
点線B
 72
    65
 73
     2
 40
0.275
 49
0.15
 49
-0.125
  0
LTYPE
  2
CONTINUOUS
 70
    64
  3
実線
 72
    65
 73
     0
 40
0.0
  0
LTYPE
  2
CONTINUOUS
 70
    64
  3
実線
 72
    65
 73
     0
 40
0.0
  0
LTYPE
  2
CONTINUOUS
 70
    64
  3
実線
 72
    65
 73
     0
 40
0.0
  0
LTYPE
  2
CONTINUOUS
 70
    64
  3
実線
 72
    65
 73
     0
 40
0.0
  0
LTYPE
  2
CONTINUOUS
 70
    64
  3
実線
 72
    65
 73
     0
 40
0.0
  0
LTYPE
  2
CONTINUOUS
 70
    64
  3
実線
 72
    65
 73
     0
 40
0.0
  0
ENDTAB
  0
TABLE
  2
LAYER
 70
    34
  0
LAYER
  2
通り芯
 70
     0
 62
    15
  6
CONTINUOUS
  0
LAYER
  2
補助線
 70
     0
 62
    16
  6
DOT
  0
LAYER
  2
躯体
 70
     0
 62
    31
  6
CONTINUOUS
  0
LAYER
  2
型材
 70
     0
 62
    32
  6
CONTINUOUS
  0
LAYER
  2
型材断面
 70
     0
 62
    47
  6
CONTINUOUS
  0
LAYER
  2
ガラス
 70
     0
 62
    48
  6
CONTINUOUS
  0
LAYER
  2
ゴム等
 70
     0
 62
    63
  6
CONTINUOUS
  0
LAYER
  2
ボルト／ビス
 70
     0
 62
    64
  6
CONTINUOUS
  0
LAYER
  2
文字
 70
     0
 62
    79
  6
CONTINUOUS
  0
LAYER
  2
寸法
 70
     0
 62
    80
  6
CONTINUOUS
  0
LAYER
  2
ﾊｯﾁﾝｸﾞ
 70
     0
 62
    95
  6
CONTINUOUS
  0
LAYER
  2
別途部材
 70
     0
 62
    96
  6
CONTINUOUS
  0
LAYER
  2
曲げ物
 70
     0
 62
   111
  6
CONTINUOUS
  0
LAYER
  2
鉄骨等
 70
     0
 62
   112
  6
CONTINUOUS
  0
LAYER
  2
St
 70
     0
 62
   127
  6
CONTINUOUS
  0
LAYER
  2
その他部品等
 70
     0
 62
   128
  6
CONTINUOUS
  0
LAYER
  2
ｶﾞｽｹｯﾄ
 70
     0
 62
   143
  6
CONTINUOUS
  0
LAYER
  2
ｽｹｯﾁ
 70
     0
 62
    14
  6
CONTINUOUS
  0
LAYER
  2
0
 70
     0
 62
    17
  6
CONTINUOUS
  0
LAYER
  2
1
 70
     0
 62
    30
  6
CONTINUOUS
  0
LAYER
  2
4
 70
     0
 62
    33
  6
CONTINUOUS
  0
LAYER
  2
ﾚｲﾔ3
 70
     0
 62
    46
  6
CONTINUOUS
  0
LAYER
  2
外形線
 70
     0
 62
    49
  6
CONTINUOUS
  0
LAYER
  2
部品
 70
     0
 62
    14
  6
CONTINUOUS
  0
LAYER
  2
サッシ芯
 70
     0
 62
    17
  6
DASHDOTX2
  0
LAYER
  2
寸法線
 70
     0
 62
    62
  6
CONTINUOUS
  0
LAYER
  2
姿図外形線
 70
     0
 62
    65
  6
CONTINUOUS
  0
LAYER
  2
姿補助線
 70
     0
 62
    30
  6
CONTINUOUS
  0
LAYER
  2
透視線
 70
     0
 62
    78
  6
DOT
  0
LAYER
  2
用紙
 70
     0
 62
    81
  6
CONTINUOUS
  0
LAYER
  2
実線図枠
 70
     0
 62
    94
  6
CONTINUOUS
  0
LAYER
  2
補助図枠
 70
     0
 62
    97
  6
CONTINUOUS
  0
LAYER
  2
建具記号
 70
     0
 62
   110
  6
CONTINUOUS
  0
LAYER
  2
補助文字
 70
     0
 62
   113
  6
CONTINUOUS
  0
ENDTAB
  0
TABLE
  2
STYLE
 70
    10
  0
STYLE
  2
STANDARD
 70
     0
 40
1.0
 41
1.0
 42
1.0
 50
0.0
 71
     0
  3
TXT
  4
BIGFONT
  0
STYLE
  2
TATE
 70
     4
 40
1.0
 41
1.0
 42
1.0
 50
0.0
 71
     0
  3
TXT
  4
BIGFONT
  0
STYLE
  2
TextStyle03
 70
     0
 40
1.0
 41
1.0
 42
1.0
 50
0.0
 71
     0
  3
MONOTXT
  4
BIGFONT
  0
STYLE
  2
TextStyle04
 70
     0
 40
1.0
 41
1.0
 42
1.0
 50
0.0
 71
     0
  3
MONOTXT
  4
BIGFONT
  0
STYLE
  2
TextStyle05
 70
     0
 40
1.0
 41
1.0
 42
1.0
 50
0.0
 71
     0
  3
MONOTXT
  4
BIGFONT
  0
STYLE
  2
TextStyle06
 70
     0
 40
1.0
 41
1.0
 42
1.0
 50
0.0
 71
     0
  3
MONOTXT
  4
BIGFONT
  0
STYLE
  2
TextStyle07
 70
     0
 40
1.0
 41
1.0
 42
1.0
 50
0.0
 71
     0
  3
MONOTXT
  4
BIGFONT
  0
STYLE
  2
TextStyle08
 70
     0
 40
1.0
 41
1.0
 42
1.0
 50
0.0
 71
     0
  3
MONOTXT
  4
BIGFONT
  0
STYLE
  2
TextStyle09
 70
     0
 40
1.0
 41
1.0
 42
1.0
 50
0.0
 71
     0
  3
MONOTXT
  4
BIGFONT
  0
STYLE
  2
TextStyle10
 70
     0
 40
1.0
 41
1.0
 42
1.0
 50
0.0
 71
     0
  3
MONOTXT
  4
BIGFONT
  0
ENDTAB
  0
ENDSEC
  0
SECTION
  2
BLOCKS
  0
BLOCK
  2
*GRP_0001
 70
    65
 10
0.0
 20
0.0
  0
LINE
  8
型材断面
  6
CONTINUOUS
 10
195.0
 20
133.5
 11
195.0
 21
-133.5
  0
LINE
  8
型材断面
  6
CONTINUOUS
 10
195.0
 20
-133.5
 11
-185.0
 21
-133.5
  0
LINE
  8
型材断面
  6
CONTINUOUS
 10
-185.0
 20
-133.5
 11
-185.0
 21
133.5
  0
LINE
  8
型材断面
  6
CONTINUOUS
 10
195.0
 20
133.5
 11
-185.0
 21
133.5
  0
LINE
  8
型材断面
  6
CONTINUOUS
 10
145.0
 20
-133.5
 11
145.0
 21
-118.5
  0
LINE
  8
型材断面
  6
CONTINUOUS
 10
195.0
 20
-118.5
 11
145.0
 21
-118.5
  0
ENDBLK
  0
BLOCK
  2
*GRP_0002
 70
    65
 10
0.0
 20
0.0
  0
LINE
  8
ボルト／ビス
  6
CONTINUOUS
 10
168.42343
 20
17.281087
 11
168.356765
 21
17.281087
  0
LINE
  8
ボルト／ビス
  6
CONTINUOUS
 10
168.356765
 20
17.281087
 11
168.356765
 21
18.014417
  0
LINE
  8
ボルト／ビス
  6
CONTINUOUS
 10
168.356765
 20
18.014417
 11
168.42343
 21
18.014417
  0
LINE
  8
ボルト／ビス
  6
CONTINUOUS
 10
168.42343
 20
17.281087
 11
168.42343
 21
18.014417
  0
LINE
  8
ボルト／ビス
  6
CONTINUOUS
 10
168.32343
 20
17.347753
 11
168.356765
 21
17.347753
  0
LINE
  8
ボルト／ビス
  6
CONTINUOUS
 10
168.32343
 20
17.347753
 11
168.32343
 21
17.947753
  0
LINE
  8
ボルト／ビス
  6
CONTINUOUS
 10
168.32343
 20
17.947753
 11
168.356762
 21
17.947753
  0
LINE
  8
ボルト／ビス
  6
CONTINUOUS
 62
    64
 10
168.12343
 20
17.487378
 11
168.135105
 21
17.455302
  0
ARC
  8
ボルト／ビス
  6
CONTINUOUS
 62
    64
 10
168.22841
 20
17.503416
 40
0.104978
 50
152.721989
 51
180.000022
  0
ARC
  8
ボルト／ビス
  6
CONTINUOUS
 62
    64
 10
168.525833
 20
17.647753
 40
0.402401
 50
166.165024
 51
193.835007
  0
LINE
  8
ボルト／ビス
  6
CONTINUOUS
 62
    64
 10
168.12343
 20
17.808128
 11
168.135105
 21
17.840202
  0
ARC
  8
ボルト／ビス
  6
CONTINUOUS
 62
    64
 10
168.22841
 20
17.79209
 40
0.104978
 50
180.000022
 51
207.278055
  0
LINE
  8
ボルト／ビス
  6
CONTINUOUS
 62
    64
 10
168.12343
 20
17.487378
 11
168.12343
 21
17.808128
  0
LINE
  8
ボルト／ビス
  6
CONTINUOUS
 62
    64
 10
168.135105
 20
17.840202
 11
168.256762
 21
17.840202
  0
LINE
  8
ボルト／ビス
  6
CONTINUOUS
 62
    64
 10
168.135105
 20
17.743978
 11
168.256765
 21
17.743978
  0
LINE
  8
ボルト／ビス
  6
CONTINUOUS
 62
    64
 10
168.135105
 20
17.455302
 11
168.256762
 21
17.455302
  0
LINE
  8
ボルト／ビス
  6
CONTINUOUS
 62
    64
 10
168.135105
 20
17.551527
 11
168.256762
 21
17.551527
  0
LINE
  8
ボルト／ビス
  6
CONTINUOUS
 10
168.256762
 20
17.455302
 11
168.256762
 21
17.840202
  0
LINE
  8
ボルト／ビス
  6
CONTINUOUS
 10
168.256762
 20
17.447753
 11
168.32343
 21
17.447753
  0
LINE
  8
ボルト／ビス
  6
CONTINUOUS
 10
168.256762
 20
17.447753
 11
168.256762
 21
17.847753
  0
LINE
  8
ボルト／ビス
  6
CONTINUOUS
 10
168.256762
 20
17.847753
 11
168.32343
 21
17.847753
  0
LINE
  8
ボルト／ビス
  6
CONTINUOUS
 62
    64
 10
168.42343
 20
17.747753
 11
168.42343
 21
17.747753
  0
ENDBLK
  0
BLOCK
  2
*GRP_0003
 70
    65
 10
0.0
 20
0.0
  0
LINE
  8
ボルト／ビス
  6
CONTINUOUS
 10
168.42343
 20
49.347758
 11
168.356765
 21
49.347758
  0
LINE
  8
ボルト／ビス
  6
CONTINUOUS
 10
168.356765
 20
49.347758
 11
168.356765
 21
48.614425
  0
LINE
  8
ボルト／ビス
  6
CONTINUOUS
 10
168.356765
 20
48.614425
 11
168.42343
 21
48.614425
  0
LINE
  8
ボルト／ビス
  6
CONTINUOUS
 10
168.42343
 20
49.347758
 11
168.42343
 21
48.614425
  0
LINE
  8
ボルト／ビス
  6
CONTINUOUS
 10
168.32343
 20
49.28109
 11
168.356765
 21
49.28109
  0
LINE
  8
ボルト／ビス
  6
CONTINUOUS
 10
168.32343
 20
49.28109
 11
168.32343
 21
48.681092
  0
LINE
  8
ボルト／ビス
  6
CONTINUOUS
 10
168.32343
 20
48.681092
 11
168.356762
 21
48.681092
  0
LINE
  8
ボルト／ビス
  6
CONTINUOUS
 62
    64
 10
168.12343
 20
49.141467
 11
168.135105
 21
49.17354
  0
ARC
  8
ボルト／ビス
  6
CONTINUOUS
 62
    64
 10
168.22841
 20
49.125427
 40
0.104978
 50
179.999978
 51
207.278011
  0
ARC
  8
ボルト／ビス
  6
CONTINUOUS
 62
    64
 10
168.525833
 20
48.981089
 40
0.402401
 50
166.164993
 51
193.834976
  0
LINE
  8
ボルト／ビス
  6
CONTINUOUS
 62
    64
 10
168.12343
 20
48.820717
 11
168.135105
 21
48.78864
  0
ARC
  8
ボルト／ビス
  6
CONTINUOUS
 62
    64
 10
168.22841
 20
48.836752
 40
0.104978
 50
152.721945
 51
179.999978
  0
LINE
  8
ボルト／ビス
  6
CONTINUOUS
 62
    64
 10
168.12343
 20
49.141467
 11
168.12343
 21
48.820717
  0
LINE
  8
ボルト／ビス
  6
CONTINUOUS
 62
    64
 10
168.135105
 20
48.78864
 11
168.256762
 21
48.78864
  0
LINE
  8
ボルト／ビス
  6
CONTINUOUS
 62
    64
 10
168.135105
 20
48.884867
 11
168.256765
 21
48.884867
  0
LINE
  8
ボルト／ビス
  6
CONTINUOUS
 62
    64
 10
168.135105
 20
49.17354
 11
168.256762
 21
49.17354
  0
LINE
  8
ボルト／ビス
  6
CONTINUOUS
 62
    64
 10
168.135105
 20
49.077315
 11
168.256762
 21
49.077315
  0
LINE
  8
ボルト／ビス
  6
CONTINUOUS
 10
168.256762
 20
49.17354
 11
168.256762
 21
48.78864
  0
LINE
  8
ボルト／ビス
  6
CONTINUOUS
 10
168.256762
 20
49.18109
 11
168.32343
 21
49.18109
  0
LINE
  8
ボルト／ビス
  6
CONTINUOUS
 10
168.256762
 20
49.18109
 11
168.256762
 21
48.781092
  0
LINE
  8
ボルト／ビス
  6
CONTINUOUS
 10
168.256762
 20
48.781092
 11
168.32343
 21
48.781092
  0
LINE
  8
ボルト／ビス
  6
CONTINUOUS
 62
    64
 10
168.42343
 20
48.881092
 11
168.42343
 21
48.881092
  0
ENDBLK
  0
BLOCK
  2
*GRP_0004
 70
    65
 10
0.0
 20
0.0
  0
LINE
  8
ボルト／ビス
  6
CONTINUOUS
 10
42.847998
 20
-81.294343
 11
42.847998
 21
-81.227678
  0
LINE
  8
ボルト／ビス
  6
CONTINUOUS
 10
42.847998
 20
-81.227678
 11
42.114667
 21
-81.227678
  0
LINE
  8
ボルト／ビス
  6
CONTINUOUS
 10
42.114667
 20
-81.227678
 11
42.114667
 21
-81.294343
  0
LINE
  8
ボルト／ビス
  6
CONTINUOUS
 10
42.847998
 20
-81.294343
 11
42.114667
 21
-81.294343
  0
LINE
  8
ボルト／ビス
  6
CONTINUOUS
 10
42.781332
 20
-81.194343
 11
42.781332
 21
-81.227678
  0
LINE
  8
ボルト／ビス
  6
CONTINUOUS
 10
42.781332
 20
-81.194343
 11
42.181332
 21
-81.194343
  0
LINE
  8
ボルト／ビス
  6
CONTINUOUS
 10
42.181332
 20
-81.194343
 11
42.181332
 21
-81.227675
  0
LINE
  8
ボルト／ビス
  6
CONTINUOUS
 62
    64
 10
42.641707
 20
-80.994343
 11
42.673783
 21
-81.006017
  0
ARC
  8
ボルト／ビス
  6
CONTINUOUS
 62
    64
 10
42.625668
 20
-81.099323
 40
0.104978
 50
89.999978
 51
117.278011
  0
ARC
  8
ボルト／ビス
  6
CONTINUOUS
 62
    64
 10
42.481331
 20
-81.396746
 40
0.402401
 50
76.164993
 51
103.834976
  0
LINE
  8
ボルト／ビス
  6
CONTINUOUS
 62
    64
 10
42.320958
 20
-80.994343
 11
42.288883
 21
-81.006017
  0
ARC
  8
ボルト／ビス
  6
CONTINUOUS
 62
    64
 10
42.336994
 20
-81.099323
 40
0.104978
 50
62.721945
 51
89.999978
  0
LINE
  8
ボルト／ビス
  6
CONTINUOUS
 62
    64
 10
42.641707
 20
-80.994343
 11
42.320958
 21
-80.994343
  0
LINE
  8
ボルト／ビス
  6
CONTINUOUS
 62
    64
 10
42.288883
 20
-81.006017
 11
42.288883
 21
-81.127675
  0
LINE
  8
ボルト／ビス
  6
CONTINUOUS
 62
    64
 10
42.385108
 20
-81.006017
 11
42.385108
 21
-81.127678
  0
LINE
  8
ボルト／ビス
  6
CONTINUOUS
 62
    64
 10
42.673783
 20
-81.006017
 11
42.673783
 21
-81.127675
  0
LINE
  8
ボルト／ビス
  6
CONTINUOUS
 62
    64
 10
42.577557
 20
-81.006017
 11
42.577557
 21
-81.127675
  0
LINE
  8
ボルト／ビス
  6
CONTINUOUS
 10
42.673783
 20
-81.127675
 11
42.288883
 21
-81.127675
  0
LINE
  8
ボルト／ビス
  6
CONTINUOUS
 10
42.681332
 20
-81.127675
 11
42.681332
 21
-81.194343
  0
LINE
  8
ボルト／ビス
  6
CONTINUOUS
 10
42.681332
 20
-81.127675
 11
42.281332
 21
-81.127675
  0
LINE
  8
ボルト／ビス
  6
CONTINUOUS
 10
42.281332
 20
-81.127675
 11
42.281332
 21
-81.194343
  0
LINE
  8
ボルト／ビス
  6
CONTINUOUS
 62
    64
 10
42.381332
 20
-81.294343
 11
42.381332
 21
-81.294343
  0
ENDBLK
  0
BLOCK
  2
*GRP_0005
 70
    65
 10
0.0
 20
0.0
  0
LINE
  8
ボルト／ビス
  6
CONTINUOUS
 10
-92.552
 20
-81.294343
 11
-92.552
 21
-81.227678
  0
LINE
  8
ボルト／ビス
  6
CONTINUOUS
 10
-92.552
 20
-81.227678
 11
-91.818667
 21
-81.227678
  0
LINE
  8
ボルト／ビス
  6
CONTINUOUS
 10
-91.818667
 20
-81.227678
 11
-91.818667
 21
-81.294343
  0
LINE
  8
ボルト／ビス
  6
CONTINUOUS
 10
-92.552
 20
-81.294343
 11
-91.818667
 21
-81.294343
  0
LINE
  8
ボルト／ビス
  6
CONTINUOUS
 10
-92.485332
 20
-81.194343
 11
-92.485332
 21
-81.227678
  0
LINE
  8
ボルト／ビス
  6
CONTINUOUS
 10
-92.485332
 20
-81.194343
 11
-91.885335
 21
-81.194343
  0
LINE
  8
ボルト／ビス
  6
CONTINUOUS
 10
-91.885335
 20
-81.194343
 11
-91.885335
 21
-81.227675
  0
LINE
  8
ボルト／ビス
  6
CONTINUOUS
 62
    64
 10
-92.34571
 20
-80.994343
 11
-92.377783
 21
-81.006017
  0
ARC
  8
ボルト／ビス
  6
CONTINUOUS
 62
    64
 10
-92.32967
 20
-81.099323
 40
0.104978
 50
62.721989
 51
90.000022
  0
ARC
  8
ボルト／ビス
  6
CONTINUOUS
 62
    64
 10
-92.185333
 20
-81.396746
 40
0.402401
 50
76.165024
 51
103.835007
  0
LINE
  8
ボルト／ビス
  6
CONTINUOUS
 62
    64
 10
-92.02496
 20
-80.994343
 11
-91.992882
 21
-81.006017
  0
ARC
  8
ボルト／ビス
  6
CONTINUOUS
 62
    64
 10
-92.040995
 20
-81.099323
 40
0.104978
 50
90.000022
 51
117.278055
  0
LINE
  8
ボルト／ビス
  6
CONTINUOUS
 62
    64
 10
-92.34571
 20
-80.994343
 11
-92.02496
 21
-80.994343
  0
LINE
  8
ボルト／ビス
  6
CONTINUOUS
 62
    64
 10
-91.992882
 20
-81.006017
 11
-91.992882
 21
-81.127675
  0
LINE
  8
ボルト／ビス
  6
CONTINUOUS
 62
    64
 10
-92.08911
 20
-81.006017
 11
-92.08911
 21
-81.127678
  0
LINE
  8
ボルト／ビス
  6
CONTINUOUS
 62
    64
 10
-92.377783
 20
-81.006017
 11
-92.377783
 21
-81.127675
  0
LINE
  8
ボルト／ビス
  6
CONTINUOUS
 62
    64
 10
-92.281557
 20
-81.006017
 11
-92.281557
 21
-81.127675
  0
LINE
  8
ボルト／ビス
  6
CONTINUOUS
 10
-92.377783
 20
-81.127675
 11
-91.992882
 21
-81.127675
  0
LINE
  8
ボルト／ビス
  6
CONTINUOUS
 10
-92.385333
 20
-81.127675
 11
-92.385333
 21
-81.194343
  0
LINE
  8
ボルト／ビス
  6
CONTINUOUS
 10
-92.385333
 20
-81.127675
 11
-91.985335
 21
-81.127675
  0
LINE
  8
ボルト／ビス
  6
CONTINUOUS
 10
-91.985335
 20
-81.127675
 11
-91.985335
 21
-81.194343
  0
LINE
  8
ボルト／ビス
  6
CONTINUOUS
 62
    64
 10
-92.085335
 20
-81.294343
 11
-92.085335
 21
-81.294343
  0
ENDBLK
  0
BLOCK
  2
*DIM_0006
 70
    65
 10
0.0
 20
0.0
  0
LINE
  8
寸法
  6
CONTINUOUS
 10
166.13993
 20
15.70761
 11
151.055333
 21
15.70761
  0
LINE
  8
寸法
  6
CONTINUOUS
 10
151.055333
 20
18.314422
 11
151.055333
 21
15.70761
  0
POINT
  8
寸法
 10
151.055333
 20
18.314422
  0
POINT
  8
寸法
 10
151.055333
 20
15.70761
  0
TEXT
  7
TextStyle03
  8
寸法
  6
CONTINUOUS
 10
150.625
 20
6.99375
  1
78.2
 40
3.0
 50
90.0
 72
     5
 11
150.625
 21
13.55625
  0
ENDBLK
  0
BLOCK
  2
*DIM_0007
 70
    65
 10
0.0
 20
0.0
  0
LINE
  8
寸法
  6
CONTINUOUS
 10
166.13993
 20
50.921237
 11
151.055333
 21
50.921237
  0
LINE
  8
寸法
  6
CONTINUOUS
 10
151.055333
 20
48.314422
 11
151.055333
 21
50.921237
  0
POINT
  8
寸法
 10
151.055333
 20
48.314422
  0
POINT
  8
寸法
 10
151.055333
 20
50.921237
  0
TEXT
  7
TextStyle03
  8
寸法
  6
CONTINUOUS
 10
150.625
 20
53.09375
  1
78.2
 40
3.0
 50
90.0
 72
     5
 11
150.625
 21
59.65625
  0
ENDBLK
  0
BLOCK
  2
*DIM_0008
 70
    65
 10
0.0
 20
0.0
  0
LINE
  8
寸法
  6
CONTINUOUS
 10
151.055333
 20
18.314422
 11
151.055333
 21
48.314422
  0
POINT
  8
寸法
 10
151.055333
 20
18.314422
  0
POINT
  8
寸法
 10
151.055333
 20
48.314422
  0
TEXT
  7
TextStyle03
  8
寸法
  6
CONTINUOUS
 10
150.625
 20
22.45
  1
呼称寸法　900
 40
3.0
 50
90.0
 72
     5
 11
150.625
 21
44.2
  0
ENDBLK
  0
BLOCK
  2
*DIM_0009
 70
    65
 10
0.0
 20
0.0
  0
LINE
  8
寸法
  6
CONTINUOUS
 10
171.63993
 20
10.707608
 11
171.63993
 21
2.443285
  0
LINE
  8
寸法
  6
CONTINUOUS
 10
167.923432
 20
13.314423
 11
167.923432
 21
2.443285
  0
LINE
  8
寸法
  6
CONTINUOUS
 10
171.63993
 20
2.443285
 11
167.923432
 21
2.443285
  0
POINT
  8
寸法
 10
171.63993
 20
2.443285
  0
POINT
  8
寸法
 10
167.923432
 20
2.443285
  0
TEXT
  7
TextStyle03
  8
寸法
  6
CONTINUOUS
 10
165.6
 20
-0.55
  1
111.5
 40
3.0
 50
360.0
 72
     5
 11
173.85
 21
-0.55
  0
ENDBLK
  0
BLOCK
  2
*DIM_0010
 70
    65
 10
0.0
 20
0.0
  0
LINE
  8
寸法
  6
CONTINUOUS
 10
44.421478
 20
-79.010843
 11
44.421478
 21
-63.926245
  0
LINE
  8
寸法
  6
CONTINUOUS
 10
41.814662
 20
-63.926245
 11
44.421478
 21
-63.926245
  0
POINT
  8
寸法
 10
41.814662
 20
-63.926245
  0
POINT
  8
寸法
 10
44.421478
 20
-63.926245
  0
TEXT
  7
TextStyle03
  8
寸法
  6
CONTINUOUS
 10
46.54375
 20
-63.55
  1
78.2
 40
3.0
 72
     5
 11
53.10625
 21
-63.55
  0
ENDBLK
  0
BLOCK
  2
*DIM_0011
 70
    65
 10
0.0
 20
0.0
  0
LINE
  8
寸法
  6
CONTINUOUS
 10
49.421478
 20
-84.510843
 11
57.6858
 21
-84.510843
  0
LINE
  8
寸法
  6
CONTINUOUS
 10
46.814662
 20
-80.794345
 11
57.6858
 21
-80.794345
  0
LINE
  8
寸法
  6
CONTINUOUS
 10
57.6858
 20
-84.510843
 11
57.6858
 21
-80.794345
  0
POINT
  8
寸法
 10
57.6858
 20
-84.510843
  0
POINT
  8
寸法
 10
57.6858
 20
-80.794345
  0
TEXT
  7
TextStyle03
  8
寸法
  6
CONTINUOUS
 10
60.65
 20
-86.775
  1
111.5
 40
3.0
 50
90.0
 72
     5
 11
60.65
 21
-78.525
  0
ENDBLK
  0
BLOCK
  2
*DIM_0012
 70
    65
 10
0.0
 20
0.0
  0
LINE
  8
寸法
  6
CONTINUOUS
 10
-94.125478
 20
-79.010843
 11
-94.125478
 21
-63.926245
  0
LINE
  8
寸法
  6
CONTINUOUS
 10
-91.518665
 20
-63.926245
 11
-94.125478
 21
-63.926245
  0
POINT
  8
寸法
 10
-91.518665
 20
-63.926245
  0
POINT
  8
寸法
 10
-94.125478
 20
-63.926245
  0
TEXT
  7
TextStyle03
  8
寸法
  6
CONTINUOUS
 10
-102.90625
 20
-63.55
  1
78.2
 40
3.0
 72
     5
 11
-96.34375
 21
-63.55
  0
ENDBLK
  0
BLOCK
  2
*DIM_0013
 70
    65
 10
0.0
 20
0.0
  0
LINE
  8
寸法
  6
CONTINUOUS
 10
41.814662
 20
-63.926245
 11
-91.518665
 21
-63.926245
  0
POINT
  8
寸法
 10
41.814662
 20
-63.926245
  0
POINT
  8
寸法
 10
-91.518665
 20
-63.926245
  0
TEXT
  7
TextStyle03
  8
寸法
  6
CONTINUOUS
 10
-36.61875
 20
-63.55
  1
呼称寸法　4000
 40
3.0
 72
     5
 11
-13.18125
 21
-63.55
  0
ENDBLK
  0
BLOCK
  2
*DIM_0014
 70
    65
 10
0.0
 20
0.0
  0
LINE
  8
寸法
  6
BYBLOCK
 62
     0
 10
-74.852
 20
14.684293
 11
-74.852
 21
9.633285
  0
LINE
  8
寸法
  6
BYBLOCK
 62
     0
 10
25.147995
 20
14.684293
 11
25.147995
 21
9.633285
  0
LINE
  8
寸法
  6
BYBLOCK
 62
     0
 10
-74.852
 20
9.633285
 11
25.147995
 21
9.633285
  0
POINT
  8
寸法
 62
     0
 10
-74.852
 20
9.633285
  0
POINT
  8
寸法
 62
     0
 10
25.147995
 20
9.633285
  0
TEXT
  7
TextStyle03
  8
寸法
  6
CONTINUOUS
 62
     0
 10
-28.15625
 20
10.0
  1
3000
 40
3.0
 72
     5
 11
-21.59375
 21
10.0
  0
ENDBLK
  0
BLOCK
  2
*DIM_0015
 70
    65
 10
0.0
 20
0.0
  0
LINE
  8
寸法
  6
BYBLOCK
 62
     0
 10
-94.518667
 20
43.314422
 11
-107.811505
 21
43.314422
  0
LINE
  8
寸法
  6
BYBLOCK
 62
     0
 10
-94.518667
 20
23.314422
 11
-107.811505
 21
23.314422
  0
LINE
  8
寸法
  6
BYBLOCK
 62
     0
 10
-107.811505
 20
43.314422
 11
-107.811505
 21
23.314422
  0
POINT
  8
寸法
 62
     0
 10
-107.811505
 20
43.314422
  0
POINT
  8
寸法
 62
     0
 10
-107.811505
 20
23.314422
  0
TEXT
  7
TextStyle03
  8
寸法
  6
CONTINUOUS
 62
     0
 10
-108.225
 20
30.8625
  1
600
 40
3.0
 50
90.0
 72
     5
 11
-108.225
 21
35.7375
  0
ENDBLK
  0
BLOCK
  2
*DIM_0016
 70
    65
 10
0.0
 20
0.0
  0
LINE
  8
寸法
  6
BYBLOCK
 62
     0
 10
-83.185335
 20
51.314422
 11
-83.185335
 21
80.422495
  0
LINE
  8
寸法
  6
BYBLOCK
 62
     0
 10
-59.852002
 20
51.314422
 11
-59.852002
 21
80.422495
  0
LINE
  8
寸法
  6
BYBLOCK
 62
     0
 10
-83.185335
 20
80.422495
 11
-59.852002
 21
80.422495
  0
POINT
  8
寸法
 62
     0
 10
-83.185335
 20
80.422495
  0
POINT
  8
寸法
 62
     0
 10
-59.852002
 20
80.422495
  0
TEXT
  7
TextStyle03
  8
寸法
  6
CONTINUOUS
 62
     0
 10
-73.9625
 20
80.775
  1
700
 40
3.0
 72
     5
 11
-69.0875
 21
80.775
  0
ENDBLK
  0
BLOCK
  2
*DIM_0017
 70
    65
 10
0.0
 20
0.0
  0
LINE
  8
寸法
  6
BYBLOCK
 62
     0
 10
-36.51867
 20
51.314422
 11
-36.51867
 21
80.422495
  0
LINE
  8
寸法
  6
BYBLOCK
 62
     0
 10
-59.852002
 20
80.422495
 11
-36.51867
 21
80.422495
  0
POINT
  8
寸法
 62
     0
 10
-36.51867
 20
80.422495
  0
TEXT
  7
TextStyle03
  8
寸法
  6
CONTINUOUS
 62
     0
 10
-50.6375
 20
80.775
  1
700
 40
3.0
 72
     5
 11
-45.7625
 21
80.775
  0
ENDBLK
  0
BLOCK
  2
*DIM_0018
 70
    65
 10
0.0
 20
0.0
  0
LINE
  8
寸法
  6
BYBLOCK
 62
     0
 10
-13.185335
 20
51.314422
 11
-13.185335
 21
80.422495
  0
LINE
  8
寸法
  6
BYBLOCK
 62
     0
 10
-36.51867
 20
80.422495
 11
-13.185335
 21
80.422495
  0
POINT
  8
寸法
 62
     0
 10
-13.185335
 20
80.422495
  0
TEXT
  7
TextStyle03
  8
寸法
  6
CONTINUOUS
 62
     0
 10
-27.3125
 20
80.775
  1
700
 40
3.0
 72
     5
 11
-22.4375
 21
80.775
  0
ENDBLK
  0
BLOCK
  2
*DIM_0019
 70
    65
 10
0.0
 20
0.0
  0
LINE
  8
寸法
  6
BYBLOCK
 62
     0
 10
10.147998
 20
51.314422
 11
10.147998
 21
80.422495
  0
LINE
  8
寸法
  6
BYBLOCK
 62
     0
 10
-13.185335
 20
80.422495
 11
10.147998
 21
80.422495
  0
POINT
  8
寸法
 62
     0
 10
10.147998
 20
80.422495
  0
TEXT
  7
TextStyle03
  8
寸法
  6
CONTINUOUS
 62
     0
 10
-3.9625
 20
80.775
  1
700
 40
3.0
 72
     5
 11
0.9125
 21
80.775
  0
ENDBLK
  0
BLOCK
  2
*DIM_0020
 70
    65
 10
0.0
 20
0.0
  0
LINE
  8
寸法
  6
BYBLOCK
 62
     0
 10
33.48133
 20
51.314422
 11
33.48133
 21
80.422495
  0
LINE
  8
寸法
  6
BYBLOCK
 62
     0
 10
10.147998
 20
80.422495
 11
33.48133
 21
80.422495
  0
POINT
  8
寸法
 62
     0
 10
33.48133
 20
80.422495
  0
TEXT
  7
TextStyle03
  8
寸法
  6
CONTINUOUS
 62
     0
 10
19.3625
 20
80.775
  1
700
 40
3.0
 72
     5
 11
24.2375
 21
80.775
  0
ENDBLK
  0
BLOCK
  2
*DIM_0021
 70
    65
 10
0.0
 20
0.0
  0
LINE
  8
寸法
  6
CONTINUOUS
 10
127.313463
 20
-49.065245
 11
127.313463
 21
-40.054972
  0
LINE
  8
寸法
  6
CONTINUOUS
 10
159.556797
 20
-49.065245
 11
159.556797
 21
-40.054972
  0
LINE
  8
寸法
  6
CONTINUOUS
 10
127.313463
 20
-40.054972
 11
159.556797
 21
-40.054972
  0
POINT
  8
寸法
 10
127.313463
 20
-40.054972
  0
POINT
  8
寸法
 10
159.556797
 20
-40.054972
  0
TEXT
  7
TextStyle03
  8
寸法
  6
CONTINUOUS
 10
139.275
 20
-39.675
  1
967.3
 40
3.0
 72
     5
 11
147.525
 21
-39.675
  0
ENDBLK
  0
BLOCK
  2
*DIM_0022
 70
    65
 10
0.0
 20
0.0
  0
LINE
  8
寸法
  6
CONTINUOUS
 10
164.556797
 20
-54.065245
 11
174.676247
 21
-54.065245
  0
LINE
  8
寸法
  6
CONTINUOUS
 10
164.556797
 20
-83.39858
 11
174.676247
 21
-83.39858
  0
LINE
  8
寸法
  6
CONTINUOUS
 10
174.676247
 20
-54.065245
 11
174.676247
 21
-83.39858
  0
POINT
  8
寸法
 10
174.676247
 20
-54.065245
  0
POINT
  8
寸法
 10
174.676247
 20
-83.39858
  0
TEXT
  7
TextStyle03
  8
寸法
  6
CONTINUOUS
 10
174.275
 20
-71.1625
  1
880
 40
3.0
 50
90.0
 72
     5
 11
174.275
 21
-66.2875
  0
ENDBLK
  0
ENDSEC
  0
SECTION
  2
ENTITIES
  0
POLYLINE
  8
通り芯
  6
CONTINUOUS
 66
     1
 70
     1
  0
VERTEX
  8
通り芯
 10
-210.0
 20
-148.5
  0
VERTEX
  8
通り芯
 10
210.0
 20
-148.5
  0
VERTEX
  8
通り芯
 10
210.0
 20
148.5
  0
VERTEX
  8
通り芯
 10
-210.0
 20
148.5
  0
SEQEND
  0
INSERT
  2
*GRP_0001
  8
型材断面
  6
CONTINUOUS
 10
0.0
 20
0.0
  0
LINE
  8
型材断面
  6
CONTINUOUS
 10
172.08993
 20
16.157608
 11
171.63993
 21
16.157608
  0
LINE
  8
型材断面
  6
CONTINUOUS
 62
    47
 10
171.63993
 20
15.707608
 11
171.13993
 21
15.707608
  0
LINE
  8
型材断面
  6
CONTINUOUS
 62
    47
 10
170.344312
 20
18.264423
 11
171.13993
 21
15.707608
  0
LINE
  8
型材断面
  6
CONTINUOUS
 10
171.63993
 20
16.157608
 11
171.63993
 21
15.707608
  0
LINE
  8
型材断面
  6
CONTINUOUS
 10
169.256765
 20
16.647758
 11
169.256762
 21
16.697758
  0
LINE
  8
型材断面
  6
CONTINUOUS
 10
169.256765
 20
16.647758
 11
168.42343
 21
16.647758
  0
LINE
  8
型材断面
  6
CONTINUOUS
 10
167.923432
 20
18.314422
 11
168.42343
 21
18.314422
  0
LINE
  8
型材断面
  6
CONTINUOUS
 10
168.42343
 20
16.647758
 11
168.42343
 21
18.314422
  0
INSERT
  2
*GRP_0002
  8
型材断面
  6
CONTINUOUS
 10
0.0
 20
0.0
  0
LINE
  8
型材断面
  6
CONTINUOUS
 10
169.256762
 20
18.264423
 11
170.344312
 21
18.264423
  0
LINE
  8
型材断面
  6
CONTINUOUS
 10
172.08993
 20
50.471235
 11
171.63993
 21
50.471235
  0
LINE
  8
型材断面
  6
CONTINUOUS
 62
    47
 10
171.63993
 20
50.921235
 11
171.13993
 21
50.921235
  0
LINE
  8
型材断面
  6
CONTINUOUS
 62
    47
 10
170.344312
 20
48.364423
 11
171.13993
 21
50.921235
  0
LINE
  8
型材断面
  6
CONTINUOUS
 10
171.63993
 20
50.471235
 11
171.63993
 21
50.921235
  0
LINE
  8
型材断面
  6
CONTINUOUS
 10
169.256765
 20
49.981085
 11
169.256762
 21
49.931085
  0
LINE
  8
型材断面
  6
CONTINUOUS
 10
169.256765
 20
49.981085
 11
168.42343
 21
49.981085
  0
LINE
  8
型材断面
  6
CONTINUOUS
 10
167.923432
 20
48.314422
 11
168.42343
 21
48.314422
  0
LINE
  8
型材断面
  6
CONTINUOUS
 10
168.42343
 20
49.981085
 11
168.42343
 21
48.314422
  0
INSERT
  2
*GRP_0003
  8
型材断面
  6
CONTINUOUS
 10
0.0
 20
0.0
  0
LINE
  8
型材断面
  6
CONTINUOUS
 10
169.256762
 20
48.364423
 11
170.344312
 21
48.364423
  0
LINE
  8
型材断面
  6
DASHDOT
 10
-24.852002
 20
-86.575325
 11
-24.852002
 21
48.314422
  0
LINE
  8
型材断面
  6
CONTINUOUS
 10
171.63993
 20
50.921235
 11
171.63993
 21
15.707608
  0
LINE
  8
型材断面
  6
CONTINUOUS
 10
171.13993
 20
50.921235
 11
171.13993
 21
15.707608
  0
LINE
  8
型材断面
  6
CONTINUOUS
 10
170.344312
 20
18.264423
 11
170.344312
 21
48.364423
  0
LINE
  8
型材断面
  6
CONTINUOUS
 10
172.08993
 20
16.157608
 11
172.08993
 21
50.471235
  0
LINE
  8
型材断面
  6
CONTINUOUS
 10
167.92343
 20
18.314422
 11
167.92343
 21
48.314422
  0
LINE
  8
型材断面
  6
CONTINUOUS
 10
169.256762
 20
16.647758
 11
169.256762
 21
49.981085
  0
LINE
  8
型材断面
  6
CONTINUOUS
 10
168.42343
 20
16.647758
 11
168.42343
 21
49.981085
  0
LINE
  8
型材断面
  6
CONTINUOUS
 10
43.971478
 20
-84.960843
 11
43.971478
 21
-84.510843
  0
LINE
  8
型材断面
  6
CONTINUOUS
 62
    47
 10
44.421478
 20
-84.510843
 11
44.421478
 21
-84.010843
  0
LINE
  8
型材断面
  6
CONTINUOUS
 62
    47
 10
41.864662
 20
-83.215225
 11
44.421478
 21
-84.010843
  0
LINE
  8
型材断面
  6
CONTINUOUS
 10
43.971478
 20
-84.510843
 11
44.421478
 21
-84.510843
  0
LINE
  8
型材断面
  6
CONTINUOUS
 10
43.481328
 20
-82.127678
 11
43.431328
 21
-82.127675
  0
LINE
  8
型材断面
  6
CONTINUOUS
 10
43.481328
 20
-82.127678
 11
43.481328
 21
-81.294343
  0
LINE
  8
型材断面
  6
CONTINUOUS
 10
41.814662
 20
-80.794345
 11
41.814662
 21
-81.294343
  0
LINE
  8
型材断面
  6
CONTINUOUS
 10
43.481328
 20
-81.294343
 11
41.814662
 21
-81.294343
  0
INSERT
  2
*GRP_0004
  8
型材断面
  6
CONTINUOUS
 10
0.0
 20
0.0
  0
LINE
  8
型材断面
  6
CONTINUOUS
 10
41.864662
 20
-82.127675
 11
41.864662
 21
-83.215225
  0
LINE
  8
型材断面
  6
CONTINUOUS
 10
40.98133
 20
32.897755
 11
41.814662
 21
32.897755
  0
LINE
  8
型材断面
  6
CONTINUOUS
 10
40.98133
 20
33.731087
 11
41.814662
 21
33.731087
  0
LINE
  8
型材断面
  6
DASHDOT
 10
41.814662
 20
-86.575325
 11
41.814662
 21
18.314422
  0
LINE
  8
型材断面
  6
DASHDOT
 10
173.704413
 20
18.314422
 11
41.814662
 21
18.314422
  0
LINE
  8
型材断面
  6
CONTINUOUS
 10
41.814662
 20
18.314422
 11
41.814662
 21
33.314422
  0
LINE
  8
型材断面
  6
CONTINUOUS
 10
40.98133
 20
32.897755
 11
40.98133
 21
19.147755
  0
LINE
  8
型材断面
  6
CONTINUOUS
 10
44.421478
 20
15.707608
 11
40.98133
 21
19.147755
  0
LINE
  8
型材断面
  6
DASHDOT
 10
173.704413
 20
48.314422
 11
41.814662
 21
48.314422
  0
LINE
  8
型材断面
  6
CONTINUOUS
 10
41.814662
 20
48.314422
 11
41.814662
 21
33.314422
  0
LINE
  8
型材断面
  6
CONTINUOUS
 10
44.421478
 20
50.921235
 11
40.98133
 21
47.48109
  0
LINE
  8
型材断面
  6
CONTINUOUS
 10
40.98133
 20
33.731087
 11
40.98133
 21
47.48109
  0
LINE
  8
型材断面
  6
CONTINUOUS
 10
44.421478
 20
15.707608
 11
44.421478
 21
50.921235
  0
LINE
  8
型材断面
  6
CONTINUOUS
 10
43.481328
 20
16.647758
 11
43.481328
 21
49.981085
  0
LINE
  8
型材断面
  6
CONTINUOUS
 10
-93.675478
 20
-84.960843
 11
-93.675478
 21
-84.510843
  0
LINE
  8
型材断面
  6
CONTINUOUS
 62
    47
 10
-94.125478
 20
-84.510843
 11
-94.125478
 21
-84.010843
  0
LINE
  8
型材断面
  6
CONTINUOUS
 62
    47
 10
-91.568665
 20
-83.215225
 11
-94.125478
 21
-84.010843
  0
LINE
  8
型材断面
  6
CONTINUOUS
 10
-93.675478
 20
-84.510843
 11
-94.125478
 21
-84.510843
  0
LINE
  8
型材断面
  6
CONTINUOUS
 10
-93.185328
 20
-82.127678
 11
-93.135328
 21
-82.127675
  0
LINE
  8
型材断面
  6
CONTINUOUS
 10
-93.185328
 20
-82.127678
 11
-93.185328
 21
-81.294343
  0
LINE
  8
型材断面
  6
CONTINUOUS
 10
-91.518665
 20
-80.794345
 11
-91.518665
 21
-81.294343
  0
LINE
  8
型材断面
  6
CONTINUOUS
 10
-93.185328
 20
-81.294343
 11
-91.518665
 21
-81.294343
  0
INSERT
  2
*GRP_0005
  8
型材断面
  6
CONTINUOUS
 10
0.0
 20
0.0
  0
LINE
  8
型材断面
  6
CONTINUOUS
 10
-91.568665
 20
-82.127675
 11
-91.568665
 21
-83.215225
  0
LINE
  8
型材断面
  6
DASHDOT
 10
173.704413
 20
33.314422
 11
-91.518665
 21
33.314422
  0
LINE
  8
型材断面
  6
CONTINUOUS
 10
-90.685333
 20
32.897755
 11
-91.518665
 21
32.897755
  0
LINE
  8
型材断面
  6
CONTINUOUS
 10
-90.685333
 20
33.731087
 11
-91.518665
 21
33.731087
  0
LINE
  8
型材断面
  6
DASHDOT
 10
-91.518665
 20
-86.575325
 11
-91.518665
 21
18.314422
  0
LINE
  8
型材断面
  6
CONTINUOUS
 10
-91.518665
 20
18.314422
 11
-91.518665
 21
33.314422
  0
LINE
  8
型材断面
  6
CONTINUOUS
 10
-90.685333
 20
32.897755
 11
-90.685333
 21
19.147755
  0
LINE
  8
型材断面
  6
CONTINUOUS
 10
-94.125478
 20
15.707608
 11
-90.685333
 21
19.147755
  0
LINE
  8
型材断面
  6
CONTINUOUS
 10
-91.518665
 20
48.314422
 11
-91.518665
 21
33.314422
  0
LINE
  8
型材断面
  6
CONTINUOUS
 10
-90.685333
 20
33.731087
 11
-90.685333
 21
47.48109
  0
LINE
  8
型材断面
  6
CONTINUOUS
 10
-94.125478
 20
50.921235
 11
-90.685333
 21
47.48109
  0
LINE
  8
型材断面
  6
CONTINUOUS
 10
-93.185328
 20
49.981085
 11
-93.185328
 21
16.647758
  0
LINE
  8
型材断面
  6
CONTINUOUS
 10
-94.125478
 20
50.921235
 11
-94.125478
 21
15.707608
  0
LINE
  8
型材断面
  6
CONTINUOUS
 10
-94.125478
 20
-84.510843
 11
44.421478
 21
-84.510843
  0
LINE
  8
型材断面
  6
CONTINUOUS
 10
-94.125478
 20
-84.010843
 11
44.421478
 21
-84.010843
  0
LINE
  8
型材断面
  6
CONTINUOUS
 10
41.864662
 20
-83.215225
 11
-91.568665
 21
-83.215225
  0
LINE
  8
型材断面
  6
CONTINUOUS
 10
43.971478
 20
-84.960843
 11
-93.675478
 21
-84.960843
  0
LINE
  8
型材断面
  6
CONTINUOUS
 10
41.814662
 20
-80.794343
 11
-91.518665
 21
-80.794343
  0
LINE
  8
型材断面
  6
CONTINUOUS
 10
43.481328
 20
-82.127675
 11
-93.185328
 21
-82.127675
  0
LINE
  8
型材断面
  6
CONTINUOUS
 10
43.481328
 20
-81.294343
 11
-93.185328
 21
-81.294343
  0
LINE
  8
型材断面
  6
CONTINUOUS
 10
43.481328
 20
16.647758
 11
-93.185328
 21
16.647758
  0
LINE
  8
型材断面
  6
CONTINUOUS
 10
44.421478
 20
15.707608
 11
-94.125478
 21
15.707608
  0
LINE
  8
型材断面
  6
CONTINUOUS
 10
41.814662
 20
18.314422
 11
-91.518665
 21
18.314422
  0
LINE
  8
型材断面
  6
CONTINUOUS
 10
43.481328
 20
49.981085
 11
-93.185328
 21
49.981085
  0
LINE
  8
型材断面
  6
CONTINUOUS
 10
44.421478
 20
50.921235
 11
-94.125478
 21
50.921235
  0
LINE
  8
型材断面
  6
CONTINUOUS
 10
41.814662
 20
48.314422
 11
-91.518665
 21
48.314422
  0
LINE
  8
型材断面
  6
CONTINUOUS
 10
-74.852
 20
50.944552
 11
-76.34763
 21
53.53506
  0
LINE
  8
型材断面
  6
CONTINUOUS
 10
-74.852
 20
50.944552
 11
-73.35637
 21
53.53506
  0
LINE
  8
型材断面
  6
CONTINUOUS
 10
-73.35637
 20
53.53506
 11
-76.34763
 21
53.53506
  0
LINE
  8
型材断面
  6
CONTINUOUS
 10
-94.148798
 20
33.314422
 11
-96.739305
 21
34.810052
  0
LINE
  8
型材断面
  6
CONTINUOUS
 10
-94.148798
 20
33.314422
 11
-96.739305
 21
31.818793
  0
LINE
  8
型材断面
  6
CONTINUOUS
 10
-96.739305
 20
31.818793
 11
-96.739305
 21
34.810052
  0
LINE
  8
型材断面
  6
CONTINUOUS
 10
-74.852
 20
15.684293
 11
-76.34763
 21
13.093785
  0
LINE
  8
型材断面
  6
CONTINUOUS
 10
-74.852
 20
15.684293
 11
-73.35637
 21
13.093785
  0
LINE
  8
型材断面
  6
CONTINUOUS
 10
-73.35637
 20
13.093785
 11
-76.34763
 21
13.093785
  0
LINE
  8
型材断面
  6
CONTINUOUS
 10
25.147995
 20
50.944552
 11
26.643625
 21
53.53506
  0
LINE
  8
型材断面
  6
CONTINUOUS
 10
25.147995
 20
50.944552
 11
23.652365
 21
53.53506
  0
LINE
  8
型材断面
  6
CONTINUOUS
 10
23.652365
 20
53.53506
 11
26.643625
 21
53.53506
  0
LINE
  8
型材断面
  6
CONTINUOUS
 10
25.147995
 20
15.684293
 11
26.643625
 21
13.093785
  0
LINE
  8
型材断面
  6
CONTINUOUS
 10
25.147995
 20
15.684293
 11
23.652365
 21
13.093785
  0
LINE
  8
型材断面
  6
CONTINUOUS
 10
23.652365
 20
13.093785
 11
26.643625
 21
13.093785
  0
LINE
  8
型材断面
  6
CONTINUOUS
 10
-145.39719
 20
92.82177
 11
-146.89282
 21
90.231263
  0
LINE
  8
型材断面
  6
CONTINUOUS
 10
-145.39719
 20
92.82177
 11
-143.90156
 21
90.231263
  0
LINE
  8
型材断面
  6
CONTINUOUS
 10
-143.90156
 20
90.231263
 11
-146.89282
 21
90.231263
  0
LINE
  8
型材断面
  6
CONTINUOUS
 10
-151.419777
 20
89.292668
 11
-105.178
 21
89.292668
  0
LINE
  8
型材断面
  6
CONTINUOUS
 10
-151.419777
 20
83.049462
 11
-105.178
 21
83.049462
  0
LINE
  8
型材断面
  6
CONTINUOUS
 10
-75.3395
 20
18.314422
 11
-75.3395
 21
19.147755
  0
LINE
  8
型材断面
  6
CONTINUOUS
 10
-74.506165
 20
18.314422
 11
-74.506165
 21
19.147755
  0
LINE
  8
型材断面
  6
CONTINUOUS
 10
-42.006167
 20
18.314422
 11
-42.006167
 21
19.147755
  0
LINE
  8
型材断面
  6
CONTINUOUS
 10
-41.172833
 20
18.314422
 11
-41.172833
 21
19.147755
  0
LINE
  8
型材断面
  6
DASHDOT
 10
-58.326998
 20
18.314422
 11
-58.326998
 21
48.314422
  0
LINE
  8
型材断面
  6
CONTINUOUS
 10
-75.3395
 20
19.147755
 11
-90.685333
 21
19.147755
  0
LINE
  8
型材断面
  6
CONTINUOUS
 10
-42.006167
 20
19.147755
 11
-74.506165
 21
19.147755
  0
LINE
  8
型材断面
  6
CONTINUOUS
 10
25.635495
 20
18.314422
 11
25.635495
 21
19.147755
  0
LINE
  8
型材断面
  6
CONTINUOUS
 10
24.80216
 20
18.314422
 11
24.80216
 21
19.147755
  0
LINE
  8
型材断面
  6
CONTINUOUS
 10
-7.697837
 20
18.314422
 11
-7.697837
 21
19.147755
  0
LINE
  8
型材断面
  6
CONTINUOUS
 10
-8.531172
 20
18.314422
 11
-8.531172
 21
19.147755
  0
LINE
  8
型材断面
  6
DASHDOT
 10
8.622992
 20
18.314422
 11
8.622992
 21
48.314422
  0
LINE
  8
型材断面
  6
CONTINUOUS
 10
25.635495
 20
19.147755
 11
40.981328
 21
19.147755
  0
LINE
  8
型材断面
  6
CONTINUOUS
 10
-7.697837
 20
19.147755
 11
24.80216
 21
19.147755
  0
LINE
  8
型材断面
  6
CONTINUOUS
 10
-41.172833
 20
19.147755
 11
-8.531172
 21
19.147755
  0
LINE
  8
型材断面
  6
CONTINUOUS
 10
-75.3395
 20
48.314422
 11
-75.3395
 21
47.48109
  0
LINE
  8
型材断面
  6
CONTINUOUS
 10
-74.506165
 20
48.314422
 11
-74.506165
 21
47.48109
  0
LINE
  8
型材断面
  6
CONTINUOUS
 10
-42.006167
 20
48.314422
 11
-42.006167
 21
47.48109
  0
LINE
  8
型材断面
  6
CONTINUOUS
 10
-41.172833
 20
48.314422
 11
-41.172833
 21
47.48109
  0
LINE
  8
型材断面
  6
CONTINUOUS
 10
-75.3395
 20
47.48109
 11
-90.685333
 21
47.48109
  0
LINE
  8
型材断面
  6
CONTINUOUS
 10
-42.006167
 20
47.48109
 11
-74.506165
 21
47.48109
  0
LINE
  8
型材断面
  6
CONTINUOUS
 10
25.635495
 20
48.314422
 11
25.635495
 21
47.48109
  0
LINE
  8
型材断面
  6
CONTINUOUS
 10
24.80216
 20
48.314422
 11
24.80216
 21
47.48109
  0
LINE
  8
型材断面
  6
CONTINUOUS
 10
-7.697837
 20
48.314422
 11
-7.697837
 21
47.48109
  0
LINE
  8
型材断面
  6
CONTINUOUS
 10
-8.531172
 20
48.314422
 11
-8.531172
 21
47.48109
  0
LINE
  8
型材断面
  6
CONTINUOUS
 10
25.635495
 20
47.48109
 11
40.981328
 21
47.48109
  0
LINE
  8
型材断面
  6
CONTINUOUS
 10
-7.697837
 20
47.48109
 11
24.80216
 21
47.48109
  0
LINE
  8
型材断面
  6
CONTINUOUS
 10
-41.172833
 20
47.48109
 11
-8.531172
 21
47.48109
  0
LINE
  8
型材断面
  6
CONTINUOUS
 10
-57.243697
 20
19.981087
 11
-59.41033
 21
19.981087
  0
LINE
  8
型材断面
  6
CONTINUOUS
 10
-57.243697
 20
46.647758
 11
-59.41033
 21
46.647758
  0
LINE
  8
型材断面
  6
CONTINUOUS
 10
-57.243697
 20
19.981087
 11
-57.243697
 21
46.647758
  0
LINE
  8
型材断面
  6
CONTINUOUS
 10
-58.07703
 20
19.981087
 11
-58.07703
 21
46.647758
  0
LINE
  8
型材断面
  6
CONTINUOUS
 10
-58.576998
 20
19.981087
 11
-58.576998
 21
46.647758
  0
LINE
  8
型材断面
  6
CONTINUOUS
 10
-59.41033
 20
19.971393
 11
-59.41033
 21
46.647758
  0
LINE
  8
型材断面
  6
CONTINUOUS
 10
7.539692
 20
19.981087
 11
9.706325
 21
19.981087
  0
LINE
  8
型材断面
  6
CONTINUOUS
 10
7.539692
 20
46.647758
 11
9.706325
 21
46.647758
  0
LINE
  8
型材断面
  6
CONTINUOUS
 10
7.539692
 20
19.981087
 11
7.539692
 21
46.647758
  0
LINE
  8
型材断面
  6
CONTINUOUS
 10
8.373025
 20
19.981087
 11
8.373025
 21
46.647758
  0
LINE
  8
型材断面
  6
CONTINUOUS
 10
8.872992
 20
19.981087
 11
8.872992
 21
46.647758
  0
LINE
  8
型材断面
  6
CONTINUOUS
 10
9.706325
 20
19.971393
 11
9.706325
 21
46.647758
  0
LINE
  8
型材断面
  6
CONTINUOUS
 10
-25.935303
 20
19.981087
 11
-23.76867
 21
19.981087
  0
LINE
  8
型材断面
  6
CONTINUOUS
 10
-25.935303
 20
46.647758
 11
-23.76867
 21
46.647758
  0
LINE
  8
型材断面
  6
CONTINUOUS
 10
-25.935303
 20
19.981087
 11
-25.935303
 21
46.647758
  0
LINE
  8
型材断面
  6
CONTINUOUS
 10
-25.10197
 20
19.981087
 11
-25.10197
 21
46.647758
  0
LINE
  8
型材断面
  6
CONTINUOUS
 10
-24.602002
 20
19.981087
 11
-24.602002
 21
46.647758
  0
LINE
  8
型材断面
  6
CONTINUOUS
 10
-23.76867
 20
19.971393
 11
-23.76867
 21
46.647758
  0
LINE
  8
型材断面
  6
CONTINUOUS
 10
125.026182
 20
-34.994823
 11
146.163758
 21
-34.994823
  0
POLYLINE
  8
ガラス
  6
CONTINUOUS
 66
     1
 70
     1
  0
VERTEX
  8
ガラス
 10
159.556797
 20
-54.065245
  0
VERTEX
  8
ガラス
 10
127.313463
 20
-54.065245
  0
VERTEX
  8
ガラス
 10
127.313463
 20
-83.39858
  0
VERTEX
  8
ガラス
 10
159.556797
 20
-83.39858
  0
SEQEND
  0
TEXT
  7
TextStyle03
  8
文字
  6
CONTINUOUS
 10
78.1
 20
125.25
  1
シリーズ：ＳＴＦＦＫＬ
 40
5.0
 72
     5
 11
139.35
 21
125.25
  0
TEXT
  7
TextStyle03
  8
文字
  6
CONTINUOUS
 10
78.1
 20
119.625
  1
　　　　　（固定）900×4000タイプ
 40
5.0
 72
     5
 11
170.2875
 21
119.625
  0
TEXT
  7
TextStyle03
  8
文字
  6
CONTINUOUS
 10
78.1
 20
114.0
  1
図面名　：外観姿図
 40
5.0
 72
     5
 11
128.1
 21
114.0
  0
TEXT
  7
TextStyle03
  8
文字
  6
CONTINUOUS
 10
78.1
 20
108.375
  1
　　　　　　
 40
5.0
 72
     5
 11
111.225
 21
108.375
  0
TEXT
  7
TextStyle03
  8
文字
  6
CONTINUOUS
 10
-142.625
 20
90.425
  1
は排水穴位置を示す
 40
3.0
 72
     5
 11
-112.625
 21
90.425
  0
TEXT
  7
TextStyle03
  8
文字
  6
CONTINUOUS
 10
-112.55
 20
11.775
  1
アンカーピッチ
 40
3.0
 50
90.0
 72
     5
 11
-112.55
 21
35.025
  0
TEXT
  7
TextStyle03
  8
文字
  6
CONTINUOUS
 10
-83.425
 20
86.325
  1
アンカーピッチ
 40
3.0
 72
     5
 11
-60.175
 21
86.325
  0
TEXT
  7
TextStyle03
  8
文字
  6
CONTINUOUS
 10
-146.35
 20
83.95
  1
アンカー数量　１６ヶ所
 40
3.0
 72
     5
 11
-109.6
 21
83.95
  0
TEXT
  7
TextStyle03
  8
文字
  6
CONTINUOUS
 10
145.8
 20
-80.5
  1
×４枚
 40
3.0
 72
     5
 11
155.55
 21
-80.5
  0
TEXT
  7
TextStyle03
  8
文字
  6
CONTINUOUS
 10
127.075
 20
-33.5
  1
ガラス寸法
 40
3.0
 72
     5
 11
143.575
 21
-33.5
  0
INSERT
  2
*DIM_0006
  8
寸法
  6
CONTINUOUS
 10
0.0
 20
0.0
  0
INSERT
  2
*DIM_0007
  8
寸法
  6
CONTINUOUS
 10
0.0
 20
0.0
  0
INSERT
  2
*DIM_0008
  8
寸法
  6
CONTINUOUS
 10
0.0
 20
0.0
  0
INSERT
  2
*DIM_0009
  8
寸法
  6
CONTINUOUS
 10
0.0
 20
0.0
  0
INSERT
  2
*DIM_0010
  8
寸法
  6
CONTINUOUS
 10
0.0
 20
0.0
  0
INSERT
  2
*DIM_0011
  8
寸法
  6
CONTINUOUS
 10
0.0
 20
0.0
  0
INSERT
  2
*DIM_0012
  8
寸法
  6
CONTINUOUS
 10
0.0
 20
0.0
  0
INSERT
  2
*DIM_0013
  8
寸法
  6
CONTINUOUS
 10
0.0
 20
0.0
  0
INSERT
  2
*DIM_0014
  8
寸法
  6
CONTINUOUS
 10
0.0
 20
0.0
  0
INSERT
  2
*DIM_0015
  8
寸法
  6
CONTINUOUS
 10
0.0
 20
0.0
  0
INSERT
  2
*DIM_0016
  8
寸法
  6
CONTINUOUS
 10
0.0
 20
0.0
  0
INSERT
  2
*DIM_0017
  8
寸法
  6
CONTINUOUS
 10
0.0
 20
0.0
  0
INSERT
  2
*DIM_0018
  8
寸法
  6
CONTINUOUS
 10
0.0
 20
0.0
  0
INSERT
  2
*DIM_0019
  8
寸法
  6
CONTINUOUS
 10
0.0
 20
0.0
  0
INSERT
  2
*DIM_0020
  8
寸法
  6
CONTINUOUS
 10
0.0
 20
0.0
  0
INSERT
  2
*DIM_0021
  8
寸法
  6
CONTINUOUS
 10
0.0
 20
0.0
  0
INSERT
  2
*DIM_0022
  8
寸法
  6
CONTINUOUS
 10
0.0
 20
0.0
  0
LINE
  8
曲げ物
  6
CONTINUOUS
 10
-6.881753
 20
35.11718
 11
-10.577065
 21
31.421868
  0
LINE
  8
曲げ物
  6
CONTINUOUS
 10
-7.585222
 20
33.58107
 11
-9.040953
 21
32.12534
  0
LINE
  8
曲げ物
  6
CONTINUOUS
 10
-8.417862
 20
34.41371
 11
-9.873592
 21
32.95798
  0
LINE
  8
曲げ物
  6
CONTINUOUS
 10
-7.585222
 20
33.58107
 11
-9.040953
 21
32.12534
  0
LINE
  8
曲げ物
  6
CONTINUOUS
 10
-8.417862
 20
34.41371
 11
-9.873592
 21
32.95798
  0
LINE
  8
曲げ物
  6
CONTINUOUS
 10
26.468245
 20
35.11718
 11
22.772933
 21
31.421868
  0
LINE
  8
曲げ物
  6
CONTINUOUS
 10
25.764775
 20
33.58107
 11
24.309045
 21
32.12534
  0
LINE
  8
曲げ物
  6
CONTINUOUS
 10
24.932135
 20
34.41371
 11
23.476405
 21
32.95798
  0
LINE
  8
曲げ物
  6
CONTINUOUS
 10
25.764775
 20
33.58107
 11
24.309045
 21
32.12534
  0
LINE
  8
曲げ物
  6
CONTINUOUS
 10
24.932135
 20
34.41371
 11
23.476405
 21
32.95798
  0
LINE
  8
曲げ物
  6
CONTINUOUS
 10
-73.581747
 20
35.11718
 11
-77.27706
 21
31.421868
  0
LINE
  8
曲げ物
  6
CONTINUOUS
 10
-74.285218
 20
33.58107
 11
-75.740948
 21
32.12534
  0
LINE
  8
曲げ物
  6
CONTINUOUS
 10
-75.117857
 20
34.41371
 11
-76.573588
 21
32.95798
  0
LINE
  8
曲げ物
  6
CONTINUOUS
 10
-74.285218
 20
33.58107
 11
-75.740948
 21
32.12534
  0
LINE
  8
曲げ物
  6
CONTINUOUS
 10
-75.117857
 20
34.41371
 11
-76.573588
 21
32.95798
  0
LINE
  8
曲げ物
  6
CONTINUOUS
 10
-40.23175
 20
35.11718
 11
-43.927063
 21
31.421868
  0
LINE
  8
曲げ物
  6
CONTINUOUS
 10
-40.93522
 20
33.58107
 11
-42.39095
 21
32.12534
  0
LINE
  8
曲げ物
  6
CONTINUOUS
 10
-41.76786
 20
34.41371
 11
-43.22359
 21
32.95798
  0
LINE
  8
曲げ物
  6
CONTINUOUS
 10
-40.93522
 20
33.58107
 11
-42.39095
 21
32.12534
  0
LINE
  8
曲げ物
  6
CONTINUOUS
 10
-41.76786
 20
34.41371
 11
-43.22359
 21
32.95798
  0
LINE
  8
St
  6
CONTINUOUS
 62
    47
 10
171.63993
 20
16.157608
 11
171.63993
 21
15.707608
  0
LINE
  8
St
  6
CONTINUOUS
 62
    47
 10
171.63993
 20
50.471235
 11
171.63993
 21
50.921235
  0
LINE
  8
St
  6
CONTINUOUS
 62
    47
 10
43.971478
 20
-84.510843
 11
44.421478
 21
-84.510843
  0
LINE
  8
St
  6
CONTINUOUS
 62
    47
 10
-93.675478
 20
-84.510843
 11
-94.125478
 21
-84.510843
  0
ENDSEC
  0
EOF
