  0
SECTION
  2
HEADER
  9
$EXTMIN
 10
-210.0
 20
-148.5
  9
$EXTMAX
 10
210.0
 20
148.5
  9
$PDMODE
 70
    32
  9
$PDSIZE
 40
1.5
  9
$LTSCALE
 40
10.0
  0
ENDSEC
  0
SECTION
  2
TABLES
  0
TABLE
  2
LTYPE
 70
    15
  0
LTYPE
  2
CONTINUOUS
 70
    64
  3
実線
 72
    65
 73
     0
 40
0.0
  0
LTYPE
  2
DASHED
 70
    64
  3
破線A
 72
    65
 73
     2
 40
0.6
 49
0.4
 49
-0.2
  0
LTYPE
  2
DASHEDX2
 70
    64
  3
破線B
 72
    65
 73
     2
 40
1.3
 49
0.9
 49
-0.4
  0
LTYPE
  2
DASHDOT
 70
    64
  3
１点鎖線A
 72
    65
 73
     4
 40
0.5375
 49
0.375
 49
-0.05
 49
0.0625
 49
-0.05
  0
LTYPE
  2
DASHDOTX2
 70
    64
  3
１点鎖線B
 72
    65
 73
     4
 40
1.075
 49
0.75
 49
-0.1
 49
0.125
 49
-0.1
  0
LTYPE
  2
DIVIDE2
 70
    64
  3
２点鎖線A
 72
    65
 73
     6
 40
0.5125
 49
0.3
 49
-0.0375
 49
0.05
 49
-0.0375
 49
0.05
 49
-0.0375
  0
LTYPE
  2
DIVIDE
 70
    64
  3
２点鎖線B
 72
    65
 73
     6
 40
1.05
 49
0.55
 49
-0.1
 49
0.1
 49
-0.1
 49
0.1
 49
-0.1
  0
LTYPE
  2
DOT
 70
    64
  3
点線A
 72
    65
 73
     2
 40
0.1125
 49
0.0625
 49
-0.05
  0
LTYPE
  2
DOTX2
 70
    64
  3
点線B
 72
    65
 73
     2
 40
0.275
 49
0.15
 49
-0.125
  0
LTYPE
  2
CONTINUOUS
 70
    64
  3
実線
 72
    65
 73
     0
 40
0.0
  0
LTYPE
  2
CONTINUOUS
 70
    64
  3
実線
 72
    65
 73
     0
 40
0.0
  0
LTYPE
  2
CONTINUOUS
 70
    64
  3
実線
 72
    65
 73
     0
 40
0.0
  0
LTYPE
  2
CONTINUOUS
 70
    64
  3
実線
 72
    65
 73
     0
 40
0.0
  0
LTYPE
  2
CONTINUOUS
 70
    64
  3
実線
 72
    65
 73
     0
 40
0.0
  0
LTYPE
  2
CONTINUOUS
 70
    64
  3
実線
 72
    65
 73
     0
 40
0.0
  0
ENDTAB
  0
TABLE
  2
LAYER
 70
    34
  0
LAYER
  2
通り芯
 70
     0
 62
    15
  6
CONTINUOUS
  0
LAYER
  2
補助線
 70
     0
 62
    16
  6
DOT
  0
LAYER
  2
躯体
 70
     0
 62
    31
  6
CONTINUOUS
  0
LAYER
  2
型材
 70
     0
 62
    32
  6
CONTINUOUS
  0
LAYER
  2
型材断面
 70
     0
 62
    47
  6
CONTINUOUS
  0
LAYER
  2
ガラス
 70
     0
 62
    48
  6
CONTINUOUS
  0
LAYER
  2
ゴム等
 70
     0
 62
    63
  6
CONTINUOUS
  0
LAYER
  2
ボルト／ビス
 70
     0
 62
    64
  6
CONTINUOUS
  0
LAYER
  2
文字
 70
     0
 62
    79
  6
CONTINUOUS
  0
LAYER
  2
寸法
 70
     0
 62
    80
  6
CONTINUOUS
  0
LAYER
  2
ﾊｯﾁﾝｸﾞ
 70
     0
 62
    95
  6
CONTINUOUS
  0
LAYER
  2
別途部材
 70
     0
 62
    96
  6
CONTINUOUS
  0
LAYER
  2
曲げ物
 70
     0
 62
   111
  6
CONTINUOUS
  0
LAYER
  2
鉄骨等
 70
     0
 62
   112
  6
CONTINUOUS
  0
LAYER
  2
St
 70
     0
 62
   127
  6
CONTINUOUS
  0
LAYER
  2
その他部品等
 70
     0
 62
   128
  6
CONTINUOUS
  0
LAYER
  2
ｶﾞｽｹｯﾄ
 70
     0
 62
   143
  6
CONTINUOUS
  0
LAYER
  2
ｽｹｯﾁ
 70
     0
 62
    14
  6
CONTINUOUS
  0
LAYER
  2
0
 70
     0
 62
    17
  6
CONTINUOUS
  0
LAYER
  2
1
 70
     0
 62
    30
  6
CONTINUOUS
  0
LAYER
  2
4
 70
     0
 62
    33
  6
CONTINUOUS
  0
LAYER
  2
ﾚｲﾔ3
 70
     0
 62
    46
  6
CONTINUOUS
  0
LAYER
  2
外形線
 70
     0
 62
    49
  6
CONTINUOUS
  0
LAYER
  2
部品
 70
     0
 62
    14
  6
CONTINUOUS
  0
LAYER
  2
サッシ芯
 70
     0
 62
    17
  6
DASHDOTX2
  0
LAYER
  2
寸法線
 70
     0
 62
    62
  6
CONTINUOUS
  0
LAYER
  2
姿図外形線
 70
     0
 62
    65
  6
CONTINUOUS
  0
LAYER
  2
姿補助線
 70
     0
 62
    30
  6
CONTINUOUS
  0
LAYER
  2
透視線
 70
     0
 62
    78
  6
DOT
  0
LAYER
  2
用紙
 70
     0
 62
    81
  6
CONTINUOUS
  0
LAYER
  2
実線図枠
 70
     0
 62
    94
  6
CONTINUOUS
  0
LAYER
  2
補助図枠
 70
     0
 62
    97
  6
CONTINUOUS
  0
LAYER
  2
建具記号
 70
     0
 62
   110
  6
CONTINUOUS
  0
LAYER
  2
補助文字
 70
     0
 62
   113
  6
CONTINUOUS
  0
ENDTAB
  0
TABLE
  2
STYLE
 70
    10
  0
STYLE
  2
STANDARD
 70
     0
 40
1.0
 41
1.0
 42
1.0
 50
0.0
 71
     0
  3
TXT
  4
BIGFONT
  0
STYLE
  2
TATE
 70
     4
 40
1.0
 41
1.0
 42
1.0
 50
0.0
 71
     0
  3
TXT
  4
BIGFONT
  0
STYLE
  2
TextStyle03
 70
     0
 40
1.0
 41
1.0
 42
1.0
 50
0.0
 71
     0
  3
MONOTXT
  4
BIGFONT
  0
STYLE
  2
TextStyle04
 70
     0
 40
1.0
 41
1.0
 42
1.0
 50
0.0
 71
     0
  3
MONOTXT
  4
BIGFONT
  0
STYLE
  2
TextStyle05
 70
     0
 40
1.0
 41
1.0
 42
1.0
 50
0.0
 71
     0
  3
MONOTXT
  4
BIGFONT
  0
STYLE
  2
TextStyle06
 70
     0
 40
1.0
 41
1.0
 42
1.0
 50
0.0
 71
     0
  3
MONOTXT
  4
BIGFONT
  0
STYLE
  2
TextStyle07
 70
     0
 40
1.0
 41
1.0
 42
1.0
 50
0.0
 71
     0
  3
MONOTXT
  4
BIGFONT
  0
STYLE
  2
TextStyle08
 70
     0
 40
1.0
 41
1.0
 42
1.0
 50
0.0
 71
     0
  3
MONOTXT
  4
BIGFONT
  0
STYLE
  2
TextStyle09
 70
     0
 40
1.0
 41
1.0
 42
1.0
 50
0.0
 71
     0
  3
MONOTXT
  4
BIGFONT
  0
STYLE
  2
TextStyle10
 70
     0
 40
1.0
 41
1.0
 42
1.0
 50
0.0
 71
     0
  3
MONOTXT
  4
BIGFONT
  0
ENDTAB
  0
ENDSEC
  0
SECTION
  2
BLOCKS
  0
BLOCK
  2
*GRP_0001
 70
    65
 10
0.0
 20
0.0
  0
LINE
  8
型材断面
  6
CONTINUOUS
 10
195.0
 20
133.5
 11
195.0
 21
-133.5
  0
LINE
  8
型材断面
  6
CONTINUOUS
 10
195.0
 20
-133.5
 11
-185.0
 21
-133.5
  0
LINE
  8
型材断面
  6
CONTINUOUS
 10
-185.0
 20
-133.5
 11
-185.0
 21
133.5
  0
LINE
  8
型材断面
  6
CONTINUOUS
 10
195.0
 20
133.5
 11
-185.0
 21
133.5
  0
LINE
  8
型材断面
  6
CONTINUOUS
 10
145.0
 20
-133.5
 11
145.0
 21
-118.5
  0
LINE
  8
型材断面
  6
CONTINUOUS
 10
195.0
 20
-118.5
 11
145.0
 21
-118.5
  0
ENDBLK
  0
BLOCK
  2
*GRP_0002
 70
    65
 10
0.0
 20
0.0
  0
LINE
  8
ボルト／ビス
  6
CONTINUOUS
 10
168.42343
 20
17.281087
 11
168.356765
 21
17.281087
  0
LINE
  8
ボルト／ビス
  6
CONTINUOUS
 10
168.356765
 20
17.281087
 11
168.356765
 21
18.014417
  0
LINE
  8
ボルト／ビス
  6
CONTINUOUS
 10
168.356765
 20
18.014417
 11
168.42343
 21
18.014417
  0
LINE
  8
ボルト／ビス
  6
CONTINUOUS
 10
168.42343
 20
17.281087
 11
168.42343
 21
18.014417
  0
LINE
  8
ボルト／ビス
  6
CONTINUOUS
 10
168.32343
 20
17.347753
 11
168.356765
 21
17.347753
  0
LINE
  8
ボルト／ビス
  6
CONTINUOUS
 10
168.32343
 20
17.347753
 11
168.32343
 21
17.947753
  0
LINE
  8
ボルト／ビス
  6
CONTINUOUS
 10
168.32343
 20
17.947753
 11
168.356762
 21
17.947753
  0
LINE
  8
ボルト／ビス
  6
CONTINUOUS
 62
    64
 10
168.12343
 20
17.487378
 11
168.135105
 21
17.455302
  0
ARC
  8
ボルト／ビス
  6
CONTINUOUS
 62
    64
 10
168.22841
 20
17.503416
 40
0.104978
 50
152.721989
 51
180.000022
  0
ARC
  8
ボルト／ビス
  6
CONTINUOUS
 62
    64
 10
168.525833
 20
17.647753
 40
0.402401
 50
166.165024
 51
193.835007
  0
LINE
  8
ボルト／ビス
  6
CONTINUOUS
 62
    64
 10
168.12343
 20
17.808128
 11
168.135105
 21
17.840202
  0
ARC
  8
ボルト／ビス
  6
CONTINUOUS
 62
    64
 10
168.22841
 20
17.79209
 40
0.104978
 50
180.000022
 51
207.278055
  0
LINE
  8
ボルト／ビス
  6
CONTINUOUS
 62
    64
 10
168.12343
 20
17.487378
 11
168.12343
 21
17.808128
  0
LINE
  8
ボルト／ビス
  6
CONTINUOUS
 62
    64
 10
168.135105
 20
17.840202
 11
168.256762
 21
17.840202
  0
LINE
  8
ボルト／ビス
  6
CONTINUOUS
 62
    64
 10
168.135105
 20
17.743978
 11
168.256765
 21
17.743978
  0
LINE
  8
ボルト／ビス
  6
CONTINUOUS
 62
    64
 10
168.135105
 20
17.455302
 11
168.256762
 21
17.455302
  0
LINE
  8
ボルト／ビス
  6
CONTINUOUS
 62
    64
 10
168.135105
 20
17.551527
 11
168.256762
 21
17.551527
  0
LINE
  8
ボルト／ビス
  6
CONTINUOUS
 10
168.256762
 20
17.455302
 11
168.256762
 21
17.840202
  0
LINE
  8
ボルト／ビス
  6
CONTINUOUS
 10
168.256762
 20
17.447753
 11
168.32343
 21
17.447753
  0
LINE
  8
ボルト／ビス
  6
CONTINUOUS
 10
168.256762
 20
17.447753
 11
168.256762
 21
17.847753
  0
LINE
  8
ボルト／ビス
  6
CONTINUOUS
 10
168.256762
 20
17.847753
 11
168.32343
 21
17.847753
  0
LINE
  8
ボルト／ビス
  6
CONTINUOUS
 62
    64
 10
168.42343
 20
17.747753
 11
168.42343
 21
17.747753
  0
ENDBLK
  0
BLOCK
  2
*GRP_0003
 70
    65
 10
0.0
 20
0.0
  0
LINE
  8
ボルト／ビス
  6
CONTINUOUS
 10
168.42343
 20
49.347758
 11
168.356765
 21
49.347758
  0
LINE
  8
ボルト／ビス
  6
CONTINUOUS
 10
168.356765
 20
49.347758
 11
168.356765
 21
48.614425
  0
LINE
  8
ボルト／ビス
  6
CONTINUOUS
 10
168.356765
 20
48.614425
 11
168.42343
 21
48.614425
  0
LINE
  8
ボルト／ビス
  6
CONTINUOUS
 10
168.42343
 20
49.347758
 11
168.42343
 21
48.614425
  0
LINE
  8
ボルト／ビス
  6
CONTINUOUS
 10
168.32343
 20
49.28109
 11
168.356765
 21
49.28109
  0
LINE
  8
ボルト／ビス
  6
CONTINUOUS
 10
168.32343
 20
49.28109
 11
168.32343
 21
48.681092
  0
LINE
  8
ボルト／ビス
  6
CONTINUOUS
 10
168.32343
 20
48.681092
 11
168.356762
 21
48.681092
  0
LINE
  8
ボルト／ビス
  6
CONTINUOUS
 62
    64
 10
168.12343
 20
49.141467
 11
168.135105
 21
49.17354
  0
ARC
  8
ボルト／ビス
  6
CONTINUOUS
 62
    64
 10
168.22841
 20
49.125427
 40
0.104978
 50
179.999978
 51
207.278011
  0
ARC
  8
ボルト／ビス
  6
CONTINUOUS
 62
    64
 10
168.525833
 20
48.981089
 40
0.402401
 50
166.164993
 51
193.834976
  0
LINE
  8
ボルト／ビス
  6
CONTINUOUS
 62
    64
 10
168.12343
 20
48.820717
 11
168.135105
 21
48.78864
  0
ARC
  8
ボルト／ビス
  6
CONTINUOUS
 62
    64
 10
168.22841
 20
48.836752
 40
0.104978
 50
152.721945
 51
179.999978
  0
LINE
  8
ボルト／ビス
  6
CONTINUOUS
 62
    64
 10
168.12343
 20
49.141467
 11
168.12343
 21
48.820717
  0
LINE
  8
ボルト／ビス
  6
CONTINUOUS
 62
    64
 10
168.135105
 20
48.78864
 11
168.256762
 21
48.78864
  0
LINE
  8
ボルト／ビス
  6
CONTINUOUS
 62
    64
 10
168.135105
 20
48.884867
 11
168.256765
 21
48.884867
  0
LINE
  8
ボルト／ビス
  6
CONTINUOUS
 62
    64
 10
168.135105
 20
49.17354
 11
168.256762
 21
49.17354
  0
LINE
  8
ボルト／ビス
  6
CONTINUOUS
 62
    64
 10
168.135105
 20
49.077315
 11
168.256762
 21
49.077315
  0
LINE
  8
ボルト／ビス
  6
CONTINUOUS
 10
168.256762
 20
49.17354
 11
168.256762
 21
48.78864
  0
LINE
  8
ボルト／ビス
  6
CONTINUOUS
 10
168.256762
 20
49.18109
 11
168.32343
 21
49.18109
  0
LINE
  8
ボルト／ビス
  6
CONTINUOUS
 10
168.256762
 20
49.18109
 11
168.256762
 21
48.781092
  0
LINE
  8
ボルト／ビス
  6
CONTINUOUS
 10
168.256762
 20
48.781092
 11
168.32343
 21
48.781092
  0
LINE
  8
ボルト／ビス
  6
CONTINUOUS
 62
    64
 10
168.42343
 20
48.881092
 11
168.42343
 21
48.881092
  0
ENDBLK
  0
BLOCK
  2
*GRP_0004
 70
    65
 10
0.0
 20
0.0
  0
LINE
  8
ボルト／ビス
  6
CONTINUOUS
 10
59.514662
 20
-81.294343
 11
59.514662
 21
-81.227678
  0
LINE
  8
ボルト／ビス
  6
CONTINUOUS
 10
59.514662
 20
-81.227678
 11
58.781332
 21
-81.227678
  0
LINE
  8
ボルト／ビス
  6
CONTINUOUS
 10
58.781332
 20
-81.227678
 11
58.781332
 21
-81.294343
  0
LINE
  8
ボルト／ビス
  6
CONTINUOUS
 10
59.514662
 20
-81.294343
 11
58.781332
 21
-81.294343
  0
LINE
  8
ボルト／ビス
  6
CONTINUOUS
 10
59.447998
 20
-81.194343
 11
59.447998
 21
-81.227678
  0
LINE
  8
ボルト／ビス
  6
CONTINUOUS
 10
59.447998
 20
-81.194343
 11
58.847998
 21
-81.194343
  0
LINE
  8
ボルト／ビス
  6
CONTINUOUS
 10
58.847998
 20
-81.194343
 11
58.847998
 21
-81.227675
  0
LINE
  8
ボルト／ビス
  6
CONTINUOUS
 62
    64
 10
59.308373
 20
-80.994343
 11
59.340447
 21
-81.006017
  0
ARC
  8
ボルト／ビス
  6
CONTINUOUS
 62
    64
 10
59.292333
 20
-81.099323
 40
0.104978
 50
89.999978
 51
117.278011
  0
ARC
  8
ボルト／ビス
  6
CONTINUOUS
 62
    64
 10
59.147996
 20
-81.396746
 40
0.402401
 50
76.164993
 51
103.834976
  0
LINE
  8
ボルト／ビス
  6
CONTINUOUS
 62
    64
 10
58.987623
 20
-80.994343
 11
58.955547
 21
-81.006017
  0
ARC
  8
ボルト／ビス
  6
CONTINUOUS
 62
    64
 10
59.003659
 20
-81.099323
 40
0.104978
 50
62.721945
 51
89.999978
  0
LINE
  8
ボルト／ビス
  6
CONTINUOUS
 62
    64
 10
59.308373
 20
-80.994343
 11
58.987623
 21
-80.994343
  0
LINE
  8
ボルト／ビス
  6
CONTINUOUS
 62
    64
 10
58.955547
 20
-81.006017
 11
58.955547
 21
-81.127675
  0
LINE
  8
ボルト／ビス
  6
CONTINUOUS
 62
    64
 10
59.051772
 20
-81.006017
 11
59.051772
 21
-81.127678
  0
LINE
  8
ボルト／ビス
  6
CONTINUOUS
 62
    64
 10
59.340447
 20
-81.006017
 11
59.340447
 21
-81.127675
  0
LINE
  8
ボルト／ビス
  6
CONTINUOUS
 62
    64
 10
59.244223
 20
-81.006017
 11
59.244223
 21
-81.127675
  0
LINE
  8
ボルト／ビス
  6
CONTINUOUS
 10
59.340447
 20
-81.127675
 11
58.955547
 21
-81.127675
  0
LINE
  8
ボルト／ビス
  6
CONTINUOUS
 10
59.347998
 20
-81.127675
 11
59.347998
 21
-81.194343
  0
LINE
  8
ボルト／ビス
  6
CONTINUOUS
 10
59.347998
 20
-81.127675
 11
58.947998
 21
-81.127675
  0
LINE
  8
ボルト／ビス
  6
CONTINUOUS
 10
58.947998
 20
-81.127675
 11
58.947998
 21
-81.194343
  0
LINE
  8
ボルト／ビス
  6
CONTINUOUS
 62
    64
 10
59.047998
 20
-81.294343
 11
59.047998
 21
-81.294343
  0
ENDBLK
  0
BLOCK
  2
*GRP_0005
 70
    65
 10
0.0
 20
0.0
  0
LINE
  8
ボルト／ビス
  6
CONTINUOUS
 10
-109.218665
 20
-81.294343
 11
-109.218665
 21
-81.227678
  0
LINE
  8
ボルト／ビス
  6
CONTINUOUS
 10
-109.218665
 20
-81.227678
 11
-108.485333
 21
-81.227678
  0
LINE
  8
ボルト／ビス
  6
CONTINUOUS
 10
-108.485333
 20
-81.227678
 11
-108.485333
 21
-81.294343
  0
LINE
  8
ボルト／ビス
  6
CONTINUOUS
 10
-109.218665
 20
-81.294343
 11
-108.485333
 21
-81.294343
  0
LINE
  8
ボルト／ビス
  6
CONTINUOUS
 10
-109.151998
 20
-81.194343
 11
-109.151998
 21
-81.227678
  0
LINE
  8
ボルト／ビス
  6
CONTINUOUS
 10
-109.151998
 20
-81.194343
 11
-108.552
 21
-81.194343
  0
LINE
  8
ボルト／ビス
  6
CONTINUOUS
 10
-108.552
 20
-81.194343
 11
-108.552
 21
-81.227675
  0
LINE
  8
ボルト／ビス
  6
CONTINUOUS
 62
    64
 10
-109.012375
 20
-80.994343
 11
-109.044448
 21
-81.006017
  0
ARC
  8
ボルト／ビス
  6
CONTINUOUS
 62
    64
 10
-108.996335
 20
-81.099323
 40
0.104978
 50
62.721989
 51
90.000022
  0
ARC
  8
ボルト／ビス
  6
CONTINUOUS
 62
    64
 10
-108.851998
 20
-81.396746
 40
0.402401
 50
76.165024
 51
103.835007
  0
LINE
  8
ボルト／ビス
  6
CONTINUOUS
 62
    64
 10
-108.691625
 20
-80.994343
 11
-108.659548
 21
-81.006017
  0
ARC
  8
ボルト／ビス
  6
CONTINUOUS
 62
    64
 10
-108.70766
 20
-81.099323
 40
0.104978
 50
90.000022
 51
117.278055
  0
LINE
  8
ボルト／ビス
  6
CONTINUOUS
 62
    64
 10
-109.012375
 20
-80.994343
 11
-108.691625
 21
-80.994343
  0
LINE
  8
ボルト／ビス
  6
CONTINUOUS
 62
    64
 10
-108.659548
 20
-81.006017
 11
-108.659548
 21
-81.127675
  0
LINE
  8
ボルト／ビス
  6
CONTINUOUS
 62
    64
 10
-108.755775
 20
-81.006017
 11
-108.755775
 21
-81.127678
  0
LINE
  8
ボルト／ビス
  6
CONTINUOUS
 62
    64
 10
-109.044448
 20
-81.006017
 11
-109.044448
 21
-81.127675
  0
LINE
  8
ボルト／ビス
  6
CONTINUOUS
 62
    64
 10
-108.948222
 20
-81.006017
 11
-108.948222
 21
-81.127675
  0
LINE
  8
ボルト／ビス
  6
CONTINUOUS
 10
-109.044448
 20
-81.127675
 11
-108.659548
 21
-81.127675
  0
LINE
  8
ボルト／ビス
  6
CONTINUOUS
 10
-109.051998
 20
-81.127675
 11
-109.051998
 21
-81.194343
  0
LINE
  8
ボルト／ビス
  6
CONTINUOUS
 10
-109.051998
 20
-81.127675
 11
-108.652
 21
-81.127675
  0
LINE
  8
ボルト／ビス
  6
CONTINUOUS
 10
-108.652
 20
-81.127675
 11
-108.652
 21
-81.194343
  0
LINE
  8
ボルト／ビス
  6
CONTINUOUS
 62
    64
 10
-108.752
 20
-81.294343
 11
-108.752
 21
-81.294343
  0
ENDBLK
  0
BLOCK
  2
*DIM_0006
 70
    65
 10
0.0
 20
0.0
  0
LINE
  8
寸法
  6
CONTINUOUS
 10
166.13993
 20
15.70761
 11
151.055333
 21
15.70761
  0
LINE
  8
寸法
  6
CONTINUOUS
 10
151.055333
 20
18.314422
 11
151.055333
 21
15.70761
  0
POINT
  8
寸法
 10
151.055333
 20
18.314422
  0
POINT
  8
寸法
 10
151.055333
 20
15.70761
  0
TEXT
  7
TextStyle03
  8
寸法
  6
CONTINUOUS
 10
150.625
 20
6.99375
  1
78.2
 40
3.0
 50
90.0
 72
     5
 11
150.625
 21
13.55625
  0
ENDBLK
  0
BLOCK
  2
*DIM_0007
 70
    65
 10
0.0
 20
0.0
  0
LINE
  8
寸法
  6
CONTINUOUS
 10
166.13993
 20
50.921237
 11
151.055333
 21
50.921237
  0
LINE
  8
寸法
  6
CONTINUOUS
 10
151.055333
 20
48.314422
 11
151.055333
 21
50.921237
  0
POINT
  8
寸法
 10
151.055333
 20
48.314422
  0
POINT
  8
寸法
 10
151.055333
 20
50.921237
  0
TEXT
  7
TextStyle03
  8
寸法
  6
CONTINUOUS
 10
150.625
 20
53.09375
  1
78.2
 40
3.0
 50
90.0
 72
     5
 11
150.625
 21
59.65625
  0
ENDBLK
  0
BLOCK
  2
*DIM_0008
 70
    65
 10
0.0
 20
0.0
  0
LINE
  8
寸法
  6
CONTINUOUS
 10
151.055333
 20
18.314422
 11
151.055333
 21
48.314422
  0
POINT
  8
寸法
 10
151.055333
 20
18.314422
  0
POINT
  8
寸法
 10
151.055333
 20
48.314422
  0
TEXT
  7
TextStyle03
  8
寸法
  6
CONTINUOUS
 10
150.625
 20
22.45
  1
呼称寸法　900
 40
3.0
 50
90.0
 72
     5
 11
150.625
 21
44.2
  0
ENDBLK
  0
BLOCK
  2
*DIM_0009
 70
    65
 10
0.0
 20
0.0
  0
LINE
  8
寸法
  6
CONTINUOUS
 10
171.63993
 20
10.707608
 11
171.63993
 21
2.443285
  0
LINE
  8
寸法
  6
CONTINUOUS
 10
167.923432
 20
13.314423
 11
167.923432
 21
2.443285
  0
LINE
  8
寸法
  6
CONTINUOUS
 10
171.63993
 20
2.443285
 11
167.923432
 21
2.443285
  0
POINT
  8
寸法
 10
171.63993
 20
2.443285
  0
POINT
  8
寸法
 10
167.923432
 20
2.443285
  0
TEXT
  7
TextStyle03
  8
寸法
  6
CONTINUOUS
 10
165.6
 20
-0.55
  1
111.5
 40
3.0
 50
360.0
 72
     5
 11
173.85
 21
-0.55
  0
ENDBLK
  0
BLOCK
  2
*DIM_0010
 70
    65
 10
0.0
 20
0.0
  0
LINE
  8
寸法
  6
CONTINUOUS
 10
61.088142
 20
-79.010843
 11
61.088142
 21
-63.926245
  0
LINE
  8
寸法
  6
CONTINUOUS
 10
58.481328
 20
-63.926245
 11
61.088142
 21
-63.926245
  0
POINT
  8
寸法
 10
58.481328
 20
-63.926245
  0
POINT
  8
寸法
 10
61.088142
 20
-63.926245
  0
TEXT
  7
TextStyle03
  8
寸法
  6
CONTINUOUS
 10
63.21875
 20
-63.55
  1
78.2
 40
3.0
 72
     5
 11
69.78125
 21
-63.55
  0
ENDBLK
  0
BLOCK
  2
*DIM_0011
 70
    65
 10
0.0
 20
0.0
  0
LINE
  8
寸法
  6
CONTINUOUS
 10
66.088142
 20
-84.510843
 11
74.352465
 21
-84.510843
  0
LINE
  8
寸法
  6
CONTINUOUS
 10
63.481328
 20
-80.794345
 11
74.352465
 21
-80.794345
  0
LINE
  8
寸法
  6
CONTINUOUS
 10
74.352465
 20
-84.510843
 11
74.352465
 21
-80.794345
  0
POINT
  8
寸法
 10
74.352465
 20
-84.510843
  0
POINT
  8
寸法
 10
74.352465
 20
-80.794345
  0
TEXT
  7
TextStyle03
  8
寸法
  6
CONTINUOUS
 10
77.3
 20
-86.775
  1
111.5
 40
3.0
 50
90.0
 72
     5
 11
77.3
 21
-78.525
  0
ENDBLK
  0
BLOCK
  2
*DIM_0012
 70
    65
 10
0.0
 20
0.0
  0
LINE
  8
寸法
  6
CONTINUOUS
 10
-110.792143
 20
-79.010843
 11
-110.792143
 21
-63.926245
  0
LINE
  8
寸法
  6
CONTINUOUS
 10
-108.18533
 20
-63.926245
 11
-110.792143
 21
-63.926245
  0
POINT
  8
寸法
 10
-108.18533
 20
-63.926245
  0
POINT
  8
寸法
 10
-110.792143
 20
-63.926245
  0
TEXT
  7
TextStyle03
  8
寸法
  6
CONTINUOUS
 10
-119.55625
 20
-63.55
  1
78.2
 40
3.0
 72
     5
 11
-112.99375
 21
-63.55
  0
ENDBLK
  0
BLOCK
  2
*DIM_0013
 70
    65
 10
0.0
 20
0.0
  0
LINE
  8
寸法
  6
CONTINUOUS
 10
58.481328
 20
-63.926245
 11
-108.18533
 21
-63.926245
  0
POINT
  8
寸法
 10
58.481328
 20
-63.926245
  0
POINT
  8
寸法
 10
-108.18533
 20
-63.926245
  0
TEXT
  7
TextStyle03
  8
寸法
  6
CONTINUOUS
 10
-36.61875
 20
-63.55
  1
呼称寸法　5000
 40
3.0
 72
     5
 11
-13.18125
 21
-63.55
  0
ENDBLK
  0
BLOCK
  2
*DIM_0014
 70
    65
 10
0.0
 20
0.0
  0
LINE
  8
寸法
  6
BYBLOCK
 62
     0
 10
-91.518667
 20
14.684293
 11
-91.518667
 21
9.38197
  0
LINE
  8
寸法
  6
BYBLOCK
 62
     0
 10
-24.852002
 20
14.684295
 11
-24.852002
 21
9.38197
  0
LINE
  8
寸法
  6
BYBLOCK
 62
     0
 10
-91.518667
 20
9.38197
 11
-24.852002
 21
9.38197
  0
POINT
  8
寸法
 62
     0
 10
-91.518667
 20
9.38197
  0
POINT
  8
寸法
 62
     0
 10
-24.852002
 20
9.38197
  0
TEXT
  7
TextStyle03
  8
寸法
  6
CONTINUOUS
 62
     0
 10
-61.50625
 20
9.75
  1
2000
 40
3.0
 72
     5
 11
-54.94375
 21
9.75
  0
ENDBLK
  0
BLOCK
  2
*DIM_0015
 70
    65
 10
0.0
 20
0.0
  0
LINE
  8
寸法
  6
BYBLOCK
 62
     0
 10
41.814662
 20
14.684293
 11
41.814662
 21
9.38197
  0
LINE
  8
寸法
  6
BYBLOCK
 62
     0
 10
-24.852002
 20
9.38197
 11
41.814662
 21
9.38197
  0
POINT
  8
寸法
 62
     0
 10
41.814662
 20
9.38197
  0
TEXT
  7
TextStyle03
  8
寸法
  6
CONTINUOUS
 62
     0
 10
5.16875
 20
9.75
  1
2000
 40
3.0
 72
     5
 11
11.73125
 21
9.75
  0
ENDBLK
  0
BLOCK
  2
*DIM_0016
 70
    65
 10
0.0
 20
0.0
  0
LINE
  8
寸法
  6
BYBLOCK
 62
     0
 10
-111.185335
 20
43.314422
 11
-124.478172
 21
43.314422
  0
LINE
  8
寸法
  6
BYBLOCK
 62
     0
 10
-111.185335
 20
23.314422
 11
-124.478172
 21
23.314422
  0
LINE
  8
寸法
  6
BYBLOCK
 62
     0
 10
-124.478172
 20
43.314422
 11
-124.478172
 21
23.314422
  0
POINT
  8
寸法
 62
     0
 10
-124.478172
 20
43.314422
  0
POINT
  8
寸法
 62
     0
 10
-124.478172
 20
23.314422
  0
TEXT
  7
TextStyle03
  8
寸法
  6
CONTINUOUS
 62
     0
 10
-124.875
 20
30.8625
  1
600
 40
3.0
 50
90.0
 72
     5
 11
-124.875
 21
35.7375
  0
ENDBLK
  0
BLOCK
  2
*DIM_0017
 70
    65
 10
0.0
 20
0.0
  0
LINE
  8
寸法
  6
BYBLOCK
 62
     0
 10
-99.852
 20
51.314422
 11
-99.852
 21
80.422495
  0
LINE
  8
寸法
  6
BYBLOCK
 62
     0
 10
-74.852
 20
51.314422
 11
-74.852
 21
80.422495
  0
LINE
  8
寸法
  6
BYBLOCK
 62
     0
 10
-99.852
 20
80.422495
 11
-74.852
 21
80.422495
  0
POINT
  8
寸法
 62
     0
 10
-99.852
 20
80.422495
  0
POINT
  8
寸法
 62
     0
 10
-74.852
 20
80.422495
  0
TEXT
  7
TextStyle03
  8
寸法
  6
CONTINUOUS
 62
     0
 10
-89.8375
 20
80.775
  1
750
 40
3.0
 72
     5
 11
-84.9625
 21
80.775
  0
ENDBLK
  0
BLOCK
  2
*DIM_0018
 70
    65
 10
0.0
 20
0.0
  0
LINE
  8
寸法
  6
BYBLOCK
 62
     0
 10
-49.852
 20
51.314422
 11
-49.852
 21
80.422495
  0
LINE
  8
寸法
  6
BYBLOCK
 62
     0
 10
-74.852
 20
80.422495
 11
-49.852
 21
80.422495
  0
POINT
  8
寸法
 62
     0
 10
-49.852
 20
80.422495
  0
TEXT
  7
TextStyle03
  8
寸法
  6
CONTINUOUS
 62
     0
 10
-64.8375
 20
80.775
  1
750
 40
3.0
 72
     5
 11
-59.9625
 21
80.775
  0
ENDBLK
  0
BLOCK
  2
*DIM_0019
 70
    65
 10
0.0
 20
0.0
  0
LINE
  8
寸法
  6
BYBLOCK
 62
     0
 10
-24.852
 20
51.314422
 11
-24.852
 21
80.422495
  0
LINE
  8
寸法
  6
BYBLOCK
 62
     0
 10
-49.852
 20
80.422495
 11
-24.852
 21
80.422495
  0
POINT
  8
寸法
 62
     0
 10
-24.852
 20
80.422495
  0
TEXT
  7
TextStyle03
  8
寸法
  6
CONTINUOUS
 62
     0
 10
-39.8375
 20
80.775
  1
750
 40
3.0
 72
     5
 11
-34.9625
 21
80.775
  0
ENDBLK
  0
BLOCK
  2
*DIM_0020
 70
    65
 10
0.0
 20
0.0
  0
LINE
  8
寸法
  6
BYBLOCK
 62
     0
 10
0.148
 20
51.314422
 11
0.148
 21
80.422495
  0
LINE
  8
寸法
  6
BYBLOCK
 62
     0
 10
-24.852
 20
80.422495
 11
0.148
 21
80.422495
  0
POINT
  8
寸法
 62
     0
 10
0.148
 20
80.422495
  0
TEXT
  7
TextStyle03
  8
寸法
  6
CONTINUOUS
 62
     0
 10
-14.8375
 20
80.775
  1
750
 40
3.0
 72
     5
 11
-9.9625
 21
80.775
  0
ENDBLK
  0
BLOCK
  2
*DIM_0021
 70
    65
 10
0.0
 20
0.0
  0
LINE
  8
寸法
  6
BYBLOCK
 62
     0
 10
25.148
 20
51.314422
 11
25.148
 21
80.422495
  0
LINE
  8
寸法
  6
BYBLOCK
 62
     0
 10
0.148
 20
80.422495
 11
25.148
 21
80.422495
  0
POINT
  8
寸法
 62
     0
 10
25.148
 20
80.422495
  0
TEXT
  7
TextStyle03
  8
寸法
  6
CONTINUOUS
 62
     0
 10
10.1625
 20
80.775
  1
750
 40
3.0
 72
     5
 11
15.0375
 21
80.775
  0
ENDBLK
  0
BLOCK
  2
*DIM_0022
 70
    65
 10
0.0
 20
0.0
  0
LINE
  8
寸法
  6
BYBLOCK
 62
     0
 10
50.148
 20
51.314422
 11
50.148
 21
80.422495
  0
LINE
  8
寸法
  6
BYBLOCK
 62
     0
 10
25.148
 20
80.422495
 11
50.148
 21
80.422495
  0
POINT
  8
寸法
 62
     0
 10
50.148
 20
80.422495
  0
TEXT
  7
TextStyle03
  8
寸法
  6
CONTINUOUS
 62
     0
 10
35.1625
 20
80.775
  1
750
 40
3.0
 72
     5
 11
40.0375
 21
80.775
  0
ENDBLK
  0
BLOCK
  2
*DIM_0023
 70
    65
 10
0.0
 20
0.0
  0
LINE
  8
寸法
  6
CONTINUOUS
 10
128.74705
 20
-46.336522
 11
128.74705
 21
-39.948412
  0
LINE
  8
寸法
  6
CONTINUOUS
 10
160.960383
 20
-46.336522
 11
160.960383
 21
-39.948412
  0
LINE
  8
寸法
  6
CONTINUOUS
 10
128.74705
 20
-39.948412
 11
160.960383
 21
-39.948412
  0
POINT
  8
寸法
 10
128.74705
 20
-39.948412
  0
POINT
  8
寸法
 10
160.960383
 20
-39.948412
  0
TEXT
  7
TextStyle03
  8
寸法
  6
CONTINUOUS
 10
140.7
 20
-39.575
  1
966.4
 40
3.0
 72
     5
 11
148.95
 21
-39.575
  0
ENDBLK
  0
BLOCK
  2
*DIM_0024
 70
    65
 10
0.0
 20
0.0
  0
LINE
  8
寸法
  6
CONTINUOUS
 10
165.960383
 20
-51.336522
 11
174.9415
 21
-51.336522
  0
LINE
  8
寸法
  6
CONTINUOUS
 10
165.960383
 20
-80.669858
 11
174.9415
 21
-80.669858
  0
LINE
  8
寸法
  6
CONTINUOUS
 10
174.9415
 20
-51.336522
 11
174.9415
 21
-80.669858
  0
POINT
  8
寸法
 10
174.9415
 20
-51.336522
  0
POINT
  8
寸法
 10
174.9415
 20
-80.669858
  0
TEXT
  7
TextStyle03
  8
寸法
  6
CONTINUOUS
 10
174.525
 20
-68.4375
  1
880
 40
3.0
 50
90.0
 72
     5
 11
174.525
 21
-63.5625
  0
ENDBLK
  0
ENDSEC
  0
SECTION
  2
ENTITIES
  0
POLYLINE
  8
通り芯
  6
CONTINUOUS
 66
     1
 70
     1
  0
VERTEX
  8
通り芯
 10
-210.0
 20
-148.5
  0
VERTEX
  8
通り芯
 10
210.0
 20
-148.5
  0
VERTEX
  8
通り芯
 10
210.0
 20
148.5
  0
VERTEX
  8
通り芯
 10
-210.0
 20
148.5
  0
SEQEND
  0
INSERT
  2
*GRP_0001
  8
型材断面
  6
CONTINUOUS
 10
0.0
 20
0.0
  0
LINE
  8
型材断面
  6
CONTINUOUS
 10
172.08993
 20
16.157608
 11
171.63993
 21
16.157608
  0
LINE
  8
型材断面
  6
CONTINUOUS
 62
    47
 10
171.63993
 20
15.707608
 11
171.13993
 21
15.707608
  0
LINE
  8
型材断面
  6
CONTINUOUS
 62
    47
 10
170.344312
 20
18.264423
 11
171.13993
 21
15.707608
  0
LINE
  8
型材断面
  6
CONTINUOUS
 10
171.63993
 20
16.157608
 11
171.63993
 21
15.707608
  0
LINE
  8
型材断面
  6
CONTINUOUS
 10
169.256765
 20
16.647758
 11
169.256762
 21
16.697758
  0
LINE
  8
型材断面
  6
CONTINUOUS
 10
169.256765
 20
16.647758
 11
168.42343
 21
16.647758
  0
LINE
  8
型材断面
  6
CONTINUOUS
 10
167.923432
 20
18.314422
 11
168.42343
 21
18.314422
  0
LINE
  8
型材断面
  6
CONTINUOUS
 10
168.42343
 20
16.647758
 11
168.42343
 21
18.314422
  0
INSERT
  2
*GRP_0002
  8
型材断面
  6
CONTINUOUS
 10
0.0
 20
0.0
  0
LINE
  8
型材断面
  6
CONTINUOUS
 10
169.256762
 20
18.264423
 11
170.344312
 21
18.264423
  0
LINE
  8
型材断面
  6
CONTINUOUS
 10
172.08993
 20
50.471235
 11
171.63993
 21
50.471235
  0
LINE
  8
型材断面
  6
CONTINUOUS
 62
    47
 10
171.63993
 20
50.921235
 11
171.13993
 21
50.921235
  0
LINE
  8
型材断面
  6
CONTINUOUS
 62
    47
 10
170.344312
 20
48.364423
 11
171.13993
 21
50.921235
  0
LINE
  8
型材断面
  6
CONTINUOUS
 10
171.63993
 20
50.471235
 11
171.63993
 21
50.921235
  0
LINE
  8
型材断面
  6
CONTINUOUS
 10
169.256765
 20
49.981085
 11
169.256762
 21
49.931085
  0
LINE
  8
型材断面
  6
CONTINUOUS
 10
169.256765
 20
49.981085
 11
168.42343
 21
49.981085
  0
LINE
  8
型材断面
  6
CONTINUOUS
 10
167.923432
 20
48.314422
 11
168.42343
 21
48.314422
  0
LINE
  8
型材断面
  6
CONTINUOUS
 10
168.42343
 20
49.981085
 11
168.42343
 21
48.314422
  0
INSERT
  2
*GRP_0003
  8
型材断面
  6
CONTINUOUS
 10
0.0
 20
0.0
  0
LINE
  8
型材断面
  6
CONTINUOUS
 10
169.256762
 20
48.364423
 11
170.344312
 21
48.364423
  0
LINE
  8
型材断面
  6
DASHDOT
 10
-24.852002
 20
-86.575325
 11
-24.852002
 21
48.314422
  0
LINE
  8
型材断面
  6
CONTINUOUS
 10
171.63993
 20
50.921235
 11
171.63993
 21
15.707608
  0
LINE
  8
型材断面
  6
CONTINUOUS
 10
171.13993
 20
50.921235
 11
171.13993
 21
15.707608
  0
LINE
  8
型材断面
  6
CONTINUOUS
 10
170.344312
 20
18.264423
 11
170.344312
 21
48.364423
  0
LINE
  8
型材断面
  6
CONTINUOUS
 10
172.08993
 20
16.157608
 11
172.08993
 21
50.471235
  0
LINE
  8
型材断面
  6
CONTINUOUS
 10
167.92343
 20
18.314422
 11
167.92343
 21
48.314422
  0
LINE
  8
型材断面
  6
CONTINUOUS
 10
169.256762
 20
16.647758
 11
169.256762
 21
49.981085
  0
LINE
  8
型材断面
  6
CONTINUOUS
 10
168.42343
 20
16.647758
 11
168.42343
 21
49.981085
  0
LINE
  8
型材断面
  6
CONTINUOUS
 10
60.638142
 20
-84.960843
 11
60.638142
 21
-84.510843
  0
LINE
  8
型材断面
  6
CONTINUOUS
 62
    47
 10
61.088142
 20
-84.510843
 11
61.088142
 21
-84.010843
  0
LINE
  8
型材断面
  6
CONTINUOUS
 62
    47
 10
58.531328
 20
-83.215225
 11
61.088142
 21
-84.010843
  0
LINE
  8
型材断面
  6
CONTINUOUS
 10
60.638142
 20
-84.510843
 11
61.088142
 21
-84.510843
  0
LINE
  8
型材断面
  6
CONTINUOUS
 10
60.147992
 20
-82.127678
 11
60.097992
 21
-82.127675
  0
LINE
  8
型材断面
  6
CONTINUOUS
 10
60.147992
 20
-82.127678
 11
60.147992
 21
-81.294343
  0
LINE
  8
型材断面
  6
CONTINUOUS
 10
58.481328
 20
-80.794345
 11
58.481328
 21
-81.294343
  0
LINE
  8
型材断面
  6
CONTINUOUS
 10
60.147992
 20
-81.294343
 11
58.481328
 21
-81.294343
  0
INSERT
  2
*GRP_0004
  8
型材断面
  6
CONTINUOUS
 10
0.0
 20
0.0
  0
LINE
  8
型材断面
  6
CONTINUOUS
 10
58.531328
 20
-82.127675
 11
58.531328
 21
-83.215225
  0
LINE
  8
型材断面
  6
CONTINUOUS
 10
57.647995
 20
32.897755
 11
58.481328
 21
32.897755
  0
LINE
  8
型材断面
  6
CONTINUOUS
 10
57.647995
 20
33.731087
 11
58.481328
 21
33.731087
  0
LINE
  8
型材断面
  6
DASHDOT
 10
58.481328
 20
-86.575325
 11
58.481328
 21
18.314422
  0
LINE
  8
型材断面
  6
DASHDOT
 10
173.704413
 20
18.314422
 11
58.481328
 21
18.314422
  0
LINE
  8
型材断面
  6
CONTINUOUS
 10
58.481328
 20
18.314422
 11
58.481328
 21
33.314422
  0
LINE
  8
型材断面
  6
CONTINUOUS
 10
57.647995
 20
32.897755
 11
57.647995
 21
19.147755
  0
LINE
  8
型材断面
  6
CONTINUOUS
 10
61.088142
 20
15.707608
 11
57.647995
 21
19.147755
  0
LINE
  8
型材断面
  6
DASHDOT
 10
173.704413
 20
48.314422
 11
58.481328
 21
48.314422
  0
LINE
  8
型材断面
  6
CONTINUOUS
 10
58.481328
 20
48.314422
 11
58.481328
 21
33.314422
  0
LINE
  8
型材断面
  6
CONTINUOUS
 10
61.088142
 20
50.921235
 11
57.647995
 21
47.48109
  0
LINE
  8
型材断面
  6
CONTINUOUS
 10
57.647995
 20
33.731087
 11
57.647995
 21
47.48109
  0
LINE
  8
型材断面
  6
CONTINUOUS
 10
61.088142
 20
15.707608
 11
61.088142
 21
50.921235
  0
LINE
  8
型材断面
  6
CONTINUOUS
 10
60.147992
 20
16.647758
 11
60.147992
 21
49.981085
  0
LINE
  8
型材断面
  6
CONTINUOUS
 10
-110.342143
 20
-84.960843
 11
-110.342143
 21
-84.510843
  0
LINE
  8
型材断面
  6
CONTINUOUS
 62
    47
 10
-110.792143
 20
-84.510843
 11
-110.792143
 21
-84.010843
  0
LINE
  8
型材断面
  6
CONTINUOUS
 62
    47
 10
-108.23533
 20
-83.215225
 11
-110.792143
 21
-84.010843
  0
LINE
  8
型材断面
  6
CONTINUOUS
 10
-110.342143
 20
-84.510843
 11
-110.792143
 21
-84.510843
  0
LINE
  8
型材断面
  6
CONTINUOUS
 10
-109.851992
 20
-82.127678
 11
-109.801992
 21
-82.127675
  0
LINE
  8
型材断面
  6
CONTINUOUS
 10
-109.851992
 20
-82.127678
 11
-109.851992
 21
-81.294343
  0
LINE
  8
型材断面
  6
CONTINUOUS
 10
-108.18533
 20
-80.794345
 11
-108.18533
 21
-81.294343
  0
LINE
  8
型材断面
  6
CONTINUOUS
 10
-109.851992
 20
-81.294343
 11
-108.18533
 21
-81.294343
  0
INSERT
  2
*GRP_0005
  8
型材断面
  6
CONTINUOUS
 10
0.0
 20
0.0
  0
LINE
  8
型材断面
  6
CONTINUOUS
 10
-108.23533
 20
-82.127675
 11
-108.23533
 21
-83.215225
  0
LINE
  8
型材断面
  6
DASHDOT
 10
173.704413
 20
33.314422
 11
-108.18533
 21
33.314422
  0
LINE
  8
型材断面
  6
CONTINUOUS
 10
-107.351998
 20
32.897755
 11
-108.18533
 21
32.897755
  0
LINE
  8
型材断面
  6
CONTINUOUS
 10
-107.351998
 20
33.731087
 11
-108.18533
 21
33.731087
  0
LINE
  8
型材断面
  6
DASHDOT
 10
-108.18533
 20
-86.575325
 11
-108.18533
 21
18.314422
  0
LINE
  8
型材断面
  6
CONTINUOUS
 10
-108.18533
 20
18.314422
 11
-108.18533
 21
33.314422
  0
LINE
  8
型材断面
  6
CONTINUOUS
 10
-107.351998
 20
32.897755
 11
-107.351998
 21
19.147755
  0
LINE
  8
型材断面
  6
CONTINUOUS
 10
-110.792143
 20
15.707608
 11
-107.351998
 21
19.147755
  0
LINE
  8
型材断面
  6
CONTINUOUS
 10
-108.18533
 20
48.314422
 11
-108.18533
 21
33.314422
  0
LINE
  8
型材断面
  6
CONTINUOUS
 10
-107.351998
 20
33.731087
 11
-107.351998
 21
47.48109
  0
LINE
  8
型材断面
  6
CONTINUOUS
 10
-110.792143
 20
50.921235
 11
-107.351998
 21
47.48109
  0
LINE
  8
型材断面
  6
CONTINUOUS
 10
-109.851992
 20
49.981085
 11
-109.851992
 21
16.647758
  0
LINE
  8
型材断面
  6
CONTINUOUS
 10
-110.792143
 20
50.921235
 11
-110.792143
 21
15.707608
  0
LINE
  8
型材断面
  6
CONTINUOUS
 10
-110.792143
 20
-84.510843
 11
61.088142
 21
-84.510843
  0
LINE
  8
型材断面
  6
CONTINUOUS
 10
-110.792143
 20
-84.010843
 11
61.088142
 21
-84.010843
  0
LINE
  8
型材断面
  6
CONTINUOUS
 10
58.531328
 20
-83.215225
 11
-108.23533
 21
-83.215225
  0
LINE
  8
型材断面
  6
CONTINUOUS
 10
60.638142
 20
-84.960843
 11
-110.342143
 21
-84.960843
  0
LINE
  8
型材断面
  6
CONTINUOUS
 10
58.481328
 20
-80.794343
 11
-108.18533
 21
-80.794343
  0
LINE
  8
型材断面
  6
CONTINUOUS
 10
60.147992
 20
-82.127675
 11
-109.851992
 21
-82.127675
  0
LINE
  8
型材断面
  6
CONTINUOUS
 10
60.147992
 20
-81.294343
 11
-109.851992
 21
-81.294343
  0
LINE
  8
型材断面
  6
CONTINUOUS
 10
60.147992
 20
16.647758
 11
-109.851992
 21
16.647758
  0
LINE
  8
型材断面
  6
CONTINUOUS
 10
61.088142
 20
15.707608
 11
-110.792143
 21
15.707608
  0
LINE
  8
型材断面
  6
CONTINUOUS
 10
58.481328
 20
18.314422
 11
-108.18533
 21
18.314422
  0
LINE
  8
型材断面
  6
CONTINUOUS
 10
60.147992
 20
49.981085
 11
-109.851992
 21
49.981085
  0
LINE
  8
型材断面
  6
CONTINUOUS
 10
61.088142
 20
50.921235
 11
-110.792143
 21
50.921235
  0
LINE
  8
型材断面
  6
CONTINUOUS
 10
58.481328
 20
48.314422
 11
-108.18533
 21
48.314422
  0
LINE
  8
型材断面
  6
CONTINUOUS
 10
-91.186997
 20
18.314422
 11
-91.186997
 21
19.147755
  0
LINE
  8
型材断面
  6
CONTINUOUS
 10
-92.020333
 20
18.314422
 11
-92.020333
 21
19.147755
  0
LINE
  8
型材断面
  6
DASHDOT
 10
-75.021997
 20
18.314422
 11
-75.021997
 21
48.314422
  0
LINE
  8
型材断面
  6
DASHDOT
 10
-41.57533
 20
18.314422
 11
-41.57533
 21
48.314422
  0
LINE
  8
型材断面
  6
DASHDOT
 10
-8.128675
 20
18.314422
 11
-8.128675
 21
48.314422
  0
LINE
  8
型材断面
  6
DASHDOT
 10
25.317993
 20
18.314422
 11
25.317993
 21
48.314422
  0
LINE
  8
型材断面
  6
CONTINUOUS
 10
-25.26867
 20
19.147755
 11
-25.26867
 21
18.314422
  0
LINE
  8
型材断面
  6
CONTINUOUS
 10
-24.435335
 20
19.147755
 11
-24.435335
 21
18.314422
  0
LINE
  8
型材断面
  6
CONTINUOUS
 10
-58.715333
 20
19.147755
 11
-58.715333
 21
18.314422
  0
LINE
  8
型材断面
  6
CONTINUOUS
 10
-57.881998
 20
19.147755
 11
-57.881998
 21
18.314422
  0
LINE
  8
型材断面
  6
CONTINUOUS
 10
-91.518667
 20
50.944552
 11
-93.014297
 21
53.53506
  0
LINE
  8
型材断面
  6
CONTINUOUS
 10
-91.518667
 20
50.944552
 11
-90.023038
 21
53.53506
  0
LINE
  8
型材断面
  6
CONTINUOUS
 10
-90.023038
 20
53.53506
 11
-93.014297
 21
53.53506
  0
LINE
  8
型材断面
  6
CONTINUOUS
 10
-149.037543
 20
92.82177
 11
-150.533173
 21
90.231263
  0
LINE
  8
型材断面
  6
CONTINUOUS
 10
-149.037543
 20
92.82177
 11
-147.541913
 21
90.231263
  0
LINE
  8
型材断面
  6
CONTINUOUS
 10
-147.541913
 20
90.231263
 11
-150.533173
 21
90.231263
  0
LINE
  8
型材断面
  6
CONTINUOUS
 10
-155.06013
 20
89.292668
 11
-108.818353
 21
89.292668
  0
LINE
  8
型材断面
  6
CONTINUOUS
 10
-110.815465
 20
33.314422
 11
-113.405973
 21
34.810052
  0
LINE
  8
型材断面
  6
CONTINUOUS
 10
-110.815465
 20
33.314422
 11
-113.405973
 21
31.818793
  0
LINE
  8
型材断面
  6
CONTINUOUS
 10
-113.405973
 20
31.818793
 11
-113.405973
 21
34.810052
  0
LINE
  8
型材断面
  6
CONTINUOUS
 10
-91.518667
 20
15.684293
 11
-93.014297
 21
13.093785
  0
LINE
  8
型材断面
  6
CONTINUOUS
 10
-91.518667
 20
15.684293
 11
-90.023038
 21
13.093785
  0
LINE
  8
型材断面
  6
CONTINUOUS
 10
-90.023038
 20
13.093785
 11
-93.014297
 21
13.093785
  0
LINE
  8
型材断面
  6
CONTINUOUS
 10
41.814662
 20
50.944552
 11
43.310292
 21
53.53506
  0
LINE
  8
型材断面
  6
CONTINUOUS
 10
41.814662
 20
50.944552
 11
40.319032
 21
53.53506
  0
LINE
  8
型材断面
  6
CONTINUOUS
 10
40.319032
 20
53.53506
 11
43.310292
 21
53.53506
  0
LINE
  8
型材断面
  6
CONTINUOUS
 10
61.11146
 20
33.314422
 11
63.701967
 21
34.810052
  0
LINE
  8
型材断面
  6
CONTINUOUS
 10
61.11146
 20
33.314422
 11
63.701967
 21
31.818793
  0
LINE
  8
型材断面
  6
CONTINUOUS
 10
63.701967
 20
31.818793
 11
63.701967
 21
34.810052
  0
LINE
  8
型材断面
  6
CONTINUOUS
 10
41.814662
 20
15.684293
 11
43.310292
 21
13.093785
  0
LINE
  8
型材断面
  6
CONTINUOUS
 10
41.814662
 20
15.684293
 11
40.319032
 21
13.093785
  0
LINE
  8
型材断面
  6
CONTINUOUS
 10
40.319032
 20
13.093785
 11
43.310292
 21
13.093785
  0
LINE
  8
型材断面
  6
CONTINUOUS
 10
-24.852002
 20
50.94455
 11
-23.356372
 21
53.535058
  0
LINE
  8
型材断面
  6
CONTINUOUS
 10
-24.852002
 20
50.94455
 11
-26.347632
 21
53.535058
  0
LINE
  8
型材断面
  6
CONTINUOUS
 10
-26.347632
 20
53.535058
 11
-23.356372
 21
53.535058
  0
LINE
  8
型材断面
  6
CONTINUOUS
 10
-24.852002
 20
15.68429
 11
-23.356372
 21
13.093783
  0
LINE
  8
型材断面
  6
CONTINUOUS
 10
-24.852002
 20
15.68429
 11
-26.347632
 21
13.093783
  0
LINE
  8
型材断面
  6
CONTINUOUS
 10
-26.347632
 20
13.093783
 11
-23.356372
 21
13.093783
  0
LINE
  8
型材断面
  6
CONTINUOUS
 10
-155.06013
 20
83.379463
 11
-108.818353
 21
83.379463
  0
LINE
  8
型材断面
  6
CONTINUOUS
 10
-92.020333
 20
19.147755
 11
-107.351998
 21
19.147755
  0
LINE
  8
型材断面
  6
CONTINUOUS
 10
-58.715333
 20
19.147755
 11
-91.186997
 21
19.147755
  0
LINE
  8
型材断面
  6
CONTINUOUS
 10
-25.26867
 20
19.147755
 11
-57.881998
 21
19.147755
  0
LINE
  8
型材断面
  6
CONTINUOUS
 10
41.482993
 20
18.314422
 11
41.482993
 21
19.147755
  0
LINE
  8
型材断面
  6
CONTINUOUS
 10
42.316328
 20
18.314422
 11
42.316328
 21
19.147755
  0
LINE
  8
型材断面
  6
CONTINUOUS
 10
9.011327
 20
19.147755
 11
9.011327
 21
18.314422
  0
LINE
  8
型材断面
  6
CONTINUOUS
 10
8.177993
 20
19.147755
 11
8.177993
 21
18.314422
  0
LINE
  8
型材断面
  6
CONTINUOUS
 10
42.316328
 20
19.147755
 11
57.647992
 21
19.147755
  0
LINE
  8
型材断面
  6
CONTINUOUS
 10
9.011327
 20
19.147755
 11
41.482993
 21
19.147755
  0
LINE
  8
型材断面
  6
CONTINUOUS
 10
-24.435335
 20
19.147755
 11
8.177993
 21
19.147755
  0
LINE
  8
型材断面
  6
CONTINUOUS
 10
-91.186997
 20
48.314422
 11
-91.186997
 21
47.48109
  0
LINE
  8
型材断面
  6
CONTINUOUS
 10
-92.020333
 20
48.314422
 11
-92.020333
 21
47.48109
  0
LINE
  8
型材断面
  6
CONTINUOUS
 10
-25.26867
 20
47.48109
 11
-25.26867
 21
48.314422
  0
LINE
  8
型材断面
  6
CONTINUOUS
 10
-24.435335
 20
47.48109
 11
-24.435335
 21
48.314422
  0
LINE
  8
型材断面
  6
CONTINUOUS
 10
-58.715333
 20
47.48109
 11
-58.715333
 21
48.314422
  0
LINE
  8
型材断面
  6
CONTINUOUS
 10
-57.881998
 20
47.48109
 11
-57.881998
 21
48.314422
  0
LINE
  8
型材断面
  6
CONTINUOUS
 10
-92.020333
 20
47.48109
 11
-107.351998
 21
47.48109
  0
LINE
  8
型材断面
  6
CONTINUOUS
 10
-58.715333
 20
47.48109
 11
-91.186997
 21
47.48109
  0
LINE
  8
型材断面
  6
CONTINUOUS
 10
-25.26867
 20
47.48109
 11
-57.881998
 21
47.48109
  0
LINE
  8
型材断面
  6
CONTINUOUS
 10
41.482993
 20
48.314422
 11
41.482993
 21
47.48109
  0
LINE
  8
型材断面
  6
CONTINUOUS
 10
42.316328
 20
48.314422
 11
42.316328
 21
47.48109
  0
LINE
  8
型材断面
  6
CONTINUOUS
 10
9.011327
 20
47.48109
 11
9.011327
 21
48.314422
  0
LINE
  8
型材断面
  6
CONTINUOUS
 10
8.177993
 20
47.48109
 11
8.177993
 21
48.314422
  0
LINE
  8
型材断面
  6
CONTINUOUS
 10
42.316328
 20
47.48109
 11
57.647992
 21
47.48109
  0
LINE
  8
型材断面
  6
CONTINUOUS
 10
9.011327
 20
47.48109
 11
41.482993
 21
47.48109
  0
LINE
  8
型材断面
  6
CONTINUOUS
 10
-24.435335
 20
47.48109
 11
8.177993
 21
47.48109
  0
LINE
  8
型材断面
  6
CONTINUOUS
 10
-73.938698
 20
19.981087
 11
-76.10533
 21
19.981087
  0
LINE
  8
型材断面
  6
CONTINUOUS
 10
-73.938698
 20
46.647758
 11
-76.10533
 21
46.647758
  0
LINE
  8
型材断面
  6
CONTINUOUS
 10
-73.938698
 20
19.981087
 11
-73.938698
 21
46.647758
  0
LINE
  8
型材断面
  6
CONTINUOUS
 10
-74.77203
 20
19.981087
 11
-74.77203
 21
46.647758
  0
LINE
  8
型材断面
  6
CONTINUOUS
 10
-75.271997
 20
19.981087
 11
-75.271997
 21
46.647758
  0
LINE
  8
型材断面
  6
CONTINUOUS
 10
-76.10533
 20
19.971393
 11
-76.10533
 21
46.647758
  0
LINE
  8
型材断面
  6
CONTINUOUS
 10
-40.49203
 20
19.981087
 11
-42.658662
 21
19.981087
  0
LINE
  8
型材断面
  6
CONTINUOUS
 10
-40.49203
 20
46.647758
 11
-42.658662
 21
46.647758
  0
LINE
  8
型材断面
  6
CONTINUOUS
 10
-40.49203
 20
19.981087
 11
-40.49203
 21
46.647758
  0
LINE
  8
型材断面
  6
CONTINUOUS
 10
-41.325363
 20
19.981087
 11
-41.325363
 21
46.647758
  0
LINE
  8
型材断面
  6
CONTINUOUS
 10
-41.82533
 20
19.981087
 11
-41.82533
 21
46.647758
  0
LINE
  8
型材断面
  6
CONTINUOUS
 10
-42.658662
 20
19.971393
 11
-42.658662
 21
46.647758
  0
LINE
  8
型材断面
  6
CONTINUOUS
 10
24.234692
 20
19.981087
 11
26.401325
 21
19.981087
  0
LINE
  8
型材断面
  6
CONTINUOUS
 10
24.234692
 20
46.647758
 11
26.401325
 21
46.647758
  0
LINE
  8
型材断面
  6
CONTINUOUS
 10
24.234692
 20
19.981087
 11
24.234692
 21
46.647758
  0
LINE
  8
型材断面
  6
CONTINUOUS
 10
25.068025
 20
19.981087
 11
25.068025
 21
46.647758
  0
LINE
  8
型材断面
  6
CONTINUOUS
 10
25.567993
 20
19.981087
 11
25.567993
 21
46.647758
  0
LINE
  8
型材断面
  6
CONTINUOUS
 10
26.401325
 20
19.971393
 11
26.401325
 21
46.647758
  0
LINE
  8
型材断面
  6
CONTINUOUS
 10
-9.211975
 20
19.981087
 11
-7.045342
 21
19.981087
  0
LINE
  8
型材断面
  6
CONTINUOUS
 10
-9.211975
 20
46.647758
 11
-7.045342
 21
46.647758
  0
LINE
  8
型材断面
  6
CONTINUOUS
 10
-9.211975
 20
19.981087
 11
-9.211975
 21
46.647758
  0
LINE
  8
型材断面
  6
CONTINUOUS
 10
-8.378643
 20
19.981087
 11
-8.378643
 21
46.647758
  0
LINE
  8
型材断面
  6
CONTINUOUS
 10
-7.878675
 20
19.981087
 11
-7.878675
 21
46.647758
  0
LINE
  8
型材断面
  6
CONTINUOUS
 10
-7.045342
 20
19.971393
 11
-7.045342
 21
46.647758
  0
LINE
  8
型材断面
  6
CONTINUOUS
 10
127.36911
 20
-34.12298
 11
148.506685
 21
-34.12298
  0
POLYLINE
  8
ガラス
  6
CONTINUOUS
 66
     1
 70
     1
  0
VERTEX
  8
ガラス
 10
160.960383
 20
-51.336522
  0
VERTEX
  8
ガラス
 10
128.74705
 20
-51.336522
  0
VERTEX
  8
ガラス
 10
128.74705
 20
-80.669858
  0
VERTEX
  8
ガラス
 10
160.960383
 20
-80.669858
  0
SEQEND
  0
TEXT
  7
TextStyle03
  8
文字
  6
CONTINUOUS
 10
78.1
 20
125.25
  1
シリーズ：ＳＴＦＦＫＬ
 40
5.0
 72
     5
 11
139.35
 21
125.25
  0
TEXT
  7
TextStyle03
  8
文字
  6
CONTINUOUS
 10
78.1
 20
119.625
  1
　　　　　（固定）900×5000タイプ
 40
5.0
 72
     5
 11
170.2875
 21
119.625
  0
TEXT
  7
TextStyle03
  8
文字
  6
CONTINUOUS
 10
78.1
 20
114.0
  1
図面名　：外観姿図
 40
5.0
 72
     5
 11
128.1
 21
114.0
  0
TEXT
  7
TextStyle03
  8
文字
  6
CONTINUOUS
 10
78.1
 20
108.375
  1
　　　　　　
 40
5.0
 72
     5
 11
111.225
 21
108.375
  0
TEXT
  7
TextStyle03
  8
文字
  6
CONTINUOUS
 10
-146.25
 20
90.425
  1
は排水穴位置を示す
 40
3.0
 72
     5
 11
-116.25
 21
90.425
  0
TEXT
  7
TextStyle03
  8
文字
  6
CONTINUOUS
 10
-129.2
 20
11.775
  1
アンカーピッチ
 40
3.0
 50
90.0
 72
     5
 11
-129.2
 21
35.025
  0
TEXT
  7
TextStyle03
  8
文字
  6
CONTINUOUS
 10
-97.475
 20
85.75
  1
アンカーピッチ
 40
3.0
 72
     5
 11
-74.225
 21
85.75
  0
TEXT
  7
TextStyle03
  8
文字
  6
CONTINUOUS
 10
-149.975
 20
84.275
  1
アンカー数量　１８ヶ所
 40
3.0
 72
     5
 11
-113.225
 21
84.275
  0
TEXT
  7
TextStyle03
  8
文字
  6
CONTINUOUS
 10
148.05
 20
-77.7
  1
×５枚
 40
3.0
 72
     5
 11
157.8
 21
-77.7
  0
TEXT
  7
TextStyle03
  8
文字
  6
CONTINUOUS
 10
129.4
 20
-32.65
  1
ガラス寸法
 40
3.0
 72
     5
 11
145.9
 21
-32.65
  0
INSERT
  2
*DIM_0006
  8
寸法
  6
CONTINUOUS
 10
0.0
 20
0.0
  0
INSERT
  2
*DIM_0007
  8
寸法
  6
CONTINUOUS
 10
0.0
 20
0.0
  0
INSERT
  2
*DIM_0008
  8
寸法
  6
CONTINUOUS
 10
0.0
 20
0.0
  0
INSERT
  2
*DIM_0009
  8
寸法
  6
CONTINUOUS
 10
0.0
 20
0.0
  0
INSERT
  2
*DIM_0010
  8
寸法
  6
CONTINUOUS
 10
0.0
 20
0.0
  0
INSERT
  2
*DIM_0011
  8
寸法
  6
CONTINUOUS
 10
0.0
 20
0.0
  0
INSERT
  2
*DIM_0012
  8
寸法
  6
CONTINUOUS
 10
0.0
 20
0.0
  0
INSERT
  2
*DIM_0013
  8
寸法
  6
CONTINUOUS
 10
0.0
 20
0.0
  0
INSERT
  2
*DIM_0014
  8
寸法
  6
CONTINUOUS
 10
0.0
 20
0.0
  0
INSERT
  2
*DIM_0015
  8
寸法
  6
CONTINUOUS
 10
0.0
 20
0.0
  0
INSERT
  2
*DIM_0016
  8
寸法
  6
CONTINUOUS
 10
0.0
 20
0.0
  0
INSERT
  2
*DIM_0017
  8
寸法
  6
CONTINUOUS
 10
0.0
 20
0.0
  0
INSERT
  2
*DIM_0018
  8
寸法
  6
CONTINUOUS
 10
0.0
 20
0.0
  0
INSERT
  2
*DIM_0019
  8
寸法
  6
CONTINUOUS
 10
0.0
 20
0.0
  0
INSERT
  2
*DIM_0020
  8
寸法
  6
CONTINUOUS
 10
0.0
 20
0.0
  0
INSERT
  2
*DIM_0021
  8
寸法
  6
CONTINUOUS
 10
0.0
 20
0.0
  0
INSERT
  2
*DIM_0022
  8
寸法
  6
CONTINUOUS
 10
0.0
 20
0.0
  0
INSERT
  2
*DIM_0023
  8
寸法
  6
CONTINUOUS
 10
0.0
 20
0.0
  0
INSERT
  2
*DIM_0024
  8
寸法
  6
CONTINUOUS
 10
0.0
 20
0.0
  0
LINE
  8
曲げ物
  6
CONTINUOUS
 10
-23.049245
 20
35.11718
 11
-26.744557
 21
31.421868
  0
LINE
  8
曲げ物
  6
CONTINUOUS
 10
-23.752715
 20
33.58107
 11
-25.208445
 21
32.12534
  0
LINE
  8
曲げ物
  6
CONTINUOUS
 10
-24.585355
 20
34.41371
 11
-26.041085
 21
32.95798
  0
LINE
  8
曲げ物
  6
CONTINUOUS
 10
10.29743
 20
35.11718
 11
6.602117
 21
31.421868
  0
LINE
  8
曲げ物
  6
CONTINUOUS
 10
9.59396
 20
33.58107
 11
8.13823
 21
32.12534
  0
LINE
  8
曲げ物
  6
CONTINUOUS
 10
8.76132
 20
34.41371
 11
7.30559
 21
32.95798
  0
LINE
  8
曲げ物
  6
CONTINUOUS
 10
43.677427
 20
35.11718
 11
39.982115
 21
31.421868
  0
LINE
  8
曲げ物
  6
CONTINUOUS
 10
42.973957
 20
33.58107
 11
41.518227
 21
32.12534
  0
LINE
  8
曲げ物
  6
CONTINUOUS
 10
42.141317
 20
34.41371
 11
40.685587
 21
32.95798
  0
LINE
  8
曲げ物
  6
CONTINUOUS
 10
-89.775918
 20
35.11718
 11
-93.47123
 21
31.421868
  0
LINE
  8
曲げ物
  6
CONTINUOUS
 10
-90.479388
 20
33.58107
 11
-91.935117
 21
32.12534
  0
LINE
  8
曲げ物
  6
CONTINUOUS
 10
-91.312028
 20
34.41371
 11
-92.767757
 21
32.95798
  0
LINE
  8
曲げ物
  6
CONTINUOUS
 10
-56.429242
 20
35.11718
 11
-60.124555
 21
31.421868
  0
LINE
  8
曲げ物
  6
CONTINUOUS
 10
-57.132712
 20
33.58107
 11
-58.588443
 21
32.12534
  0
LINE
  8
曲げ物
  6
CONTINUOUS
 10
-57.965352
 20
34.41371
 11
-59.421083
 21
32.95798
  0
LINE
  8
曲げ物
  6
CONTINUOUS
 10
-23.049245
 20
35.11718
 11
-26.744557
 21
31.421868
  0
LINE
  8
曲げ物
  6
CONTINUOUS
 10
-23.752715
 20
33.58107
 11
-25.208445
 21
32.12534
  0
LINE
  8
曲げ物
  6
CONTINUOUS
 10
-24.585355
 20
34.41371
 11
-26.041085
 21
32.95798
  0
LINE
  8
St
  6
CONTINUOUS
 62
    47
 10
171.63993
 20
16.157608
 11
171.63993
 21
15.707608
  0
LINE
  8
St
  6
CONTINUOUS
 62
    47
 10
171.63993
 20
50.471235
 11
171.63993
 21
50.921235
  0
LINE
  8
St
  6
CONTINUOUS
 62
    47
 10
60.638142
 20
-84.510843
 11
61.088142
 21
-84.510843
  0
LINE
  8
St
  6
CONTINUOUS
 62
    47
 10
-110.342143
 20
-84.510843
 11
-110.792143
 21
-84.510843
  0
ENDSEC
  0
EOF
