  0
SECTION
  2
HEADER
  9
$ACADVER
  1
AC1018
  9
$ACADMAINTVER
 70
     0
  9
$DWGCODEPAGE
  3
ANSI_932
  9
$INSBASE
 10
0.0
 20
0.0
 30
0.0
  9
$EXTMIN
 10
-210.0
 20
-148.5
 30
0.0
  9
$EXTMAX
 10
210.0
 20
148.5
 30
0.0
  9
$LIMMIN
 10
0.0
 20
0.0
  9
$LIMMAX
 10
12.0
 20
9.0
  9
$ORTHOMODE
 70
     0
  9
$REGENMODE
 70
     1
  9
$FILLMODE
 70
     1
  9
$QTEXTMODE
 70
     0
  9
$MIRRTEXT
 70
     1
  9
$LTSCALE
 40
10.0
  9
$ATTMODE
 70
     1
  9
$TEXTSIZE
 40
0.2
  9
$TRACEWID
 40
0.05
  9
$TEXTSTYLE
  7
STANDARD
  9
$CLAYER
  8
0
  9
$CELTYPE
  6
ByBlock
  9
$CECOLOR
 62
   256
  9
$CELTSCALE
 40
1.0
  9
$DISPSILH
 70
     0
  9
$DIMSCALE
 40
1.0
  9
$DIMASZ
 40
0.18
  9
$DIMEXO
 40
0.0625
  9
$DIMDLI
 40
0.38
  9
$DIMRND
 40
0.0
  9
$DIMDLE
 40
0.0
  9
$DIMEXE
 40
0.18
  9
$DIMTP
 40
0.0
  9
$DIMTM
 40
0.0
  9
$DIMTXT
 40
0.18
  9
$DIMCEN
 40
0.09
  9
$DIMTSZ
 40
0.0
  9
$DIMTOL
 70
     0
  9
$DIMLIM
 70
     0
  9
$DIMTIH
 70
     1
  9
$DIMTOH
 70
     1
  9
$DIMSE1
 70
     0
  9
$DIMSE2
 70
     0
  9
$DIMTAD
 70
     0
  9
$DIMZIN
 70
     0
  9
$DIMBLK
  1

  9
$DIMASO
 70
     1
  9
$DIMSHO
 70
     1
  9
$DIMPOST
  1

  9
$DIMAPOST
  1

  9
$DIMALT
 70
     0
  9
$DIMALTD
 70
     2
  9
$DIMALTF
 40
25.4
  9
$DIMLFAC
 40
1.0
  9
$DIMTOFL
 70
     0
  9
$DIMTVP
 40
0.0
  9
$DIMTIX
 70
     0
  9
$DIMSOXD
 70
     0
  9
$DIMSAH
 70
     0
  9
$DIMBLK1
  1

  9
$DIMBLK2
  1

  9
$DIMSTYLE
  2
Standard
  9
$DIMCLRD
 70
     0
  9
$DIMCLRE
 70
     0
  9
$DIMCLRT
 70
     0
  9
$DIMTFAC
 40
1.0
  9
$DIMGAP
 40
0.09
  9
$DIMJUST
 70
     0
  9
$DIMSD1
 70
     0
  9
$DIMSD2
 70
     0
  9
$DIMTOLJ
 70
     1
  9
$DIMTZIN
 70
     0
  9
$DIMALTZ
 70
     0
  9
$DIMALTTZ
 70
     0
  9
$DIMUPT
 70
     0
  9
$DIMDEC
 70
     4
  9
$DIMTDEC
 70
     4
  9
$DIMALTU
 70
     2
  9
$DIMALTTD
 70
     2
  9
$DIMTXSTY
  7
STANDARD
  9
$DIMAUNIT
 70
     0
  9
$DIMADEC
 70
     0
  9
$DIMALTRND
 40
0.0
  9
$DIMAZIN
 70
     0
  9
$DIMDSEP
 70
    46
  9
$DIMATFIT
 70
     3
  9
$DIMFRAC
 70
     0
  9
$DIMLDRBLK
  1

  9
$DIMLUNIT
 70
     2
  9
$DIMLWD
 70
    -2
  9
$DIMLWE
 70
    -2
  9
$DIMTMOVE
 70
     0
  9
$LUNITS
 70
     2
  9
$LUPREC
 70
     4
  9
$SKETCHINC
 40
0.1
  9
$FILLETRAD
 40
0.5
  9
$AUNITS
 70
     0
  9
$AUPREC
 70
     0
  9
$MENU
  1
.
  9
$ELEVATION
 40
0.0
  9
$PELEVATION
 40
0.0
  9
$THICKNESS
 40
0.0
  9
$LIMCHECK
 70
     0
  9
$CHAMFERA
 40
0.5
  9
$CHAMFERB
 40
0.5
  9
$CHAMFERC
 40
1.0
  9
$CHAMFERD
 40
0.0
  9
$SKPOLY
 70
     0
  9
$TDCREATE
 40
2460242.402581829
  9
$TDUCREATE
 40
2460242.027581829
  9
$TDUPDATE
 40
2460242.40258184
  9
$TDUUPDATE
 40
2460242.02758184
  9
$TDINDWG
 40
0.0000000116
  9
$TDUSRTIMER
 40
0.0000000116
  9
$USRTIMER
 70
     1
  9
$ANGBASE
 50
0.0
  9
$ANGDIR
 70
     0
  9
$PDMODE
 70
    32
  9
$PDSIZE
 40
1.5
  9
$PLINEWID
 40
0.0
  9
$SPLFRAME
 70
     0
  9
$SPLINETYPE
 70
     6
  9
$SPLINESEGS
 70
     8
  9
$HANDSEED
  5
349
  9
$SURFTAB1
 70
     6
  9
$SURFTAB2
 70
     6
  9
$SURFTYPE
 70
     6
  9
$SURFU
 70
     6
  9
$SURFV
 70
     6
  9
$UCSBASE
  2

  9
$UCSNAME
  2

  9
$UCSORG
 10
0.0
 20
0.0
 30
0.0
  9
$UCSXDIR
 10
1.0
 20
0.0
 30
0.0
  9
$UCSYDIR
 10
0.0
 20
1.0
 30
0.0
  9
$UCSORTHOREF
  2

  9
$UCSORTHOVIEW
 70
     0
  9
$UCSORGTOP
 10
0.0
 20
0.0
 30
0.0
  9
$UCSORGBOTTOM
 10
0.0
 20
0.0
 30
0.0
  9
$UCSORGLEFT
 10
0.0
 20
0.0
 30
0.0
  9
$UCSORGRIGHT
 10
0.0
 20
0.0
 30
0.0
  9
$UCSORGFRONT
 10
0.0
 20
0.0
 30
0.0
  9
$UCSORGBACK
 10
0.0
 20
0.0
 30
0.0
  9
$PUCSBASE
  2

  9
$PUCSNAME
  2

  9
$PUCSORG
 10
0.0
 20
0.0
 30
0.0
  9
$PUCSXDIR
 10
1.0
 20
0.0
 30
0.0
  9
$PUCSYDIR
 10
0.0
 20
1.0
 30
0.0
  9
$PUCSORTHOREF
  2

  9
$PUCSORTHOVIEW
 70
     0
  9
$PUCSORGTOP
 10
0.0
 20
0.0
 30
0.0
  9
$PUCSORGBOTTOM
 10
0.0
 20
0.0
 30
0.0
  9
$PUCSORGLEFT
 10
0.0
 20
0.0
 30
0.0
  9
$PUCSORGRIGHT
 10
0.0
 20
0.0
 30
0.0
  9
$PUCSORGFRONT
 10
0.0
 20
0.0
 30
0.0
  9
$PUCSORGBACK
 10
0.0
 20
0.0
 30
0.0
  9
$USERI1
 70
     0
  9
$USERI2
 70
     0
  9
$USERI3
 70
     0
  9
$USERI4
 70
     0
  9
$USERI5
 70
     0
  9
$USERR1
 40
0.0
  9
$USERR2
 40
0.0
  9
$USERR3
 40
0.0
  9
$USERR4
 40
0.0
  9
$USERR5
 40
0.0
  9
$WORLDVIEW
 70
     1
  9
$SHADEDGE
 70
     3
  9
$SHADEDIF
 70
    70
  9
$TILEMODE
 70
     1
  9
$MAXACTVP
 70
    64
  9
$PINSBASE
 10
0.0
 20
0.0
 30
0.0
  9
$PLIMCHECK
 70
     0
  9
$PEXTMIN
 10
1.000000000000000E+20
 20
1.000000000000000E+20
 30
1.000000000000000E+20
  9
$PEXTMAX
 10
-1.000000000000000E+20
 20
-1.000000000000000E+20
 30
-1.000000000000000E+20
  9
$PLIMMIN
 10
0.0
 20
0.0
  9
$PLIMMAX
 10
12.0
 20
9.0
  9
$UNITMODE
 70
     0
  9
$VISRETAIN
 70
     1
  9
$PLINEGEN
 70
     0
  9
$PSLTSCALE
 70
     1
  9
$TREEDEPTH
 70
  3020
  9
$CMLSTYLE
  2
Standard
  9
$CMLJUST
 70
     0
  9
$CMLSCALE
 40
1.0
  9
$PROXYGRAPHICS
 70
     1
  9
$MEASUREMENT
 70
     0
  9
$CELWEIGHT
370
    -1
  9
$ENDCAPS
280
     0
  9
$JOINSTYLE
280
     0
  9
$LWDISPLAY
290
     0
  9
$INSUNITS
 70
     0
  9
$HYPERLINKBASE
  1

  9
$STYLESHEET
  1

  9
$XEDIT
290
     1
  9
$CEPSNTYPE
380
     0
  9
$PSTYLEMODE
290
     1
  9
$FINGERPRINTGUID
  2
{014EEA33-8667-4619-BED7-6E55D6A3B06D}
  9
$VERSIONGUID
  2
{FAEB1C32-E019-11D5-929B-00C0DF256EC4}
  9
$EXTNAMES
290
     1
  9
$PSVPSCALE
 40
0.0
  9
$OLESTARTUP
290
     0
  9
$SORTENTS
280
   127
  9
$INDEXCTL
280
     0
  9
$HIDETEXT
280
     1
  9
$XCLIPFRAME
290
     0
  9
$HALOGAP
280
     0
  9
$OBSCOLOR
 70
   257
  9
$OBSLTYPE
280
     0
  9
$INTERSECTIONDISPLAY
280
     0
  9
$INTERSECTIONCOLOR
 70
   257
  9
$DIMASSOC
280
     2
  9
$PROJECTNAME
  1

  0
ENDSEC
  0
SECTION
  2
CLASSES
  0
CLASS
  1
ACDBDICTIONARYWDFLT
  2
AcDbDictionaryWithDefault
  3
ObjectDBX Classes
 90
        0
 91
        3
280
     0
281
     0
  0
ENDSEC
  0
SECTION
  2
TABLES
  0
TABLE
  2
VPORT
  5
8
330
0
100
AcDbSymbolTable
 70
     1
  0
VPORT
  5
344
330
8
100
AcDbSymbolTableRecord
100
AcDbViewportTableRecord
  2
*Active
 70
     0
 10
0.0
 20
0.0
 11
1.0
 21
1.0
 12
10.42990654205607
 22
4.5
 13
0.0
 23
0.0
 14
0.5
 24
0.5
 15
0.5
 25
0.5
 16
0.0
 26
0.0
 36
1.0
 17
0.0
 27
0.0
 37
0.0
 40
9.0
 41
1.972972972850329
 42
50.0
 43
0.0
 44
0.0
 50
0.0
 51
0.0
 71
     0
 72
   100
 73
     1
 74
     3
 75
     0
 76
     0
 77
     0
 78
     0
281
     0
 65
     1
110
0.0
120
0.0
130
0.0
111
1.0
121
0.0
131
0.0
112
0.0
122
1.0
132
0.0
 79
     0
146
0.0
  0
ENDTAB
  0
TABLE
  2
LTYPE
  5
5
330
0
100
AcDbSymbolTable
 70
     9
  0
LTYPE
  5
14
330
5
100
AcDbSymbolTableRecord
100
AcDbLinetypeTableRecord
  2
ByBlock
 70
     0
  3

 72
    65
 73
     0
 40
0.0
  0
LTYPE
  5
15
330
5
100
AcDbSymbolTableRecord
100
AcDbLinetypeTableRecord
  2
ByLayer
 70
     0
  3

 72
    65
 73
     0
 40
0.0
  0
LTYPE
  5
16
330
5
100
AcDbSymbolTableRecord
100
AcDbLinetypeTableRecord
  2
CONTINUOUS
 70
     0
  3
実線
 72
    65
 73
     0
 40
0.0
  0
LTYPE
  5
21
330
5
100
AcDbSymbolTableRecord
100
AcDbLinetypeTableRecord
  2
DASHED
 70
     0
  3
破線A
 72
    65
 73
     2
 40
0.6000000000000001
 49
0.4
 74
     0
 49
-0.2
 74
     0
  0
LTYPE
  5
22
330
5
100
AcDbSymbolTableRecord
100
AcDbLinetypeTableRecord
  2
DASHEDX2
 70
     0
  3
破線B
 72
    65
 73
     2
 40
1.3
 49
0.9
 74
     0
 49
-0.4
 74
     0
  0
LTYPE
  5
23
330
5
100
AcDbSymbolTableRecord
100
AcDbLinetypeTableRecord
  2
DASHDOT
 70
     0
  3
１点鎖線A
 72
    65
 73
     4
 40
0.5375
 49
0.375
 74
     0
 49
-0.05
 74
     0
 49
0.0625
 74
     0
 49
-0.05
 74
     0
  0
LTYPE
  5
24
330
5
100
AcDbSymbolTableRecord
100
AcDbLinetypeTableRecord
  2
DASHDOTX2
 70
     0
  3
１点鎖線B
 72
    65
 73
     4
 40
1.075
 49
0.75
 74
     0
 49
-0.1
 74
     0
 49
0.125
 74
     0
 49
-0.1
 74
     0
  0
LTYPE
  5
25
330
5
100
AcDbSymbolTableRecord
100
AcDbLinetypeTableRecord
  2
DIVIDE2
 70
     0
  3
２点鎖線A
 72
    65
 73
     6
 40
0.5125
 49
0.3
 74
     0
 49
-0.0375
 74
     0
 49
0.05
 74
     0
 49
-0.0375
 74
     0
 49
0.05
 74
     0
 49
-0.0375
 74
     0
  0
LTYPE
  5
26
330
5
100
AcDbSymbolTableRecord
100
AcDbLinetypeTableRecord
  2
DIVIDE
 70
     0
  3
２点鎖線B
 72
    65
 73
     6
 40
1.05
 49
0.55
 74
     0
 49
-0.1
 74
     0
 49
0.1
 74
     0
 49
-0.1
 74
     0
 49
0.1
 74
     0
 49
-0.1
 74
     0
  0
LTYPE
  5
27
330
5
100
AcDbSymbolTableRecord
100
AcDbLinetypeTableRecord
  2
DOT
 70
     0
  3
点線A
 72
    65
 73
     2
 40
0.1125
 49
0.0625
 74
     0
 49
-0.05
 74
     0
  0
LTYPE
  5
28
330
5
100
AcDbSymbolTableRecord
100
AcDbLinetypeTableRecord
  2
DOTX2
 70
     0
  3
点線B
 72
    65
 73
     2
 40
0.275
 49
0.15
 74
     0
 49
-0.125
 74
     0
  0
ENDTAB
  0
TABLE
  2
LAYER
  5
2
330
0
100
AcDbSymbolTable
 70
    34
  0
LAYER
  5
10
330
2
100
AcDbSymbolTableRecord
100
AcDbLayerTableRecord
  2
0
 70
     0
 62
    17
  6
CONTINUOUS
370
    -3
390
F
  0
LAYER
  5
2F
330
2
100
AcDbSymbolTableRecord
100
AcDbLayerTableRecord
  2
通り芯
 70
     0
 62
    15
  6
CONTINUOUS
370
    -3
390
F
  0
LAYER
  5
30
330
2
100
AcDbSymbolTableRecord
100
AcDbLayerTableRecord
  2
補助線
 70
     0
 62
    16
  6
DOT
370
    -3
390
F
  0
LAYER
  5
31
330
2
100
AcDbSymbolTableRecord
100
AcDbLayerTableRecord
  2
躯体
 70
     0
 62
    31
  6
CONTINUOUS
370
    -3
390
F
  0
LAYER
  5
32
330
2
100
AcDbSymbolTableRecord
100
AcDbLayerTableRecord
  2
型材
 70
     0
 62
    32
  6
CONTINUOUS
370
    -3
390
F
  0
LAYER
  5
33
330
2
100
AcDbSymbolTableRecord
100
AcDbLayerTableRecord
  2
型材断面
 70
     0
 62
    47
  6
CONTINUOUS
370
    -3
390
F
  0
LAYER
  5
34
330
2
100
AcDbSymbolTableRecord
100
AcDbLayerTableRecord
  2
ガラス
 70
     0
 62
    48
  6
CONTINUOUS
370
    -3
390
F
  0
LAYER
  5
35
330
2
100
AcDbSymbolTableRecord
100
AcDbLayerTableRecord
  2
ゴム等
 70
     0
 62
    63
  6
CONTINUOUS
370
    -3
390
F
  0
LAYER
  5
36
330
2
100
AcDbSymbolTableRecord
100
AcDbLayerTableRecord
  2
ボルト／ビス
 70
     0
 62
    64
  6
CONTINUOUS
370
    -3
390
F
  0
LAYER
  5
37
330
2
100
AcDbSymbolTableRecord
100
AcDbLayerTableRecord
  2
文字
 70
     0
 62
    79
  6
CONTINUOUS
370
    -3
390
F
  0
LAYER
  5
38
330
2
100
AcDbSymbolTableRecord
100
AcDbLayerTableRecord
  2
寸法
 70
     0
 62
    80
  6
CONTINUOUS
370
    -3
390
F
  0
LAYER
  5
39
330
2
100
AcDbSymbolTableRecord
100
AcDbLayerTableRecord
  2
ﾊｯﾁﾝｸﾞ
 70
     0
 62
    95
  6
CONTINUOUS
370
    -3
390
F
  0
LAYER
  5
3A
330
2
100
AcDbSymbolTableRecord
100
AcDbLayerTableRecord
  2
別途部材
 70
     0
 62
    96
  6
CONTINUOUS
370
    -3
390
F
  0
LAYER
  5
3B
330
2
100
AcDbSymbolTableRecord
100
AcDbLayerTableRecord
  2
曲げ物
 70
     0
 62
   111
  6
CONTINUOUS
370
    -3
390
F
  0
LAYER
  5
3C
330
2
100
AcDbSymbolTableRecord
100
AcDbLayerTableRecord
  2
鉄骨等
 70
     0
 62
   112
  6
CONTINUOUS
370
    -3
390
F
  0
LAYER
  5
3D
330
2
100
AcDbSymbolTableRecord
100
AcDbLayerTableRecord
  2
St
 70
     0
 62
   127
  6
CONTINUOUS
370
    -3
390
F
  0
LAYER
  5
3E
330
2
100
AcDbSymbolTableRecord
100
AcDbLayerTableRecord
  2
その他部品等
 70
     0
 62
   128
  6
CONTINUOUS
370
    -3
390
F
  0
LAYER
  5
3F
330
2
100
AcDbSymbolTableRecord
100
AcDbLayerTableRecord
  2
ｶﾞｽｹｯﾄ
 70
     0
 62
   143
  6
CONTINUOUS
370
    -3
390
F
  0
LAYER
  5
40
330
2
100
AcDbSymbolTableRecord
100
AcDbLayerTableRecord
  2
ｽｹｯﾁ
 70
     0
 62
    14
  6
CONTINUOUS
370
    -3
390
F
  0
LAYER
  5
42
330
2
100
AcDbSymbolTableRecord
100
AcDbLayerTableRecord
  2
1
 70
     0
 62
    30
  6
CONTINUOUS
370
    -3
390
F
  0
LAYER
  5
43
330
2
100
AcDbSymbolTableRecord
100
AcDbLayerTableRecord
  2
4
 70
     0
 62
    33
  6
CONTINUOUS
370
    -3
390
F
  0
LAYER
  5
44
330
2
100
AcDbSymbolTableRecord
100
AcDbLayerTableRecord
  2
ﾚｲﾔ3
 70
     0
 62
    46
  6
CONTINUOUS
370
    -3
390
F
  0
LAYER
  5
45
330
2
100
AcDbSymbolTableRecord
100
AcDbLayerTableRecord
  2
外形線
 70
     0
 62
    49
  6
CONTINUOUS
370
    -3
390
F
  0
LAYER
  5
46
330
2
100
AcDbSymbolTableRecord
100
AcDbLayerTableRecord
  2
部品
 70
     0
 62
    14
  6
CONTINUOUS
370
    -3
390
F
  0
LAYER
  5
47
330
2
100
AcDbSymbolTableRecord
100
AcDbLayerTableRecord
  2
サッシ芯
 70
     0
 62
    17
  6
DASHDOTX2
370
    -3
390
F
  0
LAYER
  5
48
330
2
100
AcDbSymbolTableRecord
100
AcDbLayerTableRecord
  2
寸法線
 70
     0
 62
    62
  6
CONTINUOUS
370
    -3
390
F
  0
LAYER
  5
49
330
2
100
AcDbSymbolTableRecord
100
AcDbLayerTableRecord
  2
姿図外形線
 70
     0
 62
    65
  6
CONTINUOUS
370
    -3
390
F
  0
LAYER
  5
4A
330
2
100
AcDbSymbolTableRecord
100
AcDbLayerTableRecord
  2
姿補助線
 70
     0
 62
    30
  6
CONTINUOUS
370
    -3
390
F
  0
LAYER
  5
4B
330
2
100
AcDbSymbolTableRecord
100
AcDbLayerTableRecord
  2
透視線
 70
     0
 62
    78
  6
DOT
370
    -3
390
F
  0
LAYER
  5
4C
330
2
100
AcDbSymbolTableRecord
100
AcDbLayerTableRecord
  2
用紙
 70
     0
 62
    81
  6
CONTINUOUS
370
    -3
390
F
  0
LAYER
  5
4D
330
2
100
AcDbSymbolTableRecord
100
AcDbLayerTableRecord
  2
実線図枠
 70
     0
 62
    94
  6
CONTINUOUS
370
    -3
390
F
  0
LAYER
  5
4E
330
2
100
AcDbSymbolTableRecord
100
AcDbLayerTableRecord
  2
補助図枠
 70
     0
 62
    97
  6
CONTINUOUS
370
    -3
390
F
  0
LAYER
  5
4F
330
2
100
AcDbSymbolTableRecord
100
AcDbLayerTableRecord
  2
建具記号
 70
     0
 62
   110
  6
CONTINUOUS
370
    -3
390
F
  0
LAYER
  5
50
330
2
100
AcDbSymbolTableRecord
100
AcDbLayerTableRecord
  2
補助文字
 70
     0
 62
   113
  6
CONTINUOUS
370
    -3
390
F
  0
ENDTAB
  0
TABLE
  2
STYLE
  5
3
330
0
100
AcDbSymbolTable
 70
    10
  0
STYLE
  5
11
330
3
100
AcDbSymbolTableRecord
100
AcDbTextStyleTableRecord
  2
STANDARD
 70
     0
 40
1.0
 41
1.0
 50
0.0
 71
     0
 42
1.0
  3
TXT
  4
BIGFONT
  0
STYLE
  5
52
330
3
100
AcDbSymbolTableRecord
100
AcDbTextStyleTableRecord
  2
TATE
 70
     4
 40
1.0
 41
1.0
 50
0.0
 71
     0
 42
1.0
  3
TXT
  4
BIGFONT
  0
STYLE
  5
53
330
3
100
AcDbSymbolTableRecord
100
AcDbTextStyleTableRecord
  2
TextStyle03
 70
     0
 40
1.0
 41
1.0
 50
0.0
 71
     0
 42
1.0
  3
MONOTXT
  4
BIGFONT
  0
STYLE
  5
54
330
3
100
AcDbSymbolTableRecord
100
AcDbTextStyleTableRecord
  2
TextStyle04
 70
     0
 40
1.0
 41
1.0
 50
0.0
 71
     0
 42
1.0
  3
MONOTXT
  4
BIGFONT
  0
STYLE
  5
55
330
3
100
AcDbSymbolTableRecord
100
AcDbTextStyleTableRecord
  2
TextStyle05
 70
     0
 40
1.0
 41
1.0
 50
0.0
 71
     0
 42
1.0
  3
MONOTXT
  4
BIGFONT
  0
STYLE
  5
56
330
3
100
AcDbSymbolTableRecord
100
AcDbTextStyleTableRecord
  2
TextStyle06
 70
     0
 40
1.0
 41
1.0
 50
0.0
 71
     0
 42
1.0
  3
MONOTXT
  4
BIGFONT
  0
STYLE
  5
57
330
3
100
AcDbSymbolTableRecord
100
AcDbTextStyleTableRecord
  2
TextStyle07
 70
     0
 40
1.0
 41
1.0
 50
0.0
 71
     0
 42
1.0
  3
MONOTXT
  4
BIGFONT
  0
STYLE
  5
58
330
3
100
AcDbSymbolTableRecord
100
AcDbTextStyleTableRecord
  2
TextStyle08
 70
     0
 40
1.0
 41
1.0
 50
0.0
 71
     0
 42
1.0
  3
MONOTXT
  4
BIGFONT
  0
STYLE
  5
59
330
3
100
AcDbSymbolTableRecord
100
AcDbTextStyleTableRecord
  2
TextStyle09
 70
     0
 40
1.0
 41
1.0
 50
0.0
 71
     0
 42
1.0
  3
MONOTXT
  4
BIGFONT
  0
STYLE
  5
5A
330
3
100
AcDbSymbolTableRecord
100
AcDbTextStyleTableRecord
  2
TextStyle10
 70
     0
 40
1.0
 41
1.0
 50
0.0
 71
     0
 42
1.0
  3
MONOTXT
  4
BIGFONT
  0
ENDTAB
  0
TABLE
  2
VIEW
  5
6
330
0
100
AcDbSymbolTable
 70
     0
  0
ENDTAB
  0
TABLE
  2
UCS
  5
7
330
0
100
AcDbSymbolTable
 70
     0
  0
ENDTAB
  0
TABLE
  2
APPID
  5
9
330
0
100
AcDbSymbolTable
 70
     1
  0
APPID
  5
12
330
9
100
AcDbSymbolTableRecord
100
AcDbRegAppTableRecord
  2
ACAD
 70
     0
  0
ENDTAB
  0
TABLE
  2
DIMSTYLE
  5
A
330
0
100
AcDbSymbolTable
 70
     1
100
AcDbDimStyleTable
  0
DIMSTYLE
105
5B
330
A
100
AcDbSymbolTableRecord
100
AcDbDimStyleTableRecord
  2
Standard
 70
     0
340
11
  0
ENDTAB
  0
TABLE
  2
BLOCK_RECORD
  5
1
330
0
100
AcDbSymbolTable
 70
    62
  0
BLOCK_RECORD
  5
1D
330
1
100
AcDbSymbolTableRecord
100
AcDbBlockTableRecord
  2
*Model_Space
340
1E
  0
BLOCK_RECORD
  5
1B
330
1
100
AcDbSymbolTableRecord
100
AcDbBlockTableRecord
  2
*Paper_Space
340
1C
  0
BLOCK_RECORD
  5
5D
330
1
100
AcDbSymbolTableRecord
100
AcDbBlockTableRecord
  2
*U0
340
0
102
{BLKREFS
331
279
102
}
  0
BLOCK_RECORD
  5
66
330
1
100
AcDbSymbolTableRecord
100
AcDbBlockTableRecord
  2
*U1
340
0
102
{BLKREFS
331
318
102
}
  0
BLOCK_RECORD
  5
6F
330
1
100
AcDbSymbolTableRecord
100
AcDbBlockTableRecord
  2
*U2
340
0
102
{BLKREFS
331
319
102
}
  0
BLOCK_RECORD
  5
77
330
1
100
AcDbSymbolTableRecord
100
AcDbBlockTableRecord
  2
*U3
340
0
102
{BLKREFS
331
31A
102
}
  0
BLOCK_RECORD
  5
7F
330
1
100
AcDbSymbolTableRecord
100
AcDbBlockTableRecord
  2
*U4
340
0
102
{BLKREFS
331
324
102
}
  0
BLOCK_RECORD
  5
98
330
1
100
AcDbSymbolTableRecord
100
AcDbBlockTableRecord
  2
*U5
340
0
102
{BLKREFS
331
31B
102
}
  0
BLOCK_RECORD
  5
A1
330
1
100
AcDbSymbolTableRecord
100
AcDbBlockTableRecord
  2
*U6
340
0
102
{BLKREFS
331
31C
102
}
  0
BLOCK_RECORD
  5
A9
330
1
100
AcDbSymbolTableRecord
100
AcDbBlockTableRecord
  2
*U7
340
0
102
{BLKREFS
331
326
102
}
  0
BLOCK_RECORD
  5
C2
330
1
100
AcDbSymbolTableRecord
100
AcDbBlockTableRecord
  2
*U8
340
0
102
{BLKREFS
331
31D
102
}
  0
BLOCK_RECORD
  5
CB
330
1
100
AcDbSymbolTableRecord
100
AcDbBlockTableRecord
  2
*U9
340
0
102
{BLKREFS
331
31E
102
}
  0
BLOCK_RECORD
  5
D2
330
1
100
AcDbSymbolTableRecord
100
AcDbBlockTableRecord
  2
*U10
340
0
102
{BLKREFS
331
31F
102
}
  0
BLOCK_RECORD
  5
DB
330
1
100
AcDbSymbolTableRecord
100
AcDbBlockTableRecord
  2
*U11
340
0
102
{BLKREFS
331
320
102
}
  0
BLOCK_RECORD
  5
E4
330
1
100
AcDbSymbolTableRecord
100
AcDbBlockTableRecord
  2
*U12
340
0
102
{BLKREFS
331
321
102
}
  0
BLOCK_RECORD
  5
EB
330
1
100
AcDbSymbolTableRecord
100
AcDbBlockTableRecord
  2
*U13
340
0
102
{BLKREFS
331
322
102
}
  0
BLOCK_RECORD
  5
F4
330
1
100
AcDbSymbolTableRecord
100
AcDbBlockTableRecord
  2
*U14
340
0
102
{BLKREFS
331
2FC
102
}
  0
BLOCK_RECORD
  5
FF
330
1
100
AcDbSymbolTableRecord
100
AcDbBlockTableRecord
  2
*U15
340
0
102
{BLKREFS
331
F5
102
}
  0
BLOCK_RECORD
  5
104
330
1
100
AcDbSymbolTableRecord
100
AcDbBlockTableRecord
  2
*U16
340
0
102
{BLKREFS
331
2FD
102
}
  0
BLOCK_RECORD
  5
10F
330
1
100
AcDbSymbolTableRecord
100
AcDbBlockTableRecord
  2
*U17
340
0
102
{BLKREFS
331
105
102
}
  0
BLOCK_RECORD
  5
114
330
1
100
AcDbSymbolTableRecord
100
AcDbBlockTableRecord
  2
*U18
340
0
102
{BLKREFS
331
2FE
102
}
  0
BLOCK_RECORD
  5
11F
330
1
100
AcDbSymbolTableRecord
100
AcDbBlockTableRecord
  2
*U19
340
0
102
{BLKREFS
331
115
102
}
  0
BLOCK_RECORD
  5
124
330
1
100
AcDbSymbolTableRecord
100
AcDbBlockTableRecord
  2
*U20
340
0
102
{BLKREFS
331
2FF
102
}
  0
BLOCK_RECORD
  5
12F
330
1
100
AcDbSymbolTableRecord
100
AcDbBlockTableRecord
  2
*U21
340
0
102
{BLKREFS
331
125
102
}
  0
BLOCK_RECORD
  5
134
330
1
100
AcDbSymbolTableRecord
100
AcDbBlockTableRecord
  2
*U22
340
0
102
{BLKREFS
331
300
102
}
  0
BLOCK_RECORD
  5
13F
330
1
100
AcDbSymbolTableRecord
100
AcDbBlockTableRecord
  2
*U23
340
0
102
{BLKREFS
331
135
102
}
  0
BLOCK_RECORD
  5
144
330
1
100
AcDbSymbolTableRecord
100
AcDbBlockTableRecord
  2
*U24
340
0
102
{BLKREFS
331
301
102
}
  0
BLOCK_RECORD
  5
14F
330
1
100
AcDbSymbolTableRecord
100
AcDbBlockTableRecord
  2
*U25
340
0
102
{BLKREFS
331
145
102
}
  0
BLOCK_RECORD
  5
154
330
1
100
AcDbSymbolTableRecord
100
AcDbBlockTableRecord
  2
*U26
340
0
102
{BLKREFS
331
302
102
}
  0
BLOCK_RECORD
  5
15F
330
1
100
AcDbSymbolTableRecord
100
AcDbBlockTableRecord
  2
*U27
340
0
102
{BLKREFS
331
303
102
}
  0
BLOCK_RECORD
  5
16A
330
1
100
AcDbSymbolTableRecord
100
AcDbBlockTableRecord
  2
*U28
340
0
102
{BLKREFS
331
304
102
}
  0
BLOCK_RECORD
  5
175
330
1
100
AcDbSymbolTableRecord
100
AcDbBlockTableRecord
  2
*U29
340
0
102
{BLKREFS
331
305
102
}
  0
BLOCK_RECORD
  5
180
330
1
100
AcDbSymbolTableRecord
100
AcDbBlockTableRecord
  2
*U30
340
0
102
{BLKREFS
331
306
102
}
  0
BLOCK_RECORD
  5
18B
330
1
100
AcDbSymbolTableRecord
100
AcDbBlockTableRecord
  2
*U31
340
0
102
{BLKREFS
331
307
102
}
  0
BLOCK_RECORD
  5
196
330
1
100
AcDbSymbolTableRecord
100
AcDbBlockTableRecord
  2
*U32
340
0
102
{BLKREFS
331
155
102
}
  0
BLOCK_RECORD
  5
19B
330
1
100
AcDbSymbolTableRecord
100
AcDbBlockTableRecord
  2
*U33
340
0
102
{BLKREFS
331
160
102
}
  0
BLOCK_RECORD
  5
1A0
330
1
100
AcDbSymbolTableRecord
100
AcDbBlockTableRecord
  2
*U34
340
0
102
{BLKREFS
331
16B
102
}
  0
BLOCK_RECORD
  5
1A5
330
1
100
AcDbSymbolTableRecord
100
AcDbBlockTableRecord
  2
*U35
340
0
102
{BLKREFS
331
176
102
}
  0
BLOCK_RECORD
  5
1AA
330
1
100
AcDbSymbolTableRecord
100
AcDbBlockTableRecord
  2
*U36
340
0
102
{BLKREFS
331
181
102
}
  0
BLOCK_RECORD
  5
1AF
330
1
100
AcDbSymbolTableRecord
100
AcDbBlockTableRecord
  2
*U37
340
0
102
{BLKREFS
331
18C
102
}
  0
BLOCK_RECORD
  5
1B4
330
1
100
AcDbSymbolTableRecord
100
AcDbBlockTableRecord
  2
*U38
340
0
102
{BLKREFS
331
308
102
}
  0
BLOCK_RECORD
  5
1BF
330
1
100
AcDbSymbolTableRecord
100
AcDbBlockTableRecord
  2
*U39
340
0
102
{BLKREFS
331
309
102
}
  0
BLOCK_RECORD
  5
1CA
330
1
100
AcDbSymbolTableRecord
100
AcDbBlockTableRecord
  2
*U40
340
0
102
{BLKREFS
331
30A
102
}
  0
BLOCK_RECORD
  5
1D5
330
1
100
AcDbSymbolTableRecord
100
AcDbBlockTableRecord
  2
*U41
340
0
102
{BLKREFS
331
30B
102
}
  0
BLOCK_RECORD
  5
1E0
330
1
100
AcDbSymbolTableRecord
100
AcDbBlockTableRecord
  2
*U42
340
0
102
{BLKREFS
331
30C
102
}
  0
BLOCK_RECORD
  5
1EB
330
1
100
AcDbSymbolTableRecord
100
AcDbBlockTableRecord
  2
*U43
340
0
102
{BLKREFS
331
30D
102
}
  0
BLOCK_RECORD
  5
1F6
330
1
100
AcDbSymbolTableRecord
100
AcDbBlockTableRecord
  2
*U44
340
0
102
{BLKREFS
331
1B5
102
}
  0
BLOCK_RECORD
  5
1FB
330
1
100
AcDbSymbolTableRecord
100
AcDbBlockTableRecord
  2
*U45
340
0
102
{BLKREFS
331
1C0
102
}
  0
BLOCK_RECORD
  5
200
330
1
100
AcDbSymbolTableRecord
100
AcDbBlockTableRecord
  2
*U46
340
0
102
{BLKREFS
331
1CB
102
}
  0
BLOCK_RECORD
  5
205
330
1
100
AcDbSymbolTableRecord
100
AcDbBlockTableRecord
  2
*U47
340
0
102
{BLKREFS
331
1D6
102
}
  0
BLOCK_RECORD
  5
20A
330
1
100
AcDbSymbolTableRecord
100
AcDbBlockTableRecord
  2
*U48
340
0
102
{BLKREFS
331
1E1
102
}
  0
BLOCK_RECORD
  5
20F
330
1
100
AcDbSymbolTableRecord
100
AcDbBlockTableRecord
  2
*U49
340
0
102
{BLKREFS
331
1EC
102
}
  0
BLOCK_RECORD
  5
214
330
1
100
AcDbSymbolTableRecord
100
AcDbBlockTableRecord
  2
*U50
340
0
102
{BLKREFS
331
30E
102
}
  0
BLOCK_RECORD
  5
21F
330
1
100
AcDbSymbolTableRecord
100
AcDbBlockTableRecord
  2
*U51
340
0
102
{BLKREFS
331
30F
102
}
  0
BLOCK_RECORD
  5
22A
330
1
100
AcDbSymbolTableRecord
100
AcDbBlockTableRecord
  2
*U52
340
0
102
{BLKREFS
331
310
102
}
  0
BLOCK_RECORD
  5
235
330
1
100
AcDbSymbolTableRecord
100
AcDbBlockTableRecord
  2
*U53
340
0
102
{BLKREFS
331
311
102
}
  0
BLOCK_RECORD
  5
240
330
1
100
AcDbSymbolTableRecord
100
AcDbBlockTableRecord
  2
*U54
340
0
102
{BLKREFS
331
312
102
}
  0
BLOCK_RECORD
  5
24B
330
1
100
AcDbSymbolTableRecord
100
AcDbBlockTableRecord
  2
*U55
340
0
102
{BLKREFS
331
313
102
}
  0
BLOCK_RECORD
  5
256
330
1
100
AcDbSymbolTableRecord
100
AcDbBlockTableRecord
  2
*U56
340
0
102
{BLKREFS
331
215
102
}
  0
BLOCK_RECORD
  5
25B
330
1
100
AcDbSymbolTableRecord
100
AcDbBlockTableRecord
  2
*U57
340
0
102
{BLKREFS
331
220
102
}
  0
BLOCK_RECORD
  5
260
330
1
100
AcDbSymbolTableRecord
100
AcDbBlockTableRecord
  2
*U58
340
0
102
{BLKREFS
331
22B
102
}
  0
BLOCK_RECORD
  5
265
330
1
100
AcDbSymbolTableRecord
100
AcDbBlockTableRecord
  2
*U59
340
0
102
{BLKREFS
331
236
102
}
  0
BLOCK_RECORD
  5
26A
330
1
100
AcDbSymbolTableRecord
100
AcDbBlockTableRecord
  2
*U60
340
0
102
{BLKREFS
331
241
102
}
  0
BLOCK_RECORD
  5
26F
330
1
100
AcDbSymbolTableRecord
100
AcDbBlockTableRecord
  2
*U61
340
0
102
{BLKREFS
331
24C
102
}
  0
ENDTAB
  0
ENDSEC
  0
SECTION
  2
BLOCKS
  0
BLOCK
  5
345
330
1D
100
AcDbEntity
  8
0
100
AcDbBlockBegin
  2
*Model_Space
 70
     0
 71
     0
 10
0.0
 20
0.0
 30
0.0
  3
*Model_Space
  1

  0
ENDBLK
  5
346
330
1D
100
AcDbEntity
  8
0
100
AcDbBlockEnd
  0
BLOCK
  5
347
330
1B
100
AcDbEntity
 67
     1
  8
0
100
AcDbBlockBegin
  2
*Paper_Space
 70
     0
 71
     0
 10
0.0
 20
0.0
 30
0.0
  3
*Paper_Space
  1

  0
ENDBLK
  5
348
330
1B
100
AcDbEntity
 67
     1
  8
0
100
AcDbBlockEnd
  0
BLOCK
  5
5C
330
5D
100
AcDbEntity
  8
0
100
AcDbBlockBegin
  2
*U0
 70
     1
 71
     0
 10
0.0
 20
0.0
 30
0.0
  3
*U0
  1

  0
LINE
  5
5E
330
5D
100
AcDbEntity
  8
型材断面
  6
Continuous
100
AcDbLine
 10
195.0
 20
133.5
 30
0.0
 11
195.0
 21
-133.5
 31
0.0
  0
LINE
  5
5F
330
5D
100
AcDbEntity
  8
型材断面
  6
Continuous
100
AcDbLine
 10
195.0
 20
-133.5
 30
0.0
 11
-185.0
 21
-133.5
 31
0.0
  0
LINE
  5
60
330
5D
100
AcDbEntity
  8
型材断面
  6
Continuous
100
AcDbLine
 10
-185.0
 20
-133.5
 30
0.0
 11
-185.0
 21
133.5
 31
0.0
  0
LINE
  5
61
330
5D
100
AcDbEntity
  8
型材断面
  6
Continuous
100
AcDbLine
 10
195.0
 20
133.5
 30
0.0
 11
-185.0
 21
133.5
 31
0.0
  0
LINE
  5
62
330
5D
100
AcDbEntity
  8
型材断面
  6
Continuous
100
AcDbLine
 10
145.0
 20
-133.5
 30
0.0
 11
145.0
 21
-118.5
 31
0.0
  0
LINE
  5
63
330
5D
100
AcDbEntity
  8
型材断面
  6
Continuous
100
AcDbLine
 10
195.0
 20
-118.5
 30
0.0
 11
145.0
 21
-118.5
 31
0.0
  0
ENDBLK
  5
64
330
5D
100
AcDbEntity
  8
0
100
AcDbBlockEnd
  0
BLOCK
  5
65
330
66
100
AcDbEntity
  8
0
100
AcDbBlockBegin
  2
*U1
 70
     1
 71
     0
 10
0.0
 20
0.0
 30
0.0
  3
*U1
  1

  0
LINE
  5
67
330
66
100
AcDbEntity
  8
寸法
  6
ByBlock
 62
     0
100
AcDbLine
 10
-105.500135
 20
67.974165
 30
0.0
 11
-116.43089
 21
67.97416699999999
 31
0.0
  0
LINE
  5
68
330
66
100
AcDbEntity
  8
寸法
  6
ByBlock
 62
     0
100
AcDbLine
 10
-105.500137
 20
32.974165
 30
0.0
 11
-116.430893
 21
32.974167
 31
0.0
  0
LINE
  5
69
330
66
100
AcDbEntity
  8
寸法
  6
ByBlock
 62
     0
100
AcDbLine
 10
-116.43089
 20
67.97416699999999
 30
0.0
 11
-116.430893
 21
32.974167
 31
0.0
  0
POINT
  5
6A
330
66
100
AcDbEntity
  8
寸法
 62
     0
100
AcDbPoint
 10
-116.43089
 20
67.97416699999999
 30
0.0
  0
POINT
  5
6B
330
66
100
AcDbEntity
  8
寸法
 62
     0
100
AcDbPoint
 10
-116.430893
 20
32.974167
 30
0.0
  0
TEXT
  5
6C
330
66
100
AcDbEntity
  8
寸法
  6
Continuous
 62
     0
100
AcDbText
 10
-116.825
 20
48.0375
 30
0.0
 40
3.0
  1
700
 50
90.0
  7
TextStyle03
 72
     5
 11
-116.825
 21
52.9125
 31
0.0
100
AcDbText
  0
ENDBLK
  5
6D
330
66
100
AcDbEntity
  8
0
100
AcDbBlockEnd
  0
BLOCK
  5
6E
330
6F
100
AcDbEntity
  8
0
100
AcDbBlockBegin
  2
*U2
 70
     1
 71
     0
 10
0.0
 20
0.0
 30
0.0
  3
*U2
  1

  0
LINE
  5
70
330
6F
100
AcDbEntity
  8
寸法
  6
ByBlock
 62
     0
100
AcDbLine
 10
-105.500137
 20
32.974165
 30
0.0
 11
-116.430893
 21
32.97417
 31
0.0
  0
LINE
  5
71
330
6F
100
AcDbEntity
  8
寸法
  6
ByBlock
 62
     0
100
AcDbLine
 10
-105.50014
 20
-2.025835
 30
0.0
 11
-116.430895
 21
-2.02583
 31
0.0
  0
LINE
  5
72
330
6F
100
AcDbEntity
  8
寸法
  6
ByBlock
 62
     0
100
AcDbLine
 10
-116.430893
 20
32.97417
 30
0.0
 11
-116.430895
 21
-2.02583
 31
0.0
  0
POINT
  5
73
330
6F
100
AcDbEntity
  8
寸法
 62
     0
100
AcDbPoint
 10
-116.430895
 20
-2.02583
 30
0.0
  0
TEXT
  5
74
330
6F
100
AcDbEntity
  8
寸法
  6
Continuous
 62
     0
100
AcDbText
 10
-116.825
 20
13.0375
 30
0.0
 40
3.0
  1
700
 50
90.0
  7
TextStyle03
 72
     5
 11
-116.825
 21
17.9125
 31
0.0
100
AcDbText
  0
ENDBLK
  5
75
330
6F
100
AcDbEntity
  8
0
100
AcDbBlockEnd
  0
BLOCK
  5
76
330
77
100
AcDbEntity
  8
0
100
AcDbBlockBegin
  2
*U3
 70
     1
 71
     0
 10
0.0
 20
0.0
 30
0.0
  3
*U3
  1

  0
LINE
  5
78
330
77
100
AcDbEntity
  8
寸法
  6
ByBlock
 62
     0
100
AcDbLine
 10
-84.995137
 20
-82.966447
 30
0.0
 11
-84.995137
 21
-44.812283
 31
0.0
  0
LINE
  5
79
330
77
100
AcDbEntity
  8
寸法
  6
ByBlock
 62
     0
100
AcDbLine
 10
-80.24513500000001
 20
-44.812283
 30
0.0
 11
-84.995137
 21
-44.812283
 31
0.0
  0
POINT
  5
7A
330
77
100
AcDbEntity
  8
寸法
 62
     0
100
AcDbPoint
 10
-80.24513500000001
 20
-44.812283
 30
0.0
  0
POINT
  5
7B
330
77
100
AcDbEntity
  8
寸法
 62
     0
100
AcDbPoint
 10
-84.995137
 20
-44.812283
 30
0.0
  0
TEXT
  5
7C
330
77
100
AcDbEntity
  8
寸法
  6
Continuous
 62
     0
100
AcDbText
 10
-84.21875
 20
-44.45
 30
0.0
 40
3.0
  1
95
  7
TextStyle03
 72
     5
 11
-81.03125
 21
-44.45
 31
0.0
100
AcDbText
  0
ENDBLK
  5
7D
330
77
100
AcDbEntity
  8
0
100
AcDbBlockEnd
  0
BLOCK
  5
7E
330
7F
100
AcDbEntity
  8
0
100
AcDbBlockBegin
  2
*U4
 70
     1
 71
     0
 10
0.0
 20
0.0
 30
0.0
  3
*U4
  1

  0
LINE
  5
80
330
7F
100
AcDbEntity
  8
ボルト／ビス
  6
Continuous
100
AcDbLine
 10
-81.24513500000001
 20
-80.966093
 30
0.0
 11
-81.24513500000001
 21
-80.266093
 31
0.0
  0
LINE
  5
81
330
7F
100
AcDbEntity
  8
ボルト／ビス
  6
Continuous
100
AcDbLine
 10
-81.795135
 20
-80.966093
 30
0.0
 11
-81.795135
 21
-80.86609300000001
 31
0.0
  0
LINE
  5
82
330
7F
100
AcDbEntity
  8
ボルト／ビス
  6
Continuous
100
AcDbLine
 10
-81.795135
 20
-80.86609300000001
 30
0.0
 11
-80.69513499999999
 21
-80.86609300000001
 31
0.0
  0
LINE
  5
83
330
7F
100
AcDbEntity
  8
ボルト／ビス
  6
Continuous
100
AcDbLine
 10
-80.69513499999999
 20
-80.86609300000001
 30
0.0
 11
-80.69513499999999
 21
-80.966093
 31
0.0
  0
LINE
  5
84
330
7F
100
AcDbEntity
  8
ボルト／ビス
  6
Continuous
100
AcDbLine
 10
-81.795135
 20
-80.966093
 30
0.0
 11
-80.69513499999999
 21
-80.966093
 31
0.0
  0
LINE
  5
85
330
7F
100
AcDbEntity
  8
ボルト／ビス
  6
Continuous
100
AcDbLine
 10
-81.69513499999999
 20
-80.816093
 30
0.0
 11
-81.69513499999999
 21
-80.86609300000001
 31
0.0
  0
LINE
  5
86
330
7F
100
AcDbEntity
  8
ボルト／ビス
  6
Continuous
100
AcDbLine
 10
-81.69513499999999
 20
-80.816093
 30
0.0
 11
-80.795135
 21
-80.816093
 31
0.0
  0
LINE
  5
87
330
7F
100
AcDbEntity
  8
ボルト／ビス
  6
Continuous
100
AcDbLine
 10
-80.795135
 20
-80.816093
 30
0.0
 11
-80.795135
 21
-80.86609300000001
 31
0.0
  0
LINE
  5
88
330
7F
100
AcDbEntity
  8
ボルト／ビス
  6
Continuous
 62
    64
100
AcDbLine
 10
-81.485697
 20
-80.516093
 30
0.0
 11
-81.53381
 21
-80.53360499999999
 31
0.0
  0
ARC
  5
89
330
7F
100
AcDbEntity
  8
ボルト／ビス
  6
Continuous
 62
    64
100
AcDbCircle
 10
-81.46164
 20
-80.67356
 30
0.0
 40
0.157468
100
AcDbArc
 50
62.721967
 51
90.0
  0
ARC
  5
8A
330
7F
100
AcDbEntity
  8
ボルト／ビス
  6
Continuous
 62
    64
100
AcDbCircle
 10
-81.245133
 20
-81.11969600000001
 30
0.0
 40
0.603603
100
AcDbArc
 50
76.165002
 51
103.834985
  0
LINE
  5
8B
330
7F
100
AcDbEntity
  8
ボルト／ビス
  6
Continuous
 62
    64
100
AcDbLine
 10
-81.004572
 20
-80.516093
 30
0.0
 11
-80.95646000000001
 21
-80.53360499999999
 31
0.0
  0
ARC
  5
8C
330
7F
100
AcDbEntity
  8
ボルト／ビス
  6
Continuous
 62
    64
100
AcDbCircle
 10
-81.028627
 20
-80.67356
 30
0.0
 40
0.157468
100
AcDbArc
 50
90.0
 51
117.278033
  0
LINE
  5
8D
330
7F
100
AcDbEntity
  8
ボルト／ビス
  6
Continuous
 62
    64
100
AcDbLine
 10
-81.485697
 20
-80.516093
 30
0.0
 11
-81.004572
 21
-80.516093
 31
0.0
  0
LINE
  5
8E
330
7F
100
AcDbEntity
  8
ボルト／ビス
  6
Continuous
 62
    64
100
AcDbLine
 10
-80.95646000000001
 20
-80.53360499999999
 30
0.0
 11
-80.95646000000001
 21
-80.716093
 31
0.0
  0
LINE
  5
8F
330
7F
100
AcDbEntity
  8
ボルト／ビス
  6
Continuous
 62
    64
100
AcDbLine
 10
-81.100798
 20
-80.53360499999999
 30
0.0
 11
-81.100798
 21
-80.716093
 31
0.0
  0
LINE
  5
90
330
7F
100
AcDbEntity
  8
ボルト／ビス
  6
Continuous
 62
    64
100
AcDbLine
 10
-81.53381
 20
-80.53360499999999
 30
0.0
 11
-81.53381
 21
-80.716093
 31
0.0
  0
LINE
  5
91
330
7F
100
AcDbEntity
  8
ボルト／ビス
  6
Continuous
 62
    64
100
AcDbLine
 10
-81.389473
 20
-80.53360499999999
 30
0.0
 11
-81.389473
 21
-80.716093
 31
0.0
  0
LINE
  5
92
330
7F
100
AcDbEntity
  8
ボルト／ビス
  6
Continuous
100
AcDbLine
 10
-81.53381
 20
-80.716093
 30
0.0
 11
-80.95646000000001
 21
-80.716093
 31
0.0
  0
LINE
  5
93
330
7F
100
AcDbEntity
  8
ボルト／ビス
  6
Continuous
100
AcDbLine
 10
-81.545135
 20
-80.716093
 30
0.0
 11
-81.545135
 21
-80.816093
 31
0.0
  0
LINE
  5
94
330
7F
100
AcDbEntity
  8
ボルト／ビス
  6
Continuous
100
AcDbLine
 10
-81.545135
 20
-80.716093
 30
0.0
 11
-80.94513499999999
 21
-80.716093
 31
0.0
  0
LINE
  5
95
330
7F
100
AcDbEntity
  8
ボルト／ビス
  6
Continuous
100
AcDbLine
 10
-80.94513499999999
 20
-80.716093
 30
0.0
 11
-80.94513499999999
 21
-80.816093
 31
0.0
  0
ENDBLK
  5
96
330
7F
100
AcDbEntity
  8
0
100
AcDbBlockEnd
  0
BLOCK
  5
97
330
98
100
AcDbEntity
  8
0
100
AcDbBlockBegin
  2
*U5
 70
     1
 71
     0
 10
0.0
 20
0.0
 30
0.0
  3
*U5
  1

  0
LINE
  5
99
330
98
100
AcDbEntity
  8
寸法
  6
ByBlock
 62
     0
100
AcDbLine
 10
18.520058
 20
-80.96608999999999
 30
0.0
 11
34.149582
 21
-80.96608999999999
 31
0.0
  0
LINE
  5
9A
330
98
100
AcDbEntity
  8
寸法
  6
ByBlock
 62
     0
100
AcDbLine
 10
21.02006
 20
-86.716447
 30
0.0
 11
34.149582
 21
-86.716447
 31
0.0
  0
LINE
  5
9B
330
98
100
AcDbEntity
  8
寸法
  6
ByBlock
 62
     0
100
AcDbLine
 10
34.149582
 20
-80.96608999999999
 30
0.0
 11
34.149582
 21
-86.716447
 31
0.0
  0
POINT
  5
9C
330
98
100
AcDbEntity
  8
寸法
 62
     0
100
AcDbPoint
 10
34.149582
 20
-80.96608999999999
 30
0.0
  0
POINT
  5
9D
330
98
100
AcDbEntity
  8
寸法
 62
     0
100
AcDbPoint
 10
34.149582
 20
-86.716447
 30
0.0
  0
TEXT
  5
9E
330
98
100
AcDbEntity
  8
寸法
  6
Continuous
 62
     0
100
AcDbText
 10
33.7
 20
-86.2625
 30
0.0
 40
3.0
  1
115
 50
90.0
  7
TextStyle03
 72
     5
 11
33.7
 21
-81.3875
 31
0.0
100
AcDbText
  0
ENDBLK
  5
9F
330
98
100
AcDbEntity
  8
0
100
AcDbBlockEnd
  0
BLOCK
  5
A0
330
A1
100
AcDbEntity
  8
0
100
AcDbBlockBegin
  2
*U6
 70
     1
 71
     0
 10
0.0
 20
0.0
 30
0.0
  3
*U6
  1

  0
LINE
  5
A2
330
A1
100
AcDbEntity
  8
寸法
  6
ByBlock
 62
     0
100
AcDbLine
 10
14.504868
 20
-82.966447
 30
0.0
 11
14.504868
 21
-44.812283
 31
0.0
  0
LINE
  5
A3
330
A1
100
AcDbEntity
  8
寸法
  6
ByBlock
 62
     0
100
AcDbLine
 10
9.754865000000001
 20
-44.812283
 30
0.0
 11
14.504868
 21
-44.812283
 31
0.0
  0
POINT
  5
A4
330
A1
100
AcDbEntity
  8
寸法
 62
     0
100
AcDbPoint
 10
9.754865000000001
 20
-44.812283
 30
0.0
  0
POINT
  5
A5
330
A1
100
AcDbEntity
  8
寸法
 62
     0
100
AcDbPoint
 10
14.504868
 20
-44.812283
 30
0.0
  0
TEXT
  5
A6
330
A1
100
AcDbEntity
  8
寸法
  6
Continuous
 62
     0
100
AcDbText
 10
10.53125
 20
-44.45
 30
0.0
 40
3.0
  1
95
  7
TextStyle03
 72
     5
 11
13.71875
 21
-44.45
 31
0.0
100
AcDbText
  0
ENDBLK
  5
A7
330
A1
100
AcDbEntity
  8
0
100
AcDbBlockEnd
  0
BLOCK
  5
A8
330
A9
100
AcDbEntity
  8
0
100
AcDbBlockBegin
  2
*U7
 70
     1
 71
     0
 10
0.0
 20
0.0
 30
0.0
  3
*U7
  1

  0
LINE
  5
AA
330
A9
100
AcDbEntity
  8
ボルト／ビス
  6
Continuous
100
AcDbLine
 10
10.754865
 20
-80.966093
 30
0.0
 11
10.754865
 21
-80.266093
 31
0.0
  0
LINE
  5
AB
330
A9
100
AcDbEntity
  8
ボルト／ビス
  6
Continuous
100
AcDbLine
 10
11.304865
 20
-80.966093
 30
0.0
 11
11.304865
 21
-80.86609300000001
 31
0.0
  0
LINE
  5
AC
330
A9
100
AcDbEntity
  8
ボルト／ビス
  6
Continuous
100
AcDbLine
 10
11.304865
 20
-80.86609300000001
 30
0.0
 11
10.204865
 21
-80.86609300000001
 31
0.0
  0
LINE
  5
AD
330
A9
100
AcDbEntity
  8
ボルト／ビス
  6
Continuous
100
AcDbLine
 10
10.204865
 20
-80.86609300000001
 30
0.0
 11
10.204865
 21
-80.966093
 31
0.0
  0
LINE
  5
AE
330
A9
100
AcDbEntity
  8
ボルト／ビス
  6
Continuous
100
AcDbLine
 10
11.304865
 20
-80.966093
 30
0.0
 11
10.204865
 21
-80.966093
 31
0.0
  0
LINE
  5
AF
330
A9
100
AcDbEntity
  8
ボルト／ビス
  6
Continuous
100
AcDbLine
 10
11.204865
 20
-80.816093
 30
0.0
 11
11.204865
 21
-80.86609300000001
 31
0.0
  0
LINE
  5
B0
330
A9
100
AcDbEntity
  8
ボルト／ビス
  6
Continuous
100
AcDbLine
 10
11.204865
 20
-80.816093
 30
0.0
 11
10.304865
 21
-80.816093
 31
0.0
  0
LINE
  5
B1
330
A9
100
AcDbEntity
  8
ボルト／ビス
  6
Continuous
100
AcDbLine
 10
10.304865
 20
-80.816093
 30
0.0
 11
10.304865
 21
-80.86609300000001
 31
0.0
  0
LINE
  5
B2
330
A9
100
AcDbEntity
  8
ボルト／ビス
  6
Continuous
 62
    64
100
AcDbLine
 10
10.995428
 20
-80.516093
 30
0.0
 11
11.04354
 21
-80.53360499999999
 31
0.0
  0
ARC
  5
B3
330
A9
100
AcDbEntity
  8
ボルト／ビス
  6
Continuous
 62
    64
100
AcDbCircle
 10
10.97137
 20
-80.67356
 30
0.0
 40
0.157468
100
AcDbArc
 50
90.0
 51
117.278033
  0
ARC
  5
B4
330
A9
100
AcDbEntity
  8
ボルト／ビス
  6
Continuous
 62
    64
100
AcDbCircle
 10
10.754863
 20
-81.11969600000001
 30
0.0
 40
0.603603
100
AcDbArc
 50
76.165015
 51
103.834998
  0
LINE
  5
B5
330
A9
100
AcDbEntity
  8
ボルト／ビス
  6
Continuous
 62
    64
100
AcDbLine
 10
10.514302
 20
-80.516093
 30
0.0
 11
10.46619
 21
-80.53360499999999
 31
0.0
  0
ARC
  5
B6
330
A9
100
AcDbEntity
  8
ボルト／ビス
  6
Continuous
 62
    64
100
AcDbCircle
 10
10.538357
 20
-80.67356
 30
0.0
 40
0.157468
100
AcDbArc
 50
62.721967
 51
90.0
  0
LINE
  5
B7
330
A9
100
AcDbEntity
  8
ボルト／ビス
  6
Continuous
 62
    64
100
AcDbLine
 10
10.995428
 20
-80.516093
 30
0.0
 11
10.514302
 21
-80.516093
 31
0.0
  0
LINE
  5
B8
330
A9
100
AcDbEntity
  8
ボルト／ビス
  6
Continuous
 62
    64
100
AcDbLine
 10
10.46619
 20
-80.53360499999999
 30
0.0
 11
10.46619
 21
-80.716093
 31
0.0
  0
LINE
  5
B9
330
A9
100
AcDbEntity
  8
ボルト／ビス
  6
Continuous
 62
    64
100
AcDbLine
 10
10.610527
 20
-80.53360499999999
 30
0.0
 11
10.610527
 21
-80.716093
 31
0.0
  0
LINE
  5
BA
330
A9
100
AcDbEntity
  8
ボルト／ビス
  6
Continuous
 62
    64
100
AcDbLine
 10
11.04354
 20
-80.53360499999999
 30
0.0
 11
11.04354
 21
-80.716093
 31
0.0
  0
LINE
  5
BB
330
A9
100
AcDbEntity
  8
ボルト／ビス
  6
Continuous
 62
    64
100
AcDbLine
 10
10.899202
 20
-80.53360499999999
 30
0.0
 11
10.899202
 21
-80.716093
 31
0.0
  0
LINE
  5
BC
330
A9
100
AcDbEntity
  8
ボルト／ビス
  6
Continuous
100
AcDbLine
 10
11.04354
 20
-80.716093
 30
0.0
 11
10.46619
 21
-80.716093
 31
0.0
  0
LINE
  5
BD
330
A9
100
AcDbEntity
  8
ボルト／ビス
  6
Continuous
100
AcDbLine
 10
11.054865
 20
-80.716093
 30
0.0
 11
11.054865
 21
-80.816093
 31
0.0
  0
LINE
  5
BE
330
A9
100
AcDbEntity
  8
ボルト／ビス
  6
Continuous
100
AcDbLine
 10
11.054865
 20
-80.716093
 30
0.0
 11
10.454865
 21
-80.716093
 31
0.0
  0
LINE
  5
BF
330
A9
100
AcDbEntity
  8
ボルト／ビス
  6
Continuous
100
AcDbLine
 10
10.454865
 20
-80.716093
 30
0.0
 11
10.454865
 21
-80.816093
 31
0.0
  0
ENDBLK
  5
C0
330
A9
100
AcDbEntity
  8
0
100
AcDbBlockEnd
  0
BLOCK
  5
C1
330
C2
100
AcDbEntity
  8
0
100
AcDbBlockBegin
  2
*U8
 70
     1
 71
     0
 10
0.0
 20
0.0
 30
0.0
  3
*U8
  1

  0
LINE
  5
C3
330
C2
100
AcDbEntity
  8
寸法
  6
ByBlock
 62
     0
100
AcDbLine
 10
-70.24513500000001
 20
103.229165
 30
0.0
 11
-70.24513500000001
 21
114.15992
 31
0.0
  0
LINE
  5
C4
330
C2
100
AcDbEntity
  8
寸法
  6
ByBlock
 62
     0
100
AcDbLine
 10
-35.245135
 20
103.229165
 30
0.0
 11
-35.245135
 21
114.15992
 31
0.0
  0
LINE
  5
C5
330
C2
100
AcDbEntity
  8
寸法
  6
ByBlock
 62
     0
100
AcDbLine
 10
-70.24513500000001
 20
114.15992
 30
0.0
 11
-35.245135
 21
114.15992
 31
0.0
  0
POINT
  5
C6
330
C2
100
AcDbEntity
  8
寸法
 62
     0
100
AcDbPoint
 10
-70.24513500000001
 20
114.15992
 30
0.0
  0
POINT
  5
C7
330
C2
100
AcDbEntity
  8
寸法
 62
     0
100
AcDbPoint
 10
-35.245135
 20
114.15992
 30
0.0
  0
TEXT
  5
C8
330
C2
100
AcDbEntity
  8
寸法
  6
Continuous
 62
     0
100
AcDbText
 10
-55.2125
 20
114.55
 30
0.0
 40
3.0
  1
700
  7
TextStyle03
 72
     5
 11
-50.3375
 21
114.55
 31
0.0
100
AcDbText
  0
ENDBLK
  5
C9
330
C2
100
AcDbEntity
  8
0
100
AcDbBlockEnd
  0
BLOCK
  5
CA
330
CB
100
AcDbEntity
  8
0
100
AcDbBlockBegin
  2
*U9
 70
     1
 71
     0
 10
0.0
 20
0.0
 30
0.0
  3
*U9
  1

  0
LINE
  5
CC
330
CB
100
AcDbEntity
  8
寸法
  6
ByBlock
 62
     0
100
AcDbLine
 10
-0.245135
 20
103.229165
 30
0.0
 11
-0.245135
 21
114.15992
 31
0.0
  0
LINE
  5
CD
330
CB
100
AcDbEntity
  8
寸法
  6
ByBlock
 62
     0
100
AcDbLine
 10
-35.245135
 20
114.15992
 30
0.0
 11
-0.245135
 21
114.15992
 31
0.0
  0
POINT
  5
CE
330
CB
100
AcDbEntity
  8
寸法
 62
     0
100
AcDbPoint
 10
-0.245135
 20
114.15992
 30
0.0
  0
TEXT
  5
CF
330
CB
100
AcDbEntity
  8
寸法
  6
Continuous
 62
     0
100
AcDbText
 10
-20.2125
 20
114.55
 30
0.0
 40
3.0
  1
700
  7
TextStyle03
 72
     5
 11
-15.3375
 21
114.55
 31
0.0
100
AcDbText
  0
ENDBLK
  5
D0
330
CB
100
AcDbEntity
  8
0
100
AcDbBlockEnd
  0
BLOCK
  5
D1
330
D2
100
AcDbEntity
  8
0
100
AcDbBlockBegin
  2
*U10
 70
     1
 71
     0
 10
0.0
 20
0.0
 30
0.0
  3
*U10
  1

  0
LINE
  5
D3
330
D2
100
AcDbEntity
  8
寸法
  6
Continuous
100
AcDbLine
 10
144.842052
 20
75.371625
 30
0.0
 11
144.842052
 21
85.58137000000001
 31
0.0
  0
LINE
  5
D4
330
D2
100
AcDbEntity
  8
寸法
  6
Continuous
100
AcDbLine
 10
100.892052
 20
75.371625
 30
0.0
 11
100.892052
 21
85.58137000000001
 31
0.0
  0
LINE
  5
D5
330
D2
100
AcDbEntity
  8
寸法
  6
Continuous
100
AcDbLine
 10
144.842052
 20
85.58137000000001
 30
0.0
 11
100.892052
 21
85.58137000000001
 31
0.0
  0
POINT
  5
D6
330
D2
100
AcDbEntity
  8
寸法
100
AcDbPoint
 10
144.842052
 20
85.58137000000001
 30
0.0
  0
POINT
  5
D7
330
D2
100
AcDbEntity
  8
寸法
100
AcDbPoint
 10
100.892052
 20
85.58137000000001
 30
0.0
  0
TEXT
  5
D8
330
D2
100
AcDbEntity
  8
寸法
  6
Continuous
100
AcDbText
 10
120.4375
 20
85.95
 30
0.0
 40
3.0
  1
879
  7
TextStyle03
 72
     5
 11
125.3125
 21
85.95
 31
0.0
100
AcDbText
  0
ENDBLK
  5
D9
330
D2
100
AcDbEntity
  8
0
100
AcDbBlockEnd
  0
BLOCK
  5
DA
330
DB
100
AcDbEntity
  8
0
100
AcDbBlockBegin
  2
*U11
 70
     1
 71
     0
 10
0.0
 20
0.0
 30
0.0
  3
*U11
  1

  0
LINE
  5
DC
330
DB
100
AcDbEntity
  8
寸法
  6
Continuous
100
AcDbLine
 10
149.842052
 20
70.371625
 30
0.0
 11
161.347725
 21
70.371625
 31
0.0
  0
LINE
  5
DD
330
DB
100
AcDbEntity
  8
寸法
  6
Continuous
100
AcDbLine
 10
149.842052
 20
26.421625
 30
0.0
 11
161.347725
 21
26.421625
 31
0.0
  0
LINE
  5
DE
330
DB
100
AcDbEntity
  8
寸法
  6
Continuous
100
AcDbLine
 10
161.347725
 20
70.371625
 30
0.0
 11
161.347725
 21
26.421625
 31
0.0
  0
POINT
  5
DF
330
DB
100
AcDbEntity
  8
寸法
100
AcDbPoint
 10
161.347725
 20
70.371625
 30
0.0
  0
POINT
  5
E0
330
DB
100
AcDbEntity
  8
寸法
100
AcDbPoint
 10
161.347725
 20
26.421625
 30
0.0
  0
TEXT
  5
E1
330
DB
100
AcDbEntity
  8
寸法
  6
Continuous
100
AcDbText
 10
160.975
 20
45.9625
 30
0.0
 40
3.0
  1
879
 50
90.0
  7
TextStyle03
 72
     5
 11
160.975
 21
50.8375
 31
0.0
100
AcDbText
  0
ENDBLK
  5
E2
330
DB
100
AcDbEntity
  8
0
100
AcDbBlockEnd
  0
BLOCK
  5
E3
330
E4
100
AcDbEntity
  8
0
100
AcDbBlockBegin
  2
*U12
 70
     1
 71
     0
 10
0.0
 20
0.0
 30
0.0
  3
*U12
  1

  0
LINE
  5
E5
330
E4
100
AcDbEntity
  8
寸法
  6
Continuous
100
AcDbLine
 10
9.754865000000001
 20
-44.812283
 30
0.0
 11
-80.24513500000001
 21
-44.812283
 31
0.0
  0
POINT
  5
E6
330
E4
100
AcDbEntity
  8
寸法
100
AcDbPoint
 10
9.754865000000001
 20
-44.812283
 30
0.0
  0
POINT
  5
E7
330
E4
100
AcDbEntity
  8
寸法
100
AcDbPoint
 10
-80.24513500000001
 20
-44.812283
 30
0.0
  0
TEXT
  5
E8
330
E4
100
AcDbEntity
  8
寸法
  6
Continuous
100
AcDbText
 10
-46.96875
 20
-44.45
 30
0.0
 40
3.0
  1
呼称寸法　1800
  7
TextStyle03
 72
     5
 11
-23.53125
 21
-44.45
 31
0.0
100
AcDbText
  0
ENDBLK
  5
E9
330
E4
100
AcDbEntity
  8
0
100
AcDbBlockEnd
  0
BLOCK
  5
EA
330
EB
100
AcDbEntity
  8
0
100
AcDbBlockBegin
  2
*U13
 70
     1
 71
     0
 10
0.0
 20
0.0
 30
0.0
  3
*U13
  1

  0
LINE
  5
EC
330
EB
100
AcDbEntity
  8
寸法
  6
Continuous
100
AcDbLine
 10
17.254865
 20
-80.96608999999999
 30
0.0
 11
34.149582
 21
-80.96608999999999
 31
0.0
  0
LINE
  5
ED
330
EB
100
AcDbEntity
  8
寸法
  6
Continuous
100
AcDbLine
 10
-30.245135
 20
-58.46609
 30
0.0
 11
34.149582
 21
-58.46609
 31
0.0
  0
LINE
  5
EE
330
EB
100
AcDbEntity
  8
寸法
  6
Continuous
100
AcDbLine
 10
34.149582
 20
-80.96608999999999
 30
0.0
 11
34.149582
 21
-58.46609
 31
0.0
  0
POINT
  5
EF
330
EB
100
AcDbEntity
  8
寸法
100
AcDbPoint
 10
34.149582
 20
-80.96608999999999
 30
0.0
  0
POINT
  5
F0
330
EB
100
AcDbEntity
  8
寸法
100
AcDbPoint
 10
34.149582
 20
-58.46609
 30
0.0
  0
TEXT
  5
F1
330
EB
100
AcDbEntity
  8
寸法
  6
Continuous
100
AcDbText
 10
33.75
 20
-72.16249999999999
 30
0.0
 40
3.0
  1
450
 50
90.0
  7
TextStyle03
 72
     5
 11
33.75
 21
-67.28749999999999
 31
0.0
100
AcDbText
  0
ENDBLK
  5
F2
330
EB
100
AcDbEntity
  8
0
100
AcDbBlockEnd
  0
BLOCK
  5
F3
330
F4
100
AcDbEntity
  8
0
100
AcDbBlockBegin
  2
*U14
 70
     1
 71
     0
 10
0.0
 20
0.0
 30
0.0
  3
*U14
  1

  0
INSERT
  5
F5
330
F4
100
AcDbEntity
  8
補助線
  6
Continuous
100
AcDbBlockReference
  2
*U15
 10
0.0
 20
0.0
 30
0.0
  0
LINE
  5
F6
330
F4
100
AcDbEntity
  8
ボルト／ビス
  6
Continuous
100
AcDbLine
 10
-72.74513500000001
 20
79.26284
 30
0.0
 11
-72.49513500000001
 21
79.118503
 31
0.0
  0
LINE
  5
F7
330
F4
100
AcDbEntity
  8
ボルト／ビス
  6
Continuous
100
AcDbLine
 10
-72.74513500000001
 20
79.26284
 30
0.0
 11
-72.99513500000001
 21
79.118503
 31
0.0
  0
LINE
  5
F8
330
F4
100
AcDbEntity
  8
ボルト／ビス
  6
Continuous
100
AcDbLine
 10
-72.49513500000001
 20
78.829827
 30
0.0
 11
-72.74513500000001
 21
78.68549
 31
0.0
  0
LINE
  5
F9
330
F4
100
AcDbEntity
  8
ボルト／ビス
  6
Continuous
100
AcDbLine
 10
-72.99513500000001
 20
78.829827
 30
0.0
 11
-72.74513500000001
 21
78.68549
 31
0.0
  0
CIRCLE
  5
FA
330
F4
100
AcDbEntity
  8
ボルト／ビス
  6
Continuous
100
AcDbCircle
 10
-72.74513500000001
 20
78.974165
 30
0.0
 40
0.25
  0
LINE
  5
FB
330
F4
100
AcDbEntity
  8
ボルト／ビス
  6
Continuous
100
AcDbLine
 10
-72.99513500000001
 20
79.118503
 30
0.0
 11
-72.99513500000001
 21
78.829827
 31
0.0
  0
LINE
  5
FC
330
F4
100
AcDbEntity
  8
ボルト／ビス
  6
Continuous
100
AcDbLine
 10
-72.49513500000001
 20
78.829827
 30
0.0
 11
-72.49513500000001
 21
79.118503
 31
0.0
  0
ENDBLK
  5
FD
330
F4
100
AcDbEntity
  8
0
100
AcDbBlockEnd
  0
BLOCK
  5
FE
330
FF
100
AcDbEntity
  8
0
100
AcDbBlockBegin
  2
*U15
 70
     1
 71
     0
 10
0.0
 20
0.0
 30
0.0
  3
*U15
  1

  0
LINE
  5
100
330
FF
100
AcDbEntity
  8
補助線
  6
ByBlock
 62
     0
100
AcDbLine
 10
-72.87013500000001
 20
78.974165
 30
0.0
 11
-72.62013500000001
 21
78.974165
 31
0.0
  0
LINE
  5
101
330
FF
100
AcDbEntity
  8
補助線
  6
ByBlock
 62
     0
100
AcDbLine
 10
-72.74513500000001
 20
79.099165
 30
0.0
 11
-72.74513500000001
 21
78.849165
 31
0.0
  0
ENDBLK
  5
102
330
FF
100
AcDbEntity
  8
0
100
AcDbBlockEnd
  0
BLOCK
  5
103
330
104
100
AcDbEntity
  8
0
100
AcDbBlockBegin
  2
*U16
 70
     1
 71
     0
 10
0.0
 20
0.0
 30
0.0
  3
*U16
  1

  0
INSERT
  5
105
330
104
100
AcDbEntity
  8
補助線
  6
Continuous
100
AcDbBlockReference
  2
*U17
 10
0.0
 20
0.0
 30
0.0
  0
LINE
  5
106
330
104
100
AcDbEntity
  8
ボルト／ビス
  6
Continuous
100
AcDbLine
 10
-57.745135
 20
79.26284
 30
0.0
 11
-57.495135
 21
79.118503
 31
0.0
  0
LINE
  5
107
330
104
100
AcDbEntity
  8
ボルト／ビス
  6
Continuous
100
AcDbLine
 10
-57.745135
 20
79.26284
 30
0.0
 11
-57.995135
 21
79.118503
 31
0.0
  0
LINE
  5
108
330
104
100
AcDbEntity
  8
ボルト／ビス
  6
Continuous
100
AcDbLine
 10
-57.495135
 20
78.829827
 30
0.0
 11
-57.745135
 21
78.68549
 31
0.0
  0
LINE
  5
109
330
104
100
AcDbEntity
  8
ボルト／ビス
  6
Continuous
100
AcDbLine
 10
-57.995135
 20
78.829827
 30
0.0
 11
-57.745135
 21
78.68549
 31
0.0
  0
CIRCLE
  5
10A
330
104
100
AcDbEntity
  8
ボルト／ビス
  6
Continuous
100
AcDbCircle
 10
-57.745135
 20
78.974165
 30
0.0
 40
0.25
  0
LINE
  5
10B
330
104
100
AcDbEntity
  8
ボルト／ビス
  6
Continuous
100
AcDbLine
 10
-57.995135
 20
79.118503
 30
0.0
 11
-57.995135
 21
78.829827
 31
0.0
  0
LINE
  5
10C
330
104
100
AcDbEntity
  8
ボルト／ビス
  6
Continuous
100
AcDbLine
 10
-57.495135
 20
78.829827
 30
0.0
 11
-57.495135
 21
79.118503
 31
0.0
  0
ENDBLK
  5
10D
330
104
100
AcDbEntity
  8
0
100
AcDbBlockEnd
  0
BLOCK
  5
10E
330
10F
100
AcDbEntity
  8
0
100
AcDbBlockBegin
  2
*U17
 70
     1
 71
     0
 10
0.0
 20
0.0
 30
0.0
  3
*U17
  1

  0
LINE
  5
110
330
10F
100
AcDbEntity
  8
補助線
  6
ByBlock
 62
     0
100
AcDbLine
 10
-57.870135
 20
78.974165
 30
0.0
 11
-57.620135
 21
78.974165
 31
0.0
  0
LINE
  5
111
330
10F
100
AcDbEntity
  8
補助線
  6
ByBlock
 62
     0
100
AcDbLine
 10
-57.745135
 20
79.099165
 30
0.0
 11
-57.745135
 21
78.849165
 31
0.0
  0
ENDBLK
  5
112
330
10F
100
AcDbEntity
  8
0
100
AcDbBlockEnd
  0
BLOCK
  5
113
330
114
100
AcDbEntity
  8
0
100
AcDbBlockBegin
  2
*U18
 70
     1
 71
     0
 10
0.0
 20
0.0
 30
0.0
  3
*U18
  1

  0
INSERT
  5
115
330
114
100
AcDbEntity
  8
補助線
  6
Continuous
100
AcDbBlockReference
  2
*U19
 10
0.0
 20
0.0
 30
0.0
  0
LINE
  5
116
330
114
100
AcDbEntity
  8
ボルト／ビス
  6
Continuous
100
AcDbLine
 10
-42.745135
 20
79.26284
 30
0.0
 11
-42.495135
 21
79.118503
 31
0.0
  0
LINE
  5
117
330
114
100
AcDbEntity
  8
ボルト／ビス
  6
Continuous
100
AcDbLine
 10
-42.745135
 20
79.26284
 30
0.0
 11
-42.995135
 21
79.118503
 31
0.0
  0
LINE
  5
118
330
114
100
AcDbEntity
  8
ボルト／ビス
  6
Continuous
100
AcDbLine
 10
-42.495135
 20
78.829827
 30
0.0
 11
-42.745135
 21
78.68549
 31
0.0
  0
LINE
  5
119
330
114
100
AcDbEntity
  8
ボルト／ビス
  6
Continuous
100
AcDbLine
 10
-42.995135
 20
78.829827
 30
0.0
 11
-42.745135
 21
78.68549
 31
0.0
  0
CIRCLE
  5
11A
330
114
100
AcDbEntity
  8
ボルト／ビス
  6
Continuous
100
AcDbCircle
 10
-42.745135
 20
78.974165
 30
0.0
 40
0.25
  0
LINE
  5
11B
330
114
100
AcDbEntity
  8
ボルト／ビス
  6
Continuous
100
AcDbLine
 10
-42.995135
 20
79.118503
 30
0.0
 11
-42.995135
 21
78.829827
 31
0.0
  0
LINE
  5
11C
330
114
100
AcDbEntity
  8
ボルト／ビス
  6
Continuous
100
AcDbLine
 10
-42.495135
 20
78.829827
 30
0.0
 11
-42.495135
 21
79.118503
 31
0.0
  0
ENDBLK
  5
11D
330
114
100
AcDbEntity
  8
0
100
AcDbBlockEnd
  0
BLOCK
  5
11E
330
11F
100
AcDbEntity
  8
0
100
AcDbBlockBegin
  2
*U19
 70
     1
 71
     0
 10
0.0
 20
0.0
 30
0.0
  3
*U19
  1

  0
LINE
  5
120
330
11F
100
AcDbEntity
  8
補助線
  6
ByBlock
 62
     0
100
AcDbLine
 10
-42.870135
 20
78.974165
 30
0.0
 11
-42.620135
 21
78.974165
 31
0.0
  0
LINE
  5
121
330
11F
100
AcDbEntity
  8
補助線
  6
ByBlock
 62
     0
100
AcDbLine
 10
-42.745135
 20
79.099165
 30
0.0
 11
-42.745135
 21
78.849165
 31
0.0
  0
ENDBLK
  5
122
330
11F
100
AcDbEntity
  8
0
100
AcDbBlockEnd
  0
BLOCK
  5
123
330
124
100
AcDbEntity
  8
0
100
AcDbBlockBegin
  2
*U20
 70
     1
 71
     0
 10
0.0
 20
0.0
 30
0.0
  3
*U20
  1

  0
INSERT
  5
125
330
124
100
AcDbEntity
  8
補助線
  6
Continuous
100
AcDbBlockReference
  2
*U21
 10
0.0
 20
0.0
 30
0.0
  0
LINE
  5
126
330
124
100
AcDbEntity
  8
ボルト／ビス
  6
Continuous
100
AcDbLine
 10
-27.745135
 20
79.26284
 30
0.0
 11
-27.495135
 21
79.118503
 31
0.0
  0
LINE
  5
127
330
124
100
AcDbEntity
  8
ボルト／ビス
  6
Continuous
100
AcDbLine
 10
-27.745135
 20
79.26284
 30
0.0
 11
-27.995135
 21
79.118503
 31
0.0
  0
LINE
  5
128
330
124
100
AcDbEntity
  8
ボルト／ビス
  6
Continuous
100
AcDbLine
 10
-27.495135
 20
78.829827
 30
0.0
 11
-27.745135
 21
78.68549
 31
0.0
  0
LINE
  5
129
330
124
100
AcDbEntity
  8
ボルト／ビス
  6
Continuous
100
AcDbLine
 10
-27.995135
 20
78.829827
 30
0.0
 11
-27.745135
 21
78.68549
 31
0.0
  0
CIRCLE
  5
12A
330
124
100
AcDbEntity
  8
ボルト／ビス
  6
Continuous
100
AcDbCircle
 10
-27.745135
 20
78.974165
 30
0.0
 40
0.25
  0
LINE
  5
12B
330
124
100
AcDbEntity
  8
ボルト／ビス
  6
Continuous
100
AcDbLine
 10
-27.995135
 20
79.118503
 30
0.0
 11
-27.995135
 21
78.829827
 31
0.0
  0
LINE
  5
12C
330
124
100
AcDbEntity
  8
ボルト／ビス
  6
Continuous
100
AcDbLine
 10
-27.495135
 20
78.829827
 30
0.0
 11
-27.495135
 21
79.118503
 31
0.0
  0
ENDBLK
  5
12D
330
124
100
AcDbEntity
  8
0
100
AcDbBlockEnd
  0
BLOCK
  5
12E
330
12F
100
AcDbEntity
  8
0
100
AcDbBlockBegin
  2
*U21
 70
     1
 71
     0
 10
0.0
 20
0.0
 30
0.0
  3
*U21
  1

  0
LINE
  5
130
330
12F
100
AcDbEntity
  8
補助線
  6
ByBlock
 62
     0
100
AcDbLine
 10
-27.870135
 20
78.974165
 30
0.0
 11
-27.620135
 21
78.974165
 31
0.0
  0
LINE
  5
131
330
12F
100
AcDbEntity
  8
補助線
  6
ByBlock
 62
     0
100
AcDbLine
 10
-27.745135
 20
79.099165
 30
0.0
 11
-27.745135
 21
78.849165
 31
0.0
  0
ENDBLK
  5
132
330
12F
100
AcDbEntity
  8
0
100
AcDbBlockEnd
  0
BLOCK
  5
133
330
134
100
AcDbEntity
  8
0
100
AcDbBlockBegin
  2
*U22
 70
     1
 71
     0
 10
0.0
 20
0.0
 30
0.0
  3
*U22
  1

  0
INSERT
  5
135
330
134
100
AcDbEntity
  8
補助線
  6
Continuous
100
AcDbBlockReference
  2
*U23
 10
0.0
 20
0.0
 30
0.0
  0
LINE
  5
136
330
134
100
AcDbEntity
  8
ボルト／ビス
  6
Continuous
100
AcDbLine
 10
-12.745135
 20
79.26284
 30
0.0
 11
-12.995135
 21
79.118503
 31
0.0
  0
LINE
  5
137
330
134
100
AcDbEntity
  8
ボルト／ビス
  6
Continuous
100
AcDbLine
 10
-12.745135
 20
79.26284
 30
0.0
 11
-12.495135
 21
79.118503
 31
0.0
  0
LINE
  5
138
330
134
100
AcDbEntity
  8
ボルト／ビス
  6
Continuous
100
AcDbLine
 10
-12.995135
 20
78.829827
 30
0.0
 11
-12.745135
 21
78.68549
 31
0.0
  0
LINE
  5
139
330
134
100
AcDbEntity
  8
ボルト／ビス
  6
Continuous
100
AcDbLine
 10
-12.495135
 20
78.829827
 30
0.0
 11
-12.745135
 21
78.68549
 31
0.0
  0
CIRCLE
  5
13A
330
134
100
AcDbEntity
  8
ボルト／ビス
  6
Continuous
100
AcDbCircle
 10
-12.745135
 20
78.974165
 30
0.0
 40
0.25
  0
LINE
  5
13B
330
134
100
AcDbEntity
  8
ボルト／ビス
  6
Continuous
100
AcDbLine
 10
-12.495135
 20
79.118503
 30
0.0
 11
-12.495135
 21
78.829827
 31
0.0
  0
LINE
  5
13C
330
134
100
AcDbEntity
  8
ボルト／ビス
  6
Continuous
100
AcDbLine
 10
-12.995135
 20
78.829827
 30
0.0
 11
-12.995135
 21
79.118503
 31
0.0
  0
ENDBLK
  5
13D
330
134
100
AcDbEntity
  8
0
100
AcDbBlockEnd
  0
BLOCK
  5
13E
330
13F
100
AcDbEntity
  8
0
100
AcDbBlockBegin
  2
*U23
 70
     1
 71
     0
 10
0.0
 20
0.0
 30
0.0
  3
*U23
  1

  0
LINE
  5
140
330
13F
100
AcDbEntity
  8
補助線
  6
ByBlock
 62
     0
100
AcDbLine
 10
-12.620135
 20
78.974165
 30
0.0
 11
-12.870135
 21
78.974165
 31
0.0
  0
LINE
  5
141
330
13F
100
AcDbEntity
  8
補助線
  6
ByBlock
 62
     0
100
AcDbLine
 10
-12.745135
 20
79.099165
 30
0.0
 11
-12.745135
 21
78.849165
 31
0.0
  0
ENDBLK
  5
142
330
13F
100
AcDbEntity
  8
0
100
AcDbBlockEnd
  0
BLOCK
  5
143
330
144
100
AcDbEntity
  8
0
100
AcDbBlockBegin
  2
*U24
 70
     1
 71
     0
 10
0.0
 20
0.0
 30
0.0
  3
*U24
  1

  0
INSERT
  5
145
330
144
100
AcDbEntity
  8
補助線
  6
Continuous
100
AcDbBlockReference
  2
*U25
 10
0.0
 20
0.0
 30
0.0
  0
LINE
  5
146
330
144
100
AcDbEntity
  8
ボルト／ビス
  6
Continuous
100
AcDbLine
 10
2.254865
 20
79.26284
 30
0.0
 11
2.004865
 21
79.118503
 31
0.0
  0
LINE
  5
147
330
144
100
AcDbEntity
  8
ボルト／ビス
  6
Continuous
100
AcDbLine
 10
2.254865
 20
79.26284
 30
0.0
 11
2.504865
 21
79.118503
 31
0.0
  0
LINE
  5
148
330
144
100
AcDbEntity
  8
ボルト／ビス
  6
Continuous
100
AcDbLine
 10
2.004865
 20
78.829827
 30
0.0
 11
2.254865
 21
78.68549
 31
0.0
  0
LINE
  5
149
330
144
100
AcDbEntity
  8
ボルト／ビス
  6
Continuous
100
AcDbLine
 10
2.504865
 20
78.829827
 30
0.0
 11
2.254865
 21
78.68549
 31
0.0
  0
CIRCLE
  5
14A
330
144
100
AcDbEntity
  8
ボルト／ビス
  6
Continuous
100
AcDbCircle
 10
2.254865
 20
78.974165
 30
0.0
 40
0.25
  0
LINE
  5
14B
330
144
100
AcDbEntity
  8
ボルト／ビス
  6
Continuous
100
AcDbLine
 10
2.504865
 20
79.118503
 30
0.0
 11
2.504865
 21
78.829827
 31
0.0
  0
LINE
  5
14C
330
144
100
AcDbEntity
  8
ボルト／ビス
  6
Continuous
100
AcDbLine
 10
2.004865
 20
78.829827
 30
0.0
 11
2.004865
 21
79.118503
 31
0.0
  0
ENDBLK
  5
14D
330
144
100
AcDbEntity
  8
0
100
AcDbBlockEnd
  0
BLOCK
  5
14E
330
14F
100
AcDbEntity
  8
0
100
AcDbBlockBegin
  2
*U25
 70
     1
 71
     0
 10
0.0
 20
0.0
 30
0.0
  3
*U25
  1

  0
LINE
  5
150
330
14F
100
AcDbEntity
  8
補助線
  6
ByBlock
 62
     0
100
AcDbLine
 10
2.379865
 20
78.974165
 30
0.0
 11
2.129865
 21
78.974165
 31
0.0
  0
LINE
  5
151
330
14F
100
AcDbEntity
  8
補助線
  6
ByBlock
 62
     0
100
AcDbLine
 10
2.254865
 20
79.099165
 30
0.0
 11
2.254865
 21
78.849165
 31
0.0
  0
ENDBLK
  5
152
330
14F
100
AcDbEntity
  8
0
100
AcDbBlockEnd
  0
BLOCK
  5
153
330
154
100
AcDbEntity
  8
0
100
AcDbBlockBegin
  2
*U26
 70
     1
 71
     0
 10
0.0
 20
0.0
 30
0.0
  3
*U26
  1

  0
INSERT
  5
155
330
154
100
AcDbEntity
  8
補助線
  6
Continuous
100
AcDbBlockReference
  2
*U32
 10
0.0
 20
0.0
 30
0.0
  0
LINE
  5
156
330
154
100
AcDbEntity
  8
ボルト／ビス
  6
Continuous
100
AcDbLine
 10
11.04354
 20
-4.525835
 30
0.0
 11
10.899202
 21
-4.275835
 31
0.0
  0
LINE
  5
157
330
154
100
AcDbEntity
  8
ボルト／ビス
  6
Continuous
100
AcDbLine
 10
11.04354
 20
-4.525835
 30
0.0
 11
10.899202
 21
-4.775835
 31
0.0
  0
LINE
  5
158
330
154
100
AcDbEntity
  8
ボルト／ビス
  6
Continuous
100
AcDbLine
 10
10.610527
 20
-4.275835
 30
0.0
 11
10.46619
 21
-4.525835
 31
0.0
  0
LINE
  5
159
330
154
100
AcDbEntity
  8
ボルト／ビス
  6
Continuous
100
AcDbLine
 10
10.610527
 20
-4.775835
 30
0.0
 11
10.46619
 21
-4.525835
 31
0.0
  0
CIRCLE
  5
15A
330
154
100
AcDbEntity
  8
ボルト／ビス
  6
Continuous
100
AcDbCircle
 10
10.754865
 20
-4.525835
 30
0.0
 40
0.25
  0
LINE
  5
15B
330
154
100
AcDbEntity
  8
ボルト／ビス
  6
Continuous
100
AcDbLine
 10
10.899202
 20
-4.775835
 30
0.0
 11
10.610527
 21
-4.775835
 31
0.0
  0
LINE
  5
15C
330
154
100
AcDbEntity
  8
ボルト／ビス
  6
Continuous
100
AcDbLine
 10
10.610527
 20
-4.275835
 30
0.0
 11
10.899202
 21
-4.275835
 31
0.0
  0
ENDBLK
  5
15D
330
154
100
AcDbEntity
  8
0
100
AcDbBlockEnd
  0
BLOCK
  5
15E
330
15F
100
AcDbEntity
  8
0
100
AcDbBlockBegin
  2
*U27
 70
     1
 71
     0
 10
0.0
 20
0.0
 30
0.0
  3
*U27
  1

  0
INSERT
  5
160
330
15F
100
AcDbEntity
  8
補助線
  6
Continuous
100
AcDbBlockReference
  2
*U33
 10
0.0
 20
0.0
 30
0.0
  0
LINE
  5
161
330
15F
100
AcDbEntity
  8
ボルト／ビス
  6
Continuous
100
AcDbLine
 10
11.04354
 20
10.474165
 30
0.0
 11
10.899202
 21
10.724165
 31
0.0
  0
LINE
  5
162
330
15F
100
AcDbEntity
  8
ボルト／ビス
  6
Continuous
100
AcDbLine
 10
11.04354
 20
10.474165
 30
0.0
 11
10.899202
 21
10.224165
 31
0.0
  0
LINE
  5
163
330
15F
100
AcDbEntity
  8
ボルト／ビス
  6
Continuous
100
AcDbLine
 10
10.610527
 20
10.724165
 30
0.0
 11
10.46619
 21
10.474165
 31
0.0
  0
LINE
  5
164
330
15F
100
AcDbEntity
  8
ボルト／ビス
  6
Continuous
100
AcDbLine
 10
10.610527
 20
10.224165
 30
0.0
 11
10.46619
 21
10.474165
 31
0.0
  0
CIRCLE
  5
165
330
15F
100
AcDbEntity
  8
ボルト／ビス
  6
Continuous
100
AcDbCircle
 10
10.754865
 20
10.474165
 30
0.0
 40
0.25
  0
LINE
  5
166
330
15F
100
AcDbEntity
  8
ボルト／ビス
  6
Continuous
100
AcDbLine
 10
10.899202
 20
10.224165
 30
0.0
 11
10.610527
 21
10.224165
 31
0.0
  0
LINE
  5
167
330
15F
100
AcDbEntity
  8
ボルト／ビス
  6
Continuous
100
AcDbLine
 10
10.610527
 20
10.724165
 30
0.0
 11
10.899202
 21
10.724165
 31
0.0
  0
ENDBLK
  5
168
330
15F
100
AcDbEntity
  8
0
100
AcDbBlockEnd
  0
BLOCK
  5
169
330
16A
100
AcDbEntity
  8
0
100
AcDbBlockBegin
  2
*U28
 70
     1
 71
     0
 10
0.0
 20
0.0
 30
0.0
  3
*U28
  1

  0
INSERT
  5
16B
330
16A
100
AcDbEntity
  8
補助線
  6
Continuous
100
AcDbBlockReference
  2
*U34
 10
0.0
 20
0.0
 30
0.0
  0
LINE
  5
16C
330
16A
100
AcDbEntity
  8
ボルト／ビス
  6
Continuous
100
AcDbLine
 10
11.04354
 20
25.474165
 30
0.0
 11
10.899202
 21
25.724165
 31
0.0
  0
LINE
  5
16D
330
16A
100
AcDbEntity
  8
ボルト／ビス
  6
Continuous
100
AcDbLine
 10
11.04354
 20
25.474165
 30
0.0
 11
10.899202
 21
25.224165
 31
0.0
  0
LINE
  5
16E
330
16A
100
AcDbEntity
  8
ボルト／ビス
  6
Continuous
100
AcDbLine
 10
10.610527
 20
25.724165
 30
0.0
 11
10.46619
 21
25.474165
 31
0.0
  0
LINE
  5
16F
330
16A
100
AcDbEntity
  8
ボルト／ビス
  6
Continuous
100
AcDbLine
 10
10.610527
 20
25.224165
 30
0.0
 11
10.46619
 21
25.474165
 31
0.0
  0
CIRCLE
  5
170
330
16A
100
AcDbEntity
  8
ボルト／ビス
  6
Continuous
100
AcDbCircle
 10
10.754865
 20
25.474165
 30
0.0
 40
0.25
  0
LINE
  5
171
330
16A
100
AcDbEntity
  8
ボルト／ビス
  6
Continuous
100
AcDbLine
 10
10.899202
 20
25.224165
 30
0.0
 11
10.610527
 21
25.224165
 31
0.0
  0
LINE
  5
172
330
16A
100
AcDbEntity
  8
ボルト／ビス
  6
Continuous
100
AcDbLine
 10
10.610527
 20
25.724165
 30
0.0
 11
10.899202
 21
25.724165
 31
0.0
  0
ENDBLK
  5
173
330
16A
100
AcDbEntity
  8
0
100
AcDbBlockEnd
  0
BLOCK
  5
174
330
175
100
AcDbEntity
  8
0
100
AcDbBlockBegin
  2
*U29
 70
     1
 71
     0
 10
0.0
 20
0.0
 30
0.0
  3
*U29
  1

  0
INSERT
  5
176
330
175
100
AcDbEntity
  8
補助線
  6
Continuous
100
AcDbBlockReference
  2
*U35
 10
0.0
 20
0.0
 30
0.0
  0
LINE
  5
177
330
175
100
AcDbEntity
  8
ボルト／ビス
  6
Continuous
100
AcDbLine
 10
11.04354
 20
40.474165
 30
0.0
 11
10.899202
 21
40.724165
 31
0.0
  0
LINE
  5
178
330
175
100
AcDbEntity
  8
ボルト／ビス
  6
Continuous
100
AcDbLine
 10
11.04354
 20
40.474165
 30
0.0
 11
10.899202
 21
40.224165
 31
0.0
  0
LINE
  5
179
330
175
100
AcDbEntity
  8
ボルト／ビス
  6
Continuous
100
AcDbLine
 10
10.610527
 20
40.724165
 30
0.0
 11
10.46619
 21
40.474165
 31
0.0
  0
LINE
  5
17A
330
175
100
AcDbEntity
  8
ボルト／ビス
  6
Continuous
100
AcDbLine
 10
10.610527
 20
40.224165
 30
0.0
 11
10.46619
 21
40.474165
 31
0.0
  0
CIRCLE
  5
17B
330
175
100
AcDbEntity
  8
ボルト／ビス
  6
Continuous
100
AcDbCircle
 10
10.754865
 20
40.474165
 30
0.0
 40
0.25
  0
LINE
  5
17C
330
175
100
AcDbEntity
  8
ボルト／ビス
  6
Continuous
100
AcDbLine
 10
10.899202
 20
40.224165
 30
0.0
 11
10.610527
 21
40.224165
 31
0.0
  0
LINE
  5
17D
330
175
100
AcDbEntity
  8
ボルト／ビス
  6
Continuous
100
AcDbLine
 10
10.610527
 20
40.724165
 30
0.0
 11
10.899202
 21
40.724165
 31
0.0
  0
ENDBLK
  5
17E
330
175
100
AcDbEntity
  8
0
100
AcDbBlockEnd
  0
BLOCK
  5
17F
330
180
100
AcDbEntity
  8
0
100
AcDbBlockBegin
  2
*U30
 70
     1
 71
     0
 10
0.0
 20
0.0
 30
0.0
  3
*U30
  1

  0
INSERT
  5
181
330
180
100
AcDbEntity
  8
補助線
  6
Continuous
100
AcDbBlockReference
  2
*U36
 10
0.0
 20
0.0
 30
0.0
  0
LINE
  5
182
330
180
100
AcDbEntity
  8
ボルト／ビス
  6
Continuous
100
AcDbLine
 10
11.04354
 20
55.474165
 30
0.0
 11
10.899202
 21
55.224165
 31
0.0
  0
LINE
  5
183
330
180
100
AcDbEntity
  8
ボルト／ビス
  6
Continuous
100
AcDbLine
 10
11.04354
 20
55.474165
 30
0.0
 11
10.899202
 21
55.724165
 31
0.0
  0
LINE
  5
184
330
180
100
AcDbEntity
  8
ボルト／ビス
  6
Continuous
100
AcDbLine
 10
10.610527
 20
55.224165
 30
0.0
 11
10.46619
 21
55.474165
 31
0.0
  0
LINE
  5
185
330
180
100
AcDbEntity
  8
ボルト／ビス
  6
Continuous
100
AcDbLine
 10
10.610527
 20
55.724165
 30
0.0
 11
10.46619
 21
55.474165
 31
0.0
  0
CIRCLE
  5
186
330
180
100
AcDbEntity
  8
ボルト／ビス
  6
Continuous
100
AcDbCircle
 10
10.754865
 20
55.474165
 30
0.0
 40
0.25
  0
LINE
  5
187
330
180
100
AcDbEntity
  8
ボルト／ビス
  6
Continuous
100
AcDbLine
 10
10.899202
 20
55.724165
 30
0.0
 11
10.610527
 21
55.724165
 31
0.0
  0
LINE
  5
188
330
180
100
AcDbEntity
  8
ボルト／ビス
  6
Continuous
100
AcDbLine
 10
10.610527
 20
55.224165
 30
0.0
 11
10.899202
 21
55.224165
 31
0.0
  0
ENDBLK
  5
189
330
180
100
AcDbEntity
  8
0
100
AcDbBlockEnd
  0
BLOCK
  5
18A
330
18B
100
AcDbEntity
  8
0
100
AcDbBlockBegin
  2
*U31
 70
     1
 71
     0
 10
0.0
 20
0.0
 30
0.0
  3
*U31
  1

  0
INSERT
  5
18C
330
18B
100
AcDbEntity
  8
補助線
  6
Continuous
100
AcDbBlockReference
  2
*U37
 10
0.0
 20
0.0
 30
0.0
  0
LINE
  5
18D
330
18B
100
AcDbEntity
  8
ボルト／ビス
  6
Continuous
100
AcDbLine
 10
11.04354
 20
70.474165
 30
0.0
 11
10.899202
 21
70.224165
 31
0.0
  0
LINE
  5
18E
330
18B
100
AcDbEntity
  8
ボルト／ビス
  6
Continuous
100
AcDbLine
 10
11.04354
 20
70.474165
 30
0.0
 11
10.899202
 21
70.724165
 31
0.0
  0
LINE
  5
18F
330
18B
100
AcDbEntity
  8
ボルト／ビス
  6
Continuous
100
AcDbLine
 10
10.610527
 20
70.224165
 30
0.0
 11
10.46619
 21
70.474165
 31
0.0
  0
LINE
  5
190
330
18B
100
AcDbEntity
  8
ボルト／ビス
  6
Continuous
100
AcDbLine
 10
10.610527
 20
70.724165
 30
0.0
 11
10.46619
 21
70.474165
 31
0.0
  0
CIRCLE
  5
191
330
18B
100
AcDbEntity
  8
ボルト／ビス
  6
Continuous
100
AcDbCircle
 10
10.754865
 20
70.474165
 30
0.0
 40
0.25
  0
LINE
  5
192
330
18B
100
AcDbEntity
  8
ボルト／ビス
  6
Continuous
100
AcDbLine
 10
10.899202
 20
70.724165
 30
0.0
 11
10.610527
 21
70.724165
 31
0.0
  0
LINE
  5
193
330
18B
100
AcDbEntity
  8
ボルト／ビス
  6
Continuous
100
AcDbLine
 10
10.610527
 20
70.224165
 30
0.0
 11
10.899202
 21
70.224165
 31
0.0
  0
ENDBLK
  5
194
330
18B
100
AcDbEntity
  8
0
100
AcDbBlockEnd
  0
BLOCK
  5
195
330
196
100
AcDbEntity
  8
0
100
AcDbBlockBegin
  2
*U32
 70
     1
 71
     0
 10
0.0
 20
0.0
 30
0.0
  3
*U32
  1

  0
LINE
  5
197
330
196
100
AcDbEntity
  8
補助線
  6
ByBlock
 62
     0
100
AcDbLine
 10
10.754865
 20
-4.650835
 30
0.0
 11
10.754865
 21
-4.400835
 31
0.0
  0
LINE
  5
198
330
196
100
AcDbEntity
  8
補助線
  6
ByBlock
 62
     0
100
AcDbLine
 10
10.879865
 20
-4.525835
 30
0.0
 11
10.629865
 21
-4.525835
 31
0.0
  0
ENDBLK
  5
199
330
196
100
AcDbEntity
  8
0
100
AcDbBlockEnd
  0
BLOCK
  5
19A
330
19B
100
AcDbEntity
  8
0
100
AcDbBlockBegin
  2
*U33
 70
     1
 71
     0
 10
0.0
 20
0.0
 30
0.0
  3
*U33
  1

  0
LINE
  5
19C
330
19B
100
AcDbEntity
  8
補助線
  6
ByBlock
 62
     0
100
AcDbLine
 10
10.754865
 20
10.349165
 30
0.0
 11
10.754865
 21
10.599165
 31
0.0
  0
LINE
  5
19D
330
19B
100
AcDbEntity
  8
補助線
  6
ByBlock
 62
     0
100
AcDbLine
 10
10.879865
 20
10.474165
 30
0.0
 11
10.629865
 21
10.474165
 31
0.0
  0
ENDBLK
  5
19E
330
19B
100
AcDbEntity
  8
0
100
AcDbBlockEnd
  0
BLOCK
  5
19F
330
1A0
100
AcDbEntity
  8
0
100
AcDbBlockBegin
  2
*U34
 70
     1
 71
     0
 10
0.0
 20
0.0
 30
0.0
  3
*U34
  1

  0
LINE
  5
1A1
330
1A0
100
AcDbEntity
  8
補助線
  6
ByBlock
 62
     0
100
AcDbLine
 10
10.754865
 20
25.349165
 30
0.0
 11
10.754865
 21
25.599165
 31
0.0
  0
LINE
  5
1A2
330
1A0
100
AcDbEntity
  8
補助線
  6
ByBlock
 62
     0
100
AcDbLine
 10
10.879865
 20
25.474165
 30
0.0
 11
10.629865
 21
25.474165
 31
0.0
  0
ENDBLK
  5
1A3
330
1A0
100
AcDbEntity
  8
0
100
AcDbBlockEnd
  0
BLOCK
  5
1A4
330
1A5
100
AcDbEntity
  8
0
100
AcDbBlockBegin
  2
*U35
 70
     1
 71
     0
 10
0.0
 20
0.0
 30
0.0
  3
*U35
  1

  0
LINE
  5
1A6
330
1A5
100
AcDbEntity
  8
補助線
  6
ByBlock
 62
     0
100
AcDbLine
 10
10.754865
 20
40.349165
 30
0.0
 11
10.754865
 21
40.599165
 31
0.0
  0
LINE
  5
1A7
330
1A5
100
AcDbEntity
  8
補助線
  6
ByBlock
 62
     0
100
AcDbLine
 10
10.879865
 20
40.474165
 30
0.0
 11
10.629865
 21
40.474165
 31
0.0
  0
ENDBLK
  5
1A8
330
1A5
100
AcDbEntity
  8
0
100
AcDbBlockEnd
  0
BLOCK
  5
1A9
330
1AA
100
AcDbEntity
  8
0
100
AcDbBlockBegin
  2
*U36
 70
     1
 71
     0
 10
0.0
 20
0.0
 30
0.0
  3
*U36
  1

  0
LINE
  5
1AB
330
1AA
100
AcDbEntity
  8
補助線
  6
ByBlock
 62
     0
100
AcDbLine
 10
10.754865
 20
55.599165
 30
0.0
 11
10.754865
 21
55.349165
 31
0.0
  0
LINE
  5
1AC
330
1AA
100
AcDbEntity
  8
補助線
  6
ByBlock
 62
     0
100
AcDbLine
 10
10.879865
 20
55.474165
 30
0.0
 11
10.629865
 21
55.474165
 31
0.0
  0
ENDBLK
  5
1AD
330
1AA
100
AcDbEntity
  8
0
100
AcDbBlockEnd
  0
BLOCK
  5
1AE
330
1AF
100
AcDbEntity
  8
0
100
AcDbBlockBegin
  2
*U37
 70
     1
 71
     0
 10
0.0
 20
0.0
 30
0.0
  3
*U37
  1

  0
LINE
  5
1B0
330
1AF
100
AcDbEntity
  8
補助線
  6
ByBlock
 62
     0
100
AcDbLine
 10
10.754865
 20
70.599165
 30
0.0
 11
10.754865
 21
70.349165
 31
0.0
  0
LINE
  5
1B1
330
1AF
100
AcDbEntity
  8
補助線
  6
ByBlock
 62
     0
100
AcDbLine
 10
10.879865
 20
70.474165
 30
0.0
 11
10.629865
 21
70.474165
 31
0.0
  0
ENDBLK
  5
1B2
330
1AF
100
AcDbEntity
  8
0
100
AcDbBlockEnd
  0
BLOCK
  5
1B3
330
1B4
100
AcDbEntity
  8
0
100
AcDbBlockBegin
  2
*U38
 70
     1
 71
     0
 10
0.0
 20
0.0
 30
0.0
  3
*U38
  1

  0
INSERT
  5
1B5
330
1B4
100
AcDbEntity
  8
補助線
  6
Continuous
100
AcDbBlockReference
  2
*U44
 10
0.0
 20
0.0
 30
0.0
  0
LINE
  5
1B6
330
1B4
100
AcDbEntity
  8
ボルト／ビス
  6
Continuous
100
AcDbLine
 10
2.254865
 20
-13.31451
 30
0.0
 11
2.004865
 21
-13.170172
 31
0.0
  0
LINE
  5
1B7
330
1B4
100
AcDbEntity
  8
ボルト／ビス
  6
Continuous
100
AcDbLine
 10
2.254865
 20
-13.31451
 30
0.0
 11
2.504865
 21
-13.170172
 31
0.0
  0
LINE
  5
1B8
330
1B4
100
AcDbEntity
  8
ボルト／ビス
  6
Continuous
100
AcDbLine
 10
2.004865
 20
-12.881498
 30
0.0
 11
2.254865
 21
-12.73716
 31
0.0
  0
LINE
  5
1B9
330
1B4
100
AcDbEntity
  8
ボルト／ビス
  6
Continuous
100
AcDbLine
 10
2.504865
 20
-12.881498
 30
0.0
 11
2.254865
 21
-12.73716
 31
0.0
  0
CIRCLE
  5
1BA
330
1B4
100
AcDbEntity
  8
ボルト／ビス
  6
Continuous
100
AcDbCircle
 10
2.254865
 20
-13.025835
 30
0.0
 40
0.25
  0
LINE
  5
1BB
330
1B4
100
AcDbEntity
  8
ボルト／ビス
  6
Continuous
100
AcDbLine
 10
2.504865
 20
-13.170172
 30
0.0
 11
2.504865
 21
-12.881498
 31
0.0
  0
LINE
  5
1BC
330
1B4
100
AcDbEntity
  8
ボルト／ビス
  6
Continuous
100
AcDbLine
 10
2.004865
 20
-12.881498
 30
0.0
 11
2.004865
 21
-13.170172
 31
0.0
  0
ENDBLK
  5
1BD
330
1B4
100
AcDbEntity
  8
0
100
AcDbBlockEnd
  0
BLOCK
  5
1BE
330
1BF
100
AcDbEntity
  8
0
100
AcDbBlockBegin
  2
*U39
 70
     1
 71
     0
 10
0.0
 20
0.0
 30
0.0
  3
*U39
  1

  0
INSERT
  5
1C0
330
1BF
100
AcDbEntity
  8
補助線
  6
Continuous
100
AcDbBlockReference
  2
*U45
 10
0.0
 20
0.0
 30
0.0
  0
LINE
  5
1C1
330
1BF
100
AcDbEntity
  8
ボルト／ビス
  6
Continuous
100
AcDbLine
 10
-12.745135
 20
-13.31451
 30
0.0
 11
-12.995135
 21
-13.170172
 31
0.0
  0
LINE
  5
1C2
330
1BF
100
AcDbEntity
  8
ボルト／ビス
  6
Continuous
100
AcDbLine
 10
-12.745135
 20
-13.31451
 30
0.0
 11
-12.495135
 21
-13.170172
 31
0.0
  0
LINE
  5
1C3
330
1BF
100
AcDbEntity
  8
ボルト／ビス
  6
Continuous
100
AcDbLine
 10
-12.995135
 20
-12.881498
 30
0.0
 11
-12.745135
 21
-12.73716
 31
0.0
  0
LINE
  5
1C4
330
1BF
100
AcDbEntity
  8
ボルト／ビス
  6
Continuous
100
AcDbLine
 10
-12.495135
 20
-12.881498
 30
0.0
 11
-12.745135
 21
-12.73716
 31
0.0
  0
CIRCLE
  5
1C5
330
1BF
100
AcDbEntity
  8
ボルト／ビス
  6
Continuous
100
AcDbCircle
 10
-12.745135
 20
-13.025835
 30
0.0
 40
0.25
  0
LINE
  5
1C6
330
1BF
100
AcDbEntity
  8
ボルト／ビス
  6
Continuous
100
AcDbLine
 10
-12.495135
 20
-13.170172
 30
0.0
 11
-12.495135
 21
-12.881498
 31
0.0
  0
LINE
  5
1C7
330
1BF
100
AcDbEntity
  8
ボルト／ビス
  6
Continuous
100
AcDbLine
 10
-12.995135
 20
-12.881498
 30
0.0
 11
-12.995135
 21
-13.170172
 31
0.0
  0
ENDBLK
  5
1C8
330
1BF
100
AcDbEntity
  8
0
100
AcDbBlockEnd
  0
BLOCK
  5
1C9
330
1CA
100
AcDbEntity
  8
0
100
AcDbBlockBegin
  2
*U40
 70
     1
 71
     0
 10
0.0
 20
0.0
 30
0.0
  3
*U40
  1

  0
INSERT
  5
1CB
330
1CA
100
AcDbEntity
  8
補助線
  6
Continuous
100
AcDbBlockReference
  2
*U46
 10
0.0
 20
0.0
 30
0.0
  0
LINE
  5
1CC
330
1CA
100
AcDbEntity
  8
ボルト／ビス
  6
Continuous
100
AcDbLine
 10
-27.745135
 20
-13.31451
 30
0.0
 11
-27.995135
 21
-13.170172
 31
0.0
  0
LINE
  5
1CD
330
1CA
100
AcDbEntity
  8
ボルト／ビス
  6
Continuous
100
AcDbLine
 10
-27.745135
 20
-13.31451
 30
0.0
 11
-27.495135
 21
-13.170172
 31
0.0
  0
LINE
  5
1CE
330
1CA
100
AcDbEntity
  8
ボルト／ビス
  6
Continuous
100
AcDbLine
 10
-27.995135
 20
-12.881498
 30
0.0
 11
-27.745135
 21
-12.73716
 31
0.0
  0
LINE
  5
1CF
330
1CA
100
AcDbEntity
  8
ボルト／ビス
  6
Continuous
100
AcDbLine
 10
-27.495135
 20
-12.881498
 30
0.0
 11
-27.745135
 21
-12.73716
 31
0.0
  0
CIRCLE
  5
1D0
330
1CA
100
AcDbEntity
  8
ボルト／ビス
  6
Continuous
100
AcDbCircle
 10
-27.745135
 20
-13.025835
 30
0.0
 40
0.25
  0
LINE
  5
1D1
330
1CA
100
AcDbEntity
  8
ボルト／ビス
  6
Continuous
100
AcDbLine
 10
-27.495135
 20
-13.170172
 30
0.0
 11
-27.495135
 21
-12.881498
 31
0.0
  0
LINE
  5
1D2
330
1CA
100
AcDbEntity
  8
ボルト／ビス
  6
Continuous
100
AcDbLine
 10
-27.995135
 20
-12.881498
 30
0.0
 11
-27.995135
 21
-13.170172
 31
0.0
  0
ENDBLK
  5
1D3
330
1CA
100
AcDbEntity
  8
0
100
AcDbBlockEnd
  0
BLOCK
  5
1D4
330
1D5
100
AcDbEntity
  8
0
100
AcDbBlockBegin
  2
*U41
 70
     1
 71
     0
 10
0.0
 20
0.0
 30
0.0
  3
*U41
  1

  0
INSERT
  5
1D6
330
1D5
100
AcDbEntity
  8
補助線
  6
Continuous
100
AcDbBlockReference
  2
*U47
 10
0.0
 20
0.0
 30
0.0
  0
LINE
  5
1D7
330
1D5
100
AcDbEntity
  8
ボルト／ビス
  6
Continuous
100
AcDbLine
 10
-42.745135
 20
-13.31451
 30
0.0
 11
-42.995135
 21
-13.170172
 31
0.0
  0
LINE
  5
1D8
330
1D5
100
AcDbEntity
  8
ボルト／ビス
  6
Continuous
100
AcDbLine
 10
-42.745135
 20
-13.31451
 30
0.0
 11
-42.495135
 21
-13.170172
 31
0.0
  0
LINE
  5
1D9
330
1D5
100
AcDbEntity
  8
ボルト／ビス
  6
Continuous
100
AcDbLine
 10
-42.995135
 20
-12.881498
 30
0.0
 11
-42.745135
 21
-12.73716
 31
0.0
  0
LINE
  5
1DA
330
1D5
100
AcDbEntity
  8
ボルト／ビス
  6
Continuous
100
AcDbLine
 10
-42.495135
 20
-12.881498
 30
0.0
 11
-42.745135
 21
-12.73716
 31
0.0
  0
CIRCLE
  5
1DB
330
1D5
100
AcDbEntity
  8
ボルト／ビス
  6
Continuous
100
AcDbCircle
 10
-42.745135
 20
-13.025835
 30
0.0
 40
0.25
  0
LINE
  5
1DC
330
1D5
100
AcDbEntity
  8
ボルト／ビス
  6
Continuous
100
AcDbLine
 10
-42.495135
 20
-13.170172
 30
0.0
 11
-42.495135
 21
-12.881498
 31
0.0
  0
LINE
  5
1DD
330
1D5
100
AcDbEntity
  8
ボルト／ビス
  6
Continuous
100
AcDbLine
 10
-42.995135
 20
-12.881498
 30
0.0
 11
-42.995135
 21
-13.170172
 31
0.0
  0
ENDBLK
  5
1DE
330
1D5
100
AcDbEntity
  8
0
100
AcDbBlockEnd
  0
BLOCK
  5
1DF
330
1E0
100
AcDbEntity
  8
0
100
AcDbBlockBegin
  2
*U42
 70
     1
 71
     0
 10
0.0
 20
0.0
 30
0.0
  3
*U42
  1

  0
INSERT
  5
1E1
330
1E0
100
AcDbEntity
  8
補助線
  6
Continuous
100
AcDbBlockReference
  2
*U48
 10
0.0
 20
0.0
 30
0.0
  0
LINE
  5
1E2
330
1E0
100
AcDbEntity
  8
ボルト／ビス
  6
Continuous
100
AcDbLine
 10
-57.745135
 20
-13.31451
 30
0.0
 11
-57.495135
 21
-13.170172
 31
0.0
  0
LINE
  5
1E3
330
1E0
100
AcDbEntity
  8
ボルト／ビス
  6
Continuous
100
AcDbLine
 10
-57.745135
 20
-13.31451
 30
0.0
 11
-57.995135
 21
-13.170172
 31
0.0
  0
LINE
  5
1E4
330
1E0
100
AcDbEntity
  8
ボルト／ビス
  6
Continuous
100
AcDbLine
 10
-57.495135
 20
-12.881498
 30
0.0
 11
-57.745135
 21
-12.73716
 31
0.0
  0
LINE
  5
1E5
330
1E0
100
AcDbEntity
  8
ボルト／ビス
  6
Continuous
100
AcDbLine
 10
-57.995135
 20
-12.881498
 30
0.0
 11
-57.745135
 21
-12.73716
 31
0.0
  0
CIRCLE
  5
1E6
330
1E0
100
AcDbEntity
  8
ボルト／ビス
  6
Continuous
100
AcDbCircle
 10
-57.745135
 20
-13.025835
 30
0.0
 40
0.25
  0
LINE
  5
1E7
330
1E0
100
AcDbEntity
  8
ボルト／ビス
  6
Continuous
100
AcDbLine
 10
-57.995135
 20
-13.170172
 30
0.0
 11
-57.995135
 21
-12.881498
 31
0.0
  0
LINE
  5
1E8
330
1E0
100
AcDbEntity
  8
ボルト／ビス
  6
Continuous
100
AcDbLine
 10
-57.495135
 20
-12.881498
 30
0.0
 11
-57.495135
 21
-13.170172
 31
0.0
  0
ENDBLK
  5
1E9
330
1E0
100
AcDbEntity
  8
0
100
AcDbBlockEnd
  0
BLOCK
  5
1EA
330
1EB
100
AcDbEntity
  8
0
100
AcDbBlockBegin
  2
*U43
 70
     1
 71
     0
 10
0.0
 20
0.0
 30
0.0
  3
*U43
  1

  0
INSERT
  5
1EC
330
1EB
100
AcDbEntity
  8
補助線
  6
Continuous
100
AcDbBlockReference
  2
*U49
 10
0.0
 20
0.0
 30
0.0
  0
LINE
  5
1ED
330
1EB
100
AcDbEntity
  8
ボルト／ビス
  6
Continuous
100
AcDbLine
 10
-72.74513500000001
 20
-13.31451
 30
0.0
 11
-72.49513500000001
 21
-13.170172
 31
0.0
  0
LINE
  5
1EE
330
1EB
100
AcDbEntity
  8
ボルト／ビス
  6
Continuous
100
AcDbLine
 10
-72.74513500000001
 20
-13.31451
 30
0.0
 11
-72.99513500000001
 21
-13.170172
 31
0.0
  0
LINE
  5
1EF
330
1EB
100
AcDbEntity
  8
ボルト／ビス
  6
Continuous
100
AcDbLine
 10
-72.49513500000001
 20
-12.881498
 30
0.0
 11
-72.74513500000001
 21
-12.73716
 31
0.0
  0
LINE
  5
1F0
330
1EB
100
AcDbEntity
  8
ボルト／ビス
  6
Continuous
100
AcDbLine
 10
-72.99513500000001
 20
-12.881498
 30
0.0
 11
-72.74513500000001
 21
-12.73716
 31
0.0
  0
CIRCLE
  5
1F1
330
1EB
100
AcDbEntity
  8
ボルト／ビス
  6
Continuous
100
AcDbCircle
 10
-72.74513500000001
 20
-13.025835
 30
0.0
 40
0.25
  0
LINE
  5
1F2
330
1EB
100
AcDbEntity
  8
ボルト／ビス
  6
Continuous
100
AcDbLine
 10
-72.99513500000001
 20
-13.170172
 30
0.0
 11
-72.99513500000001
 21
-12.881498
 31
0.0
  0
LINE
  5
1F3
330
1EB
100
AcDbEntity
  8
ボルト／ビス
  6
Continuous
100
AcDbLine
 10
-72.49513500000001
 20
-12.881498
 30
0.0
 11
-72.49513500000001
 21
-13.170172
 31
0.0
  0
ENDBLK
  5
1F4
330
1EB
100
AcDbEntity
  8
0
100
AcDbBlockEnd
  0
BLOCK
  5
1F5
330
1F6
100
AcDbEntity
  8
0
100
AcDbBlockBegin
  2
*U44
 70
     1
 71
     0
 10
0.0
 20
0.0
 30
0.0
  3
*U44
  1

  0
LINE
  5
1F7
330
1F6
100
AcDbEntity
  8
補助線
  6
ByBlock
 62
     0
100
AcDbLine
 10
2.379865
 20
-13.025835
 30
0.0
 11
2.129865
 21
-13.025835
 31
0.0
  0
LINE
  5
1F8
330
1F6
100
AcDbEntity
  8
補助線
  6
ByBlock
 62
     0
100
AcDbLine
 10
2.254865
 20
-13.150835
 30
0.0
 11
2.254865
 21
-12.900835
 31
0.0
  0
ENDBLK
  5
1F9
330
1F6
100
AcDbEntity
  8
0
100
AcDbBlockEnd
  0
BLOCK
  5
1FA
330
1FB
100
AcDbEntity
  8
0
100
AcDbBlockBegin
  2
*U45
 70
     1
 71
     0
 10
0.0
 20
0.0
 30
0.0
  3
*U45
  1

  0
LINE
  5
1FC
330
1FB
100
AcDbEntity
  8
補助線
  6
ByBlock
 62
     0
100
AcDbLine
 10
-12.620135
 20
-13.025835
 30
0.0
 11
-12.870135
 21
-13.025835
 31
0.0
  0
LINE
  5
1FD
330
1FB
100
AcDbEntity
  8
補助線
  6
ByBlock
 62
     0
100
AcDbLine
 10
-12.745135
 20
-13.150835
 30
0.0
 11
-12.745135
 21
-12.900835
 31
0.0
  0
ENDBLK
  5
1FE
330
1FB
100
AcDbEntity
  8
0
100
AcDbBlockEnd
  0
BLOCK
  5
1FF
330
200
100
AcDbEntity
  8
0
100
AcDbBlockBegin
  2
*U46
 70
     1
 71
     0
 10
0.0
 20
0.0
 30
0.0
  3
*U46
  1

  0
LINE
  5
201
330
200
100
AcDbEntity
  8
補助線
  6
ByBlock
 62
     0
100
AcDbLine
 10
-27.620135
 20
-13.025835
 30
0.0
 11
-27.870135
 21
-13.025835
 31
0.0
  0
LINE
  5
202
330
200
100
AcDbEntity
  8
補助線
  6
ByBlock
 62
     0
100
AcDbLine
 10
-27.745135
 20
-13.150835
 30
0.0
 11
-27.745135
 21
-12.900835
 31
0.0
  0
ENDBLK
  5
203
330
200
100
AcDbEntity
  8
0
100
AcDbBlockEnd
  0
BLOCK
  5
204
330
205
100
AcDbEntity
  8
0
100
AcDbBlockBegin
  2
*U47
 70
     1
 71
     0
 10
0.0
 20
0.0
 30
0.0
  3
*U47
  1

  0
LINE
  5
206
330
205
100
AcDbEntity
  8
補助線
  6
ByBlock
 62
     0
100
AcDbLine
 10
-42.620135
 20
-13.025835
 30
0.0
 11
-42.870135
 21
-13.025835
 31
0.0
  0
LINE
  5
207
330
205
100
AcDbEntity
  8
補助線
  6
ByBlock
 62
     0
100
AcDbLine
 10
-42.745135
 20
-13.150835
 30
0.0
 11
-42.745135
 21
-12.900835
 31
0.0
  0
ENDBLK
  5
208
330
205
100
AcDbEntity
  8
0
100
AcDbBlockEnd
  0
BLOCK
  5
209
330
20A
100
AcDbEntity
  8
0
100
AcDbBlockBegin
  2
*U48
 70
     1
 71
     0
 10
0.0
 20
0.0
 30
0.0
  3
*U48
  1

  0
LINE
  5
20B
330
20A
100
AcDbEntity
  8
補助線
  6
ByBlock
 62
     0
100
AcDbLine
 10
-57.870135
 20
-13.025835
 30
0.0
 11
-57.620135
 21
-13.025835
 31
0.0
  0
LINE
  5
20C
330
20A
100
AcDbEntity
  8
補助線
  6
ByBlock
 62
     0
100
AcDbLine
 10
-57.745135
 20
-13.150835
 30
0.0
 11
-57.745135
 21
-12.900835
 31
0.0
  0
ENDBLK
  5
20D
330
20A
100
AcDbEntity
  8
0
100
AcDbBlockEnd
  0
BLOCK
  5
20E
330
20F
100
AcDbEntity
  8
0
100
AcDbBlockBegin
  2
*U49
 70
     1
 71
     0
 10
0.0
 20
0.0
 30
0.0
  3
*U49
  1

  0
LINE
  5
210
330
20F
100
AcDbEntity
  8
補助線
  6
ByBlock
 62
     0
100
AcDbLine
 10
-72.87013500000001
 20
-13.025835
 30
0.0
 11
-72.62013500000001
 21
-13.025835
 31
0.0
  0
LINE
  5
211
330
20F
100
AcDbEntity
  8
補助線
  6
ByBlock
 62
     0
100
AcDbLine
 10
-72.74513500000001
 20
-13.150835
 30
0.0
 11
-72.74513500000001
 21
-12.900835
 31
0.0
  0
ENDBLK
  5
212
330
20F
100
AcDbEntity
  8
0
100
AcDbBlockEnd
  0
BLOCK
  5
213
330
214
100
AcDbEntity
  8
0
100
AcDbBlockBegin
  2
*U50
 70
     1
 71
     0
 10
0.0
 20
0.0
 30
0.0
  3
*U50
  1

  0
INSERT
  5
215
330
214
100
AcDbEntity
  8
補助線
  6
Continuous
100
AcDbBlockReference
  2
*U56
 10
0.0
 20
0.0
 30
0.0
  0
LINE
  5
216
330
214
100
AcDbEntity
  8
ボルト／ビス
  6
Continuous
100
AcDbLine
 10
-81.53381
 20
70.474165
 30
0.0
 11
-81.389473
 21
70.224165
 31
0.0
  0
LINE
  5
217
330
214
100
AcDbEntity
  8
ボルト／ビス
  6
Continuous
100
AcDbLine
 10
-81.53381
 20
70.474165
 30
0.0
 11
-81.389473
 21
70.724165
 31
0.0
  0
LINE
  5
218
330
214
100
AcDbEntity
  8
ボルト／ビス
  6
Continuous
100
AcDbLine
 10
-81.100798
 20
70.224165
 30
0.0
 11
-80.95646000000001
 21
70.474165
 31
0.0
  0
LINE
  5
219
330
214
100
AcDbEntity
  8
ボルト／ビス
  6
Continuous
100
AcDbLine
 10
-81.100798
 20
70.724165
 30
0.0
 11
-80.95646000000001
 21
70.474165
 31
0.0
  0
CIRCLE
  5
21A
330
214
100
AcDbEntity
  8
ボルト／ビス
  6
Continuous
100
AcDbCircle
 10
-81.24513500000001
 20
70.474165
 30
0.0
 40
0.25
  0
LINE
  5
21B
330
214
100
AcDbEntity
  8
ボルト／ビス
  6
Continuous
100
AcDbLine
 10
-81.389473
 20
70.724165
 30
0.0
 11
-81.100798
 21
70.724165
 31
0.0
  0
LINE
  5
21C
330
214
100
AcDbEntity
  8
ボルト／ビス
  6
Continuous
100
AcDbLine
 10
-81.100798
 20
70.224165
 30
0.0
 11
-81.389473
 21
70.224165
 31
0.0
  0
ENDBLK
  5
21D
330
214
100
AcDbEntity
  8
0
100
AcDbBlockEnd
  0
BLOCK
  5
21E
330
21F
100
AcDbEntity
  8
0
100
AcDbBlockBegin
  2
*U51
 70
     1
 71
     0
 10
0.0
 20
0.0
 30
0.0
  3
*U51
  1

  0
INSERT
  5
220
330
21F
100
AcDbEntity
  8
補助線
  6
Continuous
100
AcDbBlockReference
  2
*U57
 10
0.0
 20
0.0
 30
0.0
  0
LINE
  5
221
330
21F
100
AcDbEntity
  8
ボルト／ビス
  6
Continuous
100
AcDbLine
 10
-81.53381
 20
55.474165
 30
0.0
 11
-81.389473
 21
55.224165
 31
0.0
  0
LINE
  5
222
330
21F
100
AcDbEntity
  8
ボルト／ビス
  6
Continuous
100
AcDbLine
 10
-81.53381
 20
55.474165
 30
0.0
 11
-81.389473
 21
55.724165
 31
0.0
  0
LINE
  5
223
330
21F
100
AcDbEntity
  8
ボルト／ビス
  6
Continuous
100
AcDbLine
 10
-81.100798
 20
55.224165
 30
0.0
 11
-80.95646000000001
 21
55.474165
 31
0.0
  0
LINE
  5
224
330
21F
100
AcDbEntity
  8
ボルト／ビス
  6
Continuous
100
AcDbLine
 10
-81.100798
 20
55.724165
 30
0.0
 11
-80.95646000000001
 21
55.474165
 31
0.0
  0
CIRCLE
  5
225
330
21F
100
AcDbEntity
  8
ボルト／ビス
  6
Continuous
100
AcDbCircle
 10
-81.24513500000001
 20
55.474165
 30
0.0
 40
0.25
  0
LINE
  5
226
330
21F
100
AcDbEntity
  8
ボルト／ビス
  6
Continuous
100
AcDbLine
 10
-81.389473
 20
55.724165
 30
0.0
 11
-81.100798
 21
55.724165
 31
0.0
  0
LINE
  5
227
330
21F
100
AcDbEntity
  8
ボルト／ビス
  6
Continuous
100
AcDbLine
 10
-81.100798
 20
55.224165
 30
0.0
 11
-81.389473
 21
55.224165
 31
0.0
  0
ENDBLK
  5
228
330
21F
100
AcDbEntity
  8
0
100
AcDbBlockEnd
  0
BLOCK
  5
229
330
22A
100
AcDbEntity
  8
0
100
AcDbBlockBegin
  2
*U52
 70
     1
 71
     0
 10
0.0
 20
0.0
 30
0.0
  3
*U52
  1

  0
INSERT
  5
22B
330
22A
100
AcDbEntity
  8
補助線
  6
Continuous
100
AcDbBlockReference
  2
*U58
 10
0.0
 20
0.0
 30
0.0
  0
LINE
  5
22C
330
22A
100
AcDbEntity
  8
ボルト／ビス
  6
Continuous
100
AcDbLine
 10
-81.53381
 20
40.474165
 30
0.0
 11
-81.389473
 21
40.224165
 31
0.0
  0
LINE
  5
22D
330
22A
100
AcDbEntity
  8
ボルト／ビス
  6
Continuous
100
AcDbLine
 10
-81.53381
 20
40.474165
 30
0.0
 11
-81.389473
 21
40.724165
 31
0.0
  0
LINE
  5
22E
330
22A
100
AcDbEntity
  8
ボルト／ビス
  6
Continuous
100
AcDbLine
 10
-81.100798
 20
40.224165
 30
0.0
 11
-80.95646000000001
 21
40.474165
 31
0.0
  0
LINE
  5
22F
330
22A
100
AcDbEntity
  8
ボルト／ビス
  6
Continuous
100
AcDbLine
 10
-81.100798
 20
40.724165
 30
0.0
 11
-80.95646000000001
 21
40.474165
 31
0.0
  0
CIRCLE
  5
230
330
22A
100
AcDbEntity
  8
ボルト／ビス
  6
Continuous
100
AcDbCircle
 10
-81.24513500000001
 20
40.474165
 30
0.0
 40
0.25
  0
LINE
  5
231
330
22A
100
AcDbEntity
  8
ボルト／ビス
  6
Continuous
100
AcDbLine
 10
-81.389473
 20
40.724165
 30
0.0
 11
-81.100798
 21
40.724165
 31
0.0
  0
LINE
  5
232
330
22A
100
AcDbEntity
  8
ボルト／ビス
  6
Continuous
100
AcDbLine
 10
-81.100798
 20
40.224165
 30
0.0
 11
-81.389473
 21
40.224165
 31
0.0
  0
ENDBLK
  5
233
330
22A
100
AcDbEntity
  8
0
100
AcDbBlockEnd
  0
BLOCK
  5
234
330
235
100
AcDbEntity
  8
0
100
AcDbBlockBegin
  2
*U53
 70
     1
 71
     0
 10
0.0
 20
0.0
 30
0.0
  3
*U53
  1

  0
INSERT
  5
236
330
235
100
AcDbEntity
  8
補助線
  6
Continuous
100
AcDbBlockReference
  2
*U59
 10
0.0
 20
0.0
 30
0.0
  0
LINE
  5
237
330
235
100
AcDbEntity
  8
ボルト／ビス
  6
Continuous
100
AcDbLine
 10
-81.53381
 20
25.474165
 30
0.0
 11
-81.389473
 21
25.224165
 31
0.0
  0
LINE
  5
238
330
235
100
AcDbEntity
  8
ボルト／ビス
  6
Continuous
100
AcDbLine
 10
-81.53381
 20
25.474165
 30
0.0
 11
-81.389473
 21
25.724165
 31
0.0
  0
LINE
  5
239
330
235
100
AcDbEntity
  8
ボルト／ビス
  6
Continuous
100
AcDbLine
 10
-81.100798
 20
25.224165
 30
0.0
 11
-80.95646000000001
 21
25.474165
 31
0.0
  0
LINE
  5
23A
330
235
100
AcDbEntity
  8
ボルト／ビス
  6
Continuous
100
AcDbLine
 10
-81.100798
 20
25.724165
 30
0.0
 11
-80.95646000000001
 21
25.474165
 31
0.0
  0
CIRCLE
  5
23B
330
235
100
AcDbEntity
  8
ボルト／ビス
  6
Continuous
100
AcDbCircle
 10
-81.24513500000001
 20
25.474165
 30
0.0
 40
0.25
  0
LINE
  5
23C
330
235
100
AcDbEntity
  8
ボルト／ビス
  6
Continuous
100
AcDbLine
 10
-81.389473
 20
25.724165
 30
0.0
 11
-81.100798
 21
25.724165
 31
0.0
  0
LINE
  5
23D
330
235
100
AcDbEntity
  8
ボルト／ビス
  6
Continuous
100
AcDbLine
 10
-81.100798
 20
25.224165
 30
0.0
 11
-81.389473
 21
25.224165
 31
0.0
  0
ENDBLK
  5
23E
330
235
100
AcDbEntity
  8
0
100
AcDbBlockEnd
  0
BLOCK
  5
23F
330
240
100
AcDbEntity
  8
0
100
AcDbBlockBegin
  2
*U54
 70
     1
 71
     0
 10
0.0
 20
0.0
 30
0.0
  3
*U54
  1

  0
INSERT
  5
241
330
240
100
AcDbEntity
  8
補助線
  6
Continuous
100
AcDbBlockReference
  2
*U60
 10
0.0
 20
0.0
 30
0.0
  0
LINE
  5
242
330
240
100
AcDbEntity
  8
ボルト／ビス
  6
Continuous
100
AcDbLine
 10
-81.53381
 20
10.474165
 30
0.0
 11
-81.389473
 21
10.724165
 31
0.0
  0
LINE
  5
243
330
240
100
AcDbEntity
  8
ボルト／ビス
  6
Continuous
100
AcDbLine
 10
-81.53381
 20
10.474165
 30
0.0
 11
-81.389473
 21
10.224165
 31
0.0
  0
LINE
  5
244
330
240
100
AcDbEntity
  8
ボルト／ビス
  6
Continuous
100
AcDbLine
 10
-81.100798
 20
10.724165
 30
0.0
 11
-80.95646000000001
 21
10.474165
 31
0.0
  0
LINE
  5
245
330
240
100
AcDbEntity
  8
ボルト／ビス
  6
Continuous
100
AcDbLine
 10
-81.100798
 20
10.224165
 30
0.0
 11
-80.95646000000001
 21
10.474165
 31
0.0
  0
CIRCLE
  5
246
330
240
100
AcDbEntity
  8
ボルト／ビス
  6
Continuous
100
AcDbCircle
 10
-81.24513500000001
 20
10.474165
 30
0.0
 40
0.25
  0
LINE
  5
247
330
240
100
AcDbEntity
  8
ボルト／ビス
  6
Continuous
100
AcDbLine
 10
-81.389473
 20
10.224165
 30
0.0
 11
-81.100798
 21
10.224165
 31
0.0
  0
LINE
  5
248
330
240
100
AcDbEntity
  8
ボルト／ビス
  6
Continuous
100
AcDbLine
 10
-81.100798
 20
10.724165
 30
0.0
 11
-81.389473
 21
10.724165
 31
0.0
  0
ENDBLK
  5
249
330
240
100
AcDbEntity
  8
0
100
AcDbBlockEnd
  0
BLOCK
  5
24A
330
24B
100
AcDbEntity
  8
0
100
AcDbBlockBegin
  2
*U55
 70
     1
 71
     0
 10
0.0
 20
0.0
 30
0.0
  3
*U55
  1

  0
INSERT
  5
24C
330
24B
100
AcDbEntity
  8
補助線
  6
Continuous
100
AcDbBlockReference
  2
*U61
 10
0.0
 20
0.0
 30
0.0
  0
LINE
  5
24D
330
24B
100
AcDbEntity
  8
ボルト／ビス
  6
Continuous
100
AcDbLine
 10
-81.53381
 20
-4.525835
 30
0.0
 11
-81.389473
 21
-4.275835
 31
0.0
  0
LINE
  5
24E
330
24B
100
AcDbEntity
  8
ボルト／ビス
  6
Continuous
100
AcDbLine
 10
-81.53381
 20
-4.525835
 30
0.0
 11
-81.389473
 21
-4.775835
 31
0.0
  0
LINE
  5
24F
330
24B
100
AcDbEntity
  8
ボルト／ビス
  6
Continuous
100
AcDbLine
 10
-81.100798
 20
-4.275835
 30
0.0
 11
-80.95646000000001
 21
-4.525835
 31
0.0
  0
LINE
  5
250
330
24B
100
AcDbEntity
  8
ボルト／ビス
  6
Continuous
100
AcDbLine
 10
-81.100798
 20
-4.775835
 30
0.0
 11
-80.95646000000001
 21
-4.525835
 31
0.0
  0
CIRCLE
  5
251
330
24B
100
AcDbEntity
  8
ボルト／ビス
  6
Continuous
100
AcDbCircle
 10
-81.24513500000001
 20
-4.525835
 30
0.0
 40
0.25
  0
LINE
  5
252
330
24B
100
AcDbEntity
  8
ボルト／ビス
  6
Continuous
100
AcDbLine
 10
-81.389473
 20
-4.775835
 30
0.0
 11
-81.100798
 21
-4.775835
 31
0.0
  0
LINE
  5
253
330
24B
100
AcDbEntity
  8
ボルト／ビス
  6
Continuous
100
AcDbLine
 10
-81.100798
 20
-4.275835
 30
0.0
 11
-81.389473
 21
-4.275835
 31
0.0
  0
ENDBLK
  5
254
330
24B
100
AcDbEntity
  8
0
100
AcDbBlockEnd
  0
BLOCK
  5
255
330
256
100
AcDbEntity
  8
0
100
AcDbBlockBegin
  2
*U56
 70
     1
 71
     0
 10
0.0
 20
0.0
 30
0.0
  3
*U56
  1

  0
LINE
  5
257
330
256
100
AcDbEntity
  8
補助線
  6
ByBlock
 62
     0
100
AcDbLine
 10
-81.24513500000001
 20
70.599165
 30
0.0
 11
-81.24513500000001
 21
70.349165
 31
0.0
  0
LINE
  5
258
330
256
100
AcDbEntity
  8
補助線
  6
ByBlock
 62
     0
100
AcDbLine
 10
-81.37013500000001
 20
70.474165
 30
0.0
 11
-81.12013500000001
 21
70.474165
 31
0.0
  0
ENDBLK
  5
259
330
256
100
AcDbEntity
  8
0
100
AcDbBlockEnd
  0
BLOCK
  5
25A
330
25B
100
AcDbEntity
  8
0
100
AcDbBlockBegin
  2
*U57
 70
     1
 71
     0
 10
0.0
 20
0.0
 30
0.0
  3
*U57
  1

  0
LINE
  5
25C
330
25B
100
AcDbEntity
  8
補助線
  6
ByBlock
 62
     0
100
AcDbLine
 10
-81.24513500000001
 20
55.599165
 30
0.0
 11
-81.24513500000001
 21
55.349165
 31
0.0
  0
LINE
  5
25D
330
25B
100
AcDbEntity
  8
補助線
  6
ByBlock
 62
     0
100
AcDbLine
 10
-81.37013500000001
 20
55.474165
 30
0.0
 11
-81.12013500000001
 21
55.474165
 31
0.0
  0
ENDBLK
  5
25E
330
25B
100
AcDbEntity
  8
0
100
AcDbBlockEnd
  0
BLOCK
  5
25F
330
260
100
AcDbEntity
  8
0
100
AcDbBlockBegin
  2
*U58
 70
     1
 71
     0
 10
0.0
 20
0.0
 30
0.0
  3
*U58
  1

  0
LINE
  5
261
330
260
100
AcDbEntity
  8
補助線
  6
ByBlock
 62
     0
100
AcDbLine
 10
-81.24513500000001
 20
40.599165
 30
0.0
 11
-81.24513500000001
 21
40.349165
 31
0.0
  0
LINE
  5
262
330
260
100
AcDbEntity
  8
補助線
  6
ByBlock
 62
     0
100
AcDbLine
 10
-81.37013500000001
 20
40.474165
 30
0.0
 11
-81.12013500000001
 21
40.474165
 31
0.0
  0
ENDBLK
  5
263
330
260
100
AcDbEntity
  8
0
100
AcDbBlockEnd
  0
BLOCK
  5
264
330
265
100
AcDbEntity
  8
0
100
AcDbBlockBegin
  2
*U59
 70
     1
 71
     0
 10
0.0
 20
0.0
 30
0.0
  3
*U59
  1

  0
LINE
  5
266
330
265
100
AcDbEntity
  8
補助線
  6
ByBlock
 62
     0
100
AcDbLine
 10
-81.24513500000001
 20
25.599165
 30
0.0
 11
-81.24513500000001
 21
25.349165
 31
0.0
  0
LINE
  5
267
330
265
100
AcDbEntity
  8
補助線
  6
ByBlock
 62
     0
100
AcDbLine
 10
-81.37013500000001
 20
25.474165
 30
0.0
 11
-81.12013500000001
 21
25.474165
 31
0.0
  0
ENDBLK
  5
268
330
265
100
AcDbEntity
  8
0
100
AcDbBlockEnd
  0
BLOCK
  5
269
330
26A
100
AcDbEntity
  8
0
100
AcDbBlockBegin
  2
*U60
 70
     1
 71
     0
 10
0.0
 20
0.0
 30
0.0
  3
*U60
  1

  0
LINE
  5
26B
330
26A
100
AcDbEntity
  8
補助線
  6
ByBlock
 62
     0
100
AcDbLine
 10
-81.24513500000001
 20
10.349165
 30
0.0
 11
-81.24513500000001
 21
10.599165
 31
0.0
  0
LINE
  5
26C
330
26A
100
AcDbEntity
  8
補助線
  6
ByBlock
 62
     0
100
AcDbLine
 10
-81.37013500000001
 20
10.474165
 30
0.0
 11
-81.12013500000001
 21
10.474165
 31
0.0
  0
ENDBLK
  5
26D
330
26A
100
AcDbEntity
  8
0
100
AcDbBlockEnd
  0
BLOCK
  5
26E
330
26F
100
AcDbEntity
  8
0
100
AcDbBlockBegin
  2
*U61
 70
     1
 71
     0
 10
0.0
 20
0.0
 30
0.0
  3
*U61
  1

  0
LINE
  5
270
330
26F
100
AcDbEntity
  8
補助線
  6
ByBlock
 62
     0
100
AcDbLine
 10
-81.24513500000001
 20
-4.650835
 30
0.0
 11
-81.24513500000001
 21
-4.400835
 31
0.0
  0
LINE
  5
271
330
26F
100
AcDbEntity
  8
補助線
  6
ByBlock
 62
     0
100
AcDbLine
 10
-81.37013500000001
 20
-4.525835
 30
0.0
 11
-81.12013500000001
 21
-4.525835
 31
0.0
  0
ENDBLK
  5
272
330
26F
100
AcDbEntity
  8
0
100
AcDbBlockEnd
  0
ENDSEC
  0
SECTION
  2
ENTITIES
  0
LWPOLYLINE
  5
273
330
1D
100
AcDbEntity
  8
通り芯
  6
Continuous
100
AcDbPolyline
 90
        4
 70
     1
 43
0.0
 10
-210.0
 20
-148.5
 10
210.0
 20
-148.5
 10
210.0
 20
148.5
 10
-210.0
 20
148.5
  0
INSERT
  5
279
330
1D
100
AcDbEntity
  8
型材断面
  6
Continuous
100
AcDbBlockReference
  2
*U0
 10
0.0
 20
0.0
 30
0.0
  0
LINE
  5
27A
330
1D
100
AcDbEntity
  8
型材断面
  6
Continuous
100
AcDbLine
 10
53.021398
 20
-11.256877
 30
0.0
 11
50.777952
 21
-15.142638
 31
0.0
  0
LINE
  5
27B
330
1D
100
AcDbEntity
  8
型材断面
  6
Continuous
100
AcDbLine
 10
53.021398
 20
-11.256877
 30
0.0
 11
55.264842
 21
-15.142638
 31
0.0
  0
LINE
  5
27C
330
1D
100
AcDbEntity
  8
型材断面
  6
Continuous
100
AcDbLine
 10
55.264842
 20
-15.142638
 30
0.0
 11
50.777952
 21
-15.142638
 31
0.0
  0
LINE
  5
27D
330
1D
100
AcDbEntity
  8
型材断面
  6
Continuous
100
AcDbLine
 10
43.987517
 20
-16.55053
 30
0.0
 11
96.64419700000001
 21
-16.55053
 31
0.0
  0
LINE
  5
27E
330
1D
100
AcDbEntity
  8
型材断面
  6
Continuous
100
AcDbLine
 10
43.987517
 20
-23.606318
 30
0.0
 11
96.64419700000001
 21
-23.606318
 31
0.0
  0
LINE
  5
27F
330
1D
100
AcDbEntity
  8
型材断面
  6
Continuous
100
AcDbLine
 10
-88.269013
 20
32.974165
 30
0.0
 11
-92.15477300000001
 21
30.73072
 31
0.0
  0
LINE
  5
280
330
1D
100
AcDbEntity
  8
型材断面
  6
Continuous
100
AcDbLine
 10
-88.269013
 20
32.974165
 30
0.0
 11
-92.15477300000001
 21
35.21761
 31
0.0
  0
LINE
  5
281
330
1D
100
AcDbEntity
  8
型材断面
  6
Continuous
100
AcDbLine
 10
-92.15477300000001
 20
35.21761
 30
0.0
 11
-92.15477300000001
 21
30.73072
 31
0.0
  0
LINE
  5
282
330
1D
100
AcDbEntity
  8
型材断面
  6
Continuous
100
AcDbLine
 10
17.778743
 20
32.974165
 30
0.0
 11
21.664502
 21
30.73072
 31
0.0
  0
LINE
  5
283
330
1D
100
AcDbEntity
  8
型材断面
  6
Continuous
100
AcDbLine
 10
17.778743
 20
32.974165
 30
0.0
 11
21.664502
 21
35.21761
 31
0.0
  0
LINE
  5
284
330
1D
100
AcDbEntity
  8
型材断面
  6
Continuous
100
AcDbLine
 10
21.664502
 20
35.21761
 30
0.0
 11
21.664502
 21
30.73072
 31
0.0
  0
LINE
  5
285
330
1D
100
AcDbEntity
  8
型材断面
  6
Continuous
100
AcDbLine
 10
-35.245135
 20
85.99804
 30
0.0
 11
-37.48858
 21
89.88379999999999
 31
0.0
  0
LINE
  5
286
330
1D
100
AcDbEntity
  8
型材断面
  6
Continuous
100
AcDbLine
 10
-35.245135
 20
85.99804
 30
0.0
 11
-33.00169
 21
89.88379999999999
 31
0.0
  0
LINE
  5
287
330
1D
100
AcDbEntity
  8
型材断面
  6
Continuous
100
AcDbLine
 10
-33.00169
 20
89.88379999999999
 30
0.0
 11
-37.48858
 21
89.88379999999999
 31
0.0
  0
LINE
  5
288
330
1D
100
AcDbEntity
  8
型材断面
  6
Continuous
100
AcDbLine
 10
-84.99513500000001
 20
82.724165
 30
0.0
 11
-83.345135
 21
81.07416499999999
 31
0.0
  0
LINE
  5
289
330
1D
100
AcDbEntity
  8
型材断面
  6
Continuous
100
AcDbLine
 10
14.504865
 20
82.724165
 30
0.0
 11
12.854865
 21
81.07416499999999
 31
0.0
  0
LINE
  5
28A
330
1D
100
AcDbEntity
  8
型材断面
  6
Continuous
100
AcDbLine
 10
-35.245135
 20
-20.04971
 30
0.0
 11
-37.48858
 21
-23.93547
 31
0.0
  0
LINE
  5
28B
330
1D
100
AcDbEntity
  8
型材断面
  6
Continuous
100
AcDbLine
 10
-35.245135
 20
-20.04971
 30
0.0
 11
-33.00169
 21
-23.93547
 31
0.0
  0
LINE
  5
28C
330
1D
100
AcDbEntity
  8
型材断面
  6
Continuous
100
AcDbLine
 10
-33.00169
 20
-23.93547
 30
0.0
 11
-37.48858
 21
-23.93547
 31
0.0
  0
LINE
  5
28D
330
1D
100
AcDbEntity
  8
型材断面
  6
Continuous
100
AcDbLine
 10
-84.99513500000001
 20
-16.775835
 30
0.0
 11
-83.345135
 21
-15.125835
 31
0.0
  0
LINE
  5
28E
330
1D
100
AcDbEntity
  8
型材断面
  6
Continuous
100
AcDbLine
 10
14.504865
 20
-16.775835
 30
0.0
 11
12.854865
 21
-15.125835
 31
0.0
  0
LINE
  5
28F
330
1D
100
AcDbEntity
  8
型材断面
  6
DASHDOT
100
AcDbLine
 10
-80.24513500000001
 20
-96.480105
 30
0.0
 11
-80.24513500000001
 21
77.974165
 31
0.0
  0
LINE
  5
290
330
1D
100
AcDbEntity
  8
型材断面
  6
Continuous
100
AcDbLine
 10
-84.99513500000001
 20
32.724165
 30
0.0
 11
-84.99513500000001
 21
82.724165
 31
0.0
  0
LINE
  5
291
330
1D
100
AcDbEntity
  8
型材断面
  6
Continuous
100
AcDbLine
 10
-35.245135
 20
82.724165
 30
0.0
 11
-84.99513500000001
 21
82.724165
 31
0.0
  0
LINE
  5
292
330
1D
100
AcDbEntity
  8
型材断面
  6
Continuous
100
AcDbLine
 10
14.504865
 20
32.724165
 30
0.0
 11
14.504865
 21
82.724165
 31
0.0
  0
LINE
  5
293
330
1D
100
AcDbEntity
  8
型材断面
  6
Continuous
100
AcDbLine
 10
-35.245135
 20
82.724165
 30
0.0
 11
14.504865
 21
82.724165
 31
0.0
  0
LINE
  5
294
330
1D
100
AcDbEntity
  8
型材断面
  6
DASHDOT
100
AcDbLine
 10
9.754865000000001
 20
-96.480105
 30
0.0
 11
9.754865000000001
 21
77.974165
 31
0.0
  0
LINE
  5
295
330
1D
100
AcDbEntity
  8
型材断面
  6
DASHDOT
100
AcDbLine
 10
-80.24513500000001
 20
77.974165
 30
0.0
 11
9.754865000000001
 21
77.974165
 31
0.0
  0
LINE
  5
296
330
1D
100
AcDbEntity
  8
型材断面
  6
Continuous
100
AcDbLine
 10
-35.245135
 20
-16.775835
 30
0.0
 11
14.504865
 21
-16.775835
 31
0.0
  0
LINE
  5
297
330
1D
100
AcDbEntity
  8
型材断面
  6
Continuous
100
AcDbLine
 10
14.504865
 20
32.974165
 30
0.0
 11
14.504865
 21
-16.775835
 31
0.0
  0
LINE
  5
298
330
1D
100
AcDbEntity
  8
型材断面
  6
DASHDOT
100
AcDbLine
 10
9.754865000000001
 20
-12.025835
 30
0.0
 11
-80.24513500000001
 21
-12.025835
 31
0.0
  0
LINE
  5
299
330
1D
100
AcDbEntity
  8
型材断面
  6
Continuous
100
AcDbLine
 10
-35.245135
 20
-16.775835
 30
0.0
 11
-84.99513500000001
 21
-16.775835
 31
0.0
  0
LINE
  5
29A
330
1D
100
AcDbEntity
  8
型材断面
  6
Continuous
100
AcDbLine
 10
-84.99513500000001
 20
32.974165
 30
0.0
 11
-84.99513500000001
 21
-16.775835
 31
0.0
  0
LINE
  5
29B
330
1D
100
AcDbEntity
  8
型材断面
  6
DOT
100
AcDbLine
 10
-33.370135
 20
34.849165
 30
0.0
 11
-33.370135
 21
77.974165
 31
0.0
  0
LINE
  5
29C
330
1D
100
AcDbEntity
  8
型材断面
  6
DASHDOT
100
AcDbLine
 10
-35.245135
 20
-96.480105
 30
0.0
 11
-35.245135
 21
77.974165
 31
0.0
  0
LINE
  5
29D
330
1D
100
AcDbEntity
  8
型材断面
  6
DOT
100
AcDbLine
 10
-37.120135
 20
34.849165
 30
0.0
 11
-37.120135
 21
77.974165
 31
0.0
  0
LINE
  5
29E
330
1D
100
AcDbEntity
  8
型材断面
  6
DOT
100
AcDbLine
 10
9.754865000000001
 20
31.099165
 30
0.0
 11
-80.24513500000001
 21
31.099165
 31
0.0
  0
LINE
  5
29F
330
1D
100
AcDbEntity
  8
型材断面
  6
DASHDOT
100
AcDbLine
 10
9.754865000000001
 20
32.974165
 30
0.0
 11
-80.24513500000001
 21
32.974165
 31
0.0
  0
LINE
  5
2A0
330
1D
100
AcDbEntity
  8
型材断面
  6
DOT
100
AcDbLine
 10
9.754865000000001
 20
34.849165
 30
0.0
 11
-80.24513500000001
 21
34.849165
 31
0.0
  0
LINE
  5
2A1
330
1D
100
AcDbEntity
  8
型材断面
  6
DOT
100
AcDbLine
 10
-33.370135
 20
31.099165
 30
0.0
 11
-33.370135
 21
-12.025835
 31
0.0
  0
LINE
  5
2A2
330
1D
100
AcDbEntity
  8
型材断面
  6
DOT
100
AcDbLine
 10
-37.120135
 20
31.099165
 30
0.0
 11
-37.120135
 21
-12.025835
 31
0.0
  0
LINE
  5
2A3
330
1D
100
AcDbEntity
  8
型材断面
  6
Continuous
 62
    14
100
AcDbLine
 10
-84.995137
 20
-86.716447
 30
0.0
 11
-84.995137
 21
-85.966447
 31
0.0
  0
LINE
  5
2A4
330
1D
100
AcDbEntity
  8
型材断面
  6
Continuous
100
AcDbLine
 10
-82.245137
 20
-85.716447
 30
0.0
 11
-84.995137
 21
-85.966447
 31
0.0
  0
LINE
  5
2A5
330
1D
100
AcDbEntity
  8
型材断面
  6
Continuous
100
AcDbLine
 10
-84.995137
 20
-85.966447
 30
0.0
 11
-84.995137
 21
-86.716447
 31
0.0
  0
LINE
  5
2A6
330
1D
100
AcDbEntity
  8
型材断面
  6
Continuous
100
AcDbLine
 10
-83.745137
 20
-86.716447
 30
0.0
 11
-83.745137
 21
-87.216447
 31
0.0
  0
LINE
  5
2A7
330
1D
100
AcDbEntity
  8
型材断面
  6
Continuous
 62
    14
100
AcDbLine
 10
14.504868
 20
-86.716447
 30
0.0
 11
14.504868
 21
-85.966447
 31
0.0
  0
LINE
  5
2A8
330
1D
100
AcDbEntity
  8
型材断面
  6
Continuous
100
AcDbLine
 10
-82.245137
 20
-85.716447
 30
0.0
 11
11.754868
 21
-85.716447
 31
0.0
  0
LINE
  5
2A9
330
1D
100
AcDbEntity
  8
型材断面
  6
Continuous
100
AcDbLine
 10
-84.995137
 20
-85.966447
 30
0.0
 11
14.504868
 21
-85.966447
 31
0.0
  0
LINE
  5
2AA
330
1D
100
AcDbEntity
  8
型材断面
  6
Continuous
100
AcDbLine
 10
11.754868
 20
-85.716447
 30
0.0
 11
14.504868
 21
-85.966447
 31
0.0
  0
LINE
  5
2AB
330
1D
100
AcDbEntity
  8
型材断面
  6
Continuous
100
AcDbLine
 10
14.504868
 20
-85.966447
 30
0.0
 11
14.504868
 21
-86.716447
 31
0.0
  0
LINE
  5
2AC
330
1D
100
AcDbEntity
  8
型材断面
  6
Continuous
100
AcDbLine
 10
13.254868
 20
-86.716447
 30
0.0
 11
13.254868
 21
-87.216447
 31
0.0
  0
LINE
  5
2AD
330
1D
100
AcDbEntity
  8
型材断面
  6
Continuous
100
AcDbLine
 10
-84.995137
 20
-86.716447
 30
0.0
 11
14.504868
 21
-86.716447
 31
0.0
  0
LINE
  5
2AE
330
1D
100
AcDbEntity
  8
型材断面
  6
Continuous
100
AcDbLine
 10
-83.745137
 20
-87.21644499999999
 30
0.0
 11
13.254868
 21
-87.21644499999999
 31
0.0
  0
LWPOLYLINE
  5
2AF
330
1D
100
AcDbEntity
  8
型材断面
  6
Continuous
100
AcDbPolyline
 90
        3
 70
     0
 43
0.0
 10
-82.045137
 20
-82.46608999999999
 10
-82.045137
 20
-82.991445
 10
-82.245137
 20
-83.191445
  0
LINE
  5
2B4
330
1D
100
AcDbEntity
  8
型材断面
  6
Continuous
100
AcDbLine
 10
-82.245137
 20
-85.716447
 30
0.0
 11
-82.245137
 21
-83.191445
 31
0.0
  0
LWPOLYLINE
  5
2B5
330
1D
100
AcDbEntity
  8
型材断面
  6
Continuous
100
AcDbPolyline
 90
        3
 70
     0
 43
0.0
 10
11.554868
 20
-82.46608999999999
 10
11.554868
 20
-82.991445
 10
11.754868
 20
-83.191445
  0
LINE
  5
2BA
330
1D
100
AcDbEntity
  8
型材断面
  6
Continuous
100
AcDbLine
 10
-82.245137
 20
-83.191445
 30
0.0
 11
11.754868
 21
-83.191445
 31
0.0
  0
LINE
  5
2BB
330
1D
100
AcDbEntity
  8
型材断面
  6
Continuous
100
AcDbLine
 10
-82.045137
 20
-82.991445
 30
0.0
 11
11.554868
 21
-82.991445
 31
0.0
  0
LINE
  5
2BC
330
1D
100
AcDbEntity
  8
型材断面
  6
Continuous
100
AcDbLine
 10
11.754868
 20
-85.716447
 30
0.0
 11
11.754868
 21
-83.191445
 31
0.0
  0
LWPOLYLINE
  5
2BD
330
1D
100
AcDbEntity
  8
ガラス
  6
Continuous
100
AcDbPolyline
 90
        4
 70
     1
 43
0.0
 10
144.842052
 20
70.371625
 10
100.892052
 20
70.371625
 10
100.892052
 20
26.421625
 10
144.842052
 20
26.421625
  0
CIRCLE
  5
2C3
330
1D
100
AcDbEntity
  8
ボルト／ビス
  6
Continuous
100
AcDbCircle
 10
-72.74513500000001
 20
78.974165
 30
0.0
 40
0.288675
  0
CIRCLE
  5
2C4
330
1D
100
AcDbEntity
  8
ボルト／ビス
  6
Continuous
100
AcDbCircle
 10
-72.74513500000001
 20
78.974165
 30
0.0
 40
0.455885
  0
CIRCLE
  5
2C5
330
1D
100
AcDbEntity
  8
ボルト／ビス
  6
Continuous
100
AcDbCircle
 10
-57.745135
 20
78.974165
 30
0.0
 40
0.288675
  0
CIRCLE
  5
2C6
330
1D
100
AcDbEntity
  8
ボルト／ビス
  6
Continuous
100
AcDbCircle
 10
-57.745135
 20
78.974165
 30
0.0
 40
0.455885
  0
CIRCLE
  5
2C7
330
1D
100
AcDbEntity
  8
ボルト／ビス
  6
Continuous
100
AcDbCircle
 10
-42.745135
 20
78.974165
 30
0.0
 40
0.288675
  0
CIRCLE
  5
2C8
330
1D
100
AcDbEntity
  8
ボルト／ビス
  6
Continuous
100
AcDbCircle
 10
-42.745135
 20
78.974165
 30
0.0
 40
0.455885
  0
CIRCLE
  5
2C9
330
1D
100
AcDbEntity
  8
ボルト／ビス
  6
Continuous
100
AcDbCircle
 10
-27.745135
 20
78.974165
 30
0.0
 40
0.288675
  0
CIRCLE
  5
2CA
330
1D
100
AcDbEntity
  8
ボルト／ビス
  6
Continuous
100
AcDbCircle
 10
-27.745135
 20
78.974165
 30
0.0
 40
0.455885
  0
CIRCLE
  5
2CB
330
1D
100
AcDbEntity
  8
ボルト／ビス
  6
Continuous
100
AcDbCircle
 10
-12.745135
 20
78.974165
 30
0.0
 40
0.288675
  0
CIRCLE
  5
2CC
330
1D
100
AcDbEntity
  8
ボルト／ビス
  6
Continuous
100
AcDbCircle
 10
-12.745135
 20
78.974165
 30
0.0
 40
0.455885
  0
CIRCLE
  5
2CD
330
1D
100
AcDbEntity
  8
ボルト／ビス
  6
Continuous
100
AcDbCircle
 10
2.254865
 20
78.974165
 30
0.0
 40
0.288675
  0
CIRCLE
  5
2CE
330
1D
100
AcDbEntity
  8
ボルト／ビス
  6
Continuous
100
AcDbCircle
 10
2.254865
 20
78.974165
 30
0.0
 40
0.455885
  0
CIRCLE
  5
2CF
330
1D
100
AcDbEntity
  8
ボルト／ビス
  6
Continuous
100
AcDbCircle
 10
10.754865
 20
-4.525835
 30
0.0
 40
0.288675
  0
CIRCLE
  5
2D0
330
1D
100
AcDbEntity
  8
ボルト／ビス
  6
Continuous
100
AcDbCircle
 10
10.754865
 20
-4.525835
 30
0.0
 40
0.455885
  0
CIRCLE
  5
2D1
330
1D
100
AcDbEntity
  8
ボルト／ビス
  6
Continuous
100
AcDbCircle
 10
10.754865
 20
10.474165
 30
0.0
 40
0.288675
  0
CIRCLE
  5
2D2
330
1D
100
AcDbEntity
  8
ボルト／ビス
  6
Continuous
100
AcDbCircle
 10
10.754865
 20
10.474165
 30
0.0
 40
0.455885
  0
CIRCLE
  5
2D3
330
1D
100
AcDbEntity
  8
ボルト／ビス
  6
Continuous
100
AcDbCircle
 10
10.754865
 20
25.474165
 30
0.0
 40
0.288675
  0
CIRCLE
  5
2D4
330
1D
100
AcDbEntity
  8
ボルト／ビス
  6
Continuous
100
AcDbCircle
 10
10.754865
 20
25.474165
 30
0.0
 40
0.455885
  0
CIRCLE
  5
2D5
330
1D
100
AcDbEntity
  8
ボルト／ビス
  6
Continuous
100
AcDbCircle
 10
10.754865
 20
40.474165
 30
0.0
 40
0.288675
  0
CIRCLE
  5
2D6
330
1D
100
AcDbEntity
  8
ボルト／ビス
  6
Continuous
100
AcDbCircle
 10
10.754865
 20
40.474165
 30
0.0
 40
0.455885
  0
CIRCLE
  5
2D7
330
1D
100
AcDbEntity
  8
ボルト／ビス
  6
Continuous
100
AcDbCircle
 10
10.754865
 20
55.474165
 30
0.0
 40
0.288675
  0
CIRCLE
  5
2D8
330
1D
100
AcDbEntity
  8
ボルト／ビス
  6
Continuous
100
AcDbCircle
 10
10.754865
 20
55.474165
 30
0.0
 40
0.455885
  0
CIRCLE
  5
2D9
330
1D
100
AcDbEntity
  8
ボルト／ビス
  6
Continuous
100
AcDbCircle
 10
10.754865
 20
70.474165
 30
0.0
 40
0.288675
  0
CIRCLE
  5
2DA
330
1D
100
AcDbEntity
  8
ボルト／ビス
  6
Continuous
100
AcDbCircle
 10
10.754865
 20
70.474165
 30
0.0
 40
0.455885
  0
CIRCLE
  5
2DB
330
1D
100
AcDbEntity
  8
ボルト／ビス
  6
Continuous
100
AcDbCircle
 10
2.254865
 20
-13.025835
 30
0.0
 40
0.288675
  0
CIRCLE
  5
2DC
330
1D
100
AcDbEntity
  8
ボルト／ビス
  6
Continuous
100
AcDbCircle
 10
2.254865
 20
-13.025835
 30
0.0
 40
0.455885
  0
CIRCLE
  5
2DD
330
1D
100
AcDbEntity
  8
ボルト／ビス
  6
Continuous
100
AcDbCircle
 10
-12.745135
 20
-13.025835
 30
0.0
 40
0.288675
  0
CIRCLE
  5
2DE
330
1D
100
AcDbEntity
  8
ボルト／ビス
  6
Continuous
100
AcDbCircle
 10
-12.745135
 20
-13.025835
 30
0.0
 40
0.455885
  0
CIRCLE
  5
2DF
330
1D
100
AcDbEntity
  8
ボルト／ビス
  6
Continuous
100
AcDbCircle
 10
-27.745135
 20
-13.025835
 30
0.0
 40
0.288675
  0
CIRCLE
  5
2E0
330
1D
100
AcDbEntity
  8
ボルト／ビス
  6
Continuous
100
AcDbCircle
 10
-27.745135
 20
-13.025835
 30
0.0
 40
0.455885
  0
CIRCLE
  5
2E1
330
1D
100
AcDbEntity
  8
ボルト／ビス
  6
Continuous
100
AcDbCircle
 10
-42.745135
 20
-13.025835
 30
0.0
 40
0.288675
  0
CIRCLE
  5
2E2
330
1D
100
AcDbEntity
  8
ボルト／ビス
  6
Continuous
100
AcDbCircle
 10
-42.745135
 20
-13.025835
 30
0.0
 40
0.455885
  0
CIRCLE
  5
2E3
330
1D
100
AcDbEntity
  8
ボルト／ビス
  6
Continuous
100
AcDbCircle
 10
-57.745135
 20
-13.025835
 30
0.0
 40
0.288675
  0
CIRCLE
  5
2E4
330
1D
100
AcDbEntity
  8
ボルト／ビス
  6
Continuous
100
AcDbCircle
 10
-57.745135
 20
-13.025835
 30
0.0
 40
0.455885
  0
CIRCLE
  5
2E5
330
1D
100
AcDbEntity
  8
ボルト／ビス
  6
Continuous
100
AcDbCircle
 10
-72.74513500000001
 20
-13.025835
 30
0.0
 40
0.288675
  0
CIRCLE
  5
2E6
330
1D
100
AcDbEntity
  8
ボルト／ビス
  6
Continuous
100
AcDbCircle
 10
-72.74513500000001
 20
-13.025835
 30
0.0
 40
0.455885
  0
CIRCLE
  5
2E7
330
1D
100
AcDbEntity
  8
ボルト／ビス
  6
Continuous
100
AcDbCircle
 10
-81.24513500000001
 20
70.474165
 30
0.0
 40
0.288675
  0
CIRCLE
  5
2E8
330
1D
100
AcDbEntity
  8
ボルト／ビス
  6
Continuous
100
AcDbCircle
 10
-81.24513500000001
 20
70.474165
 30
0.0
 40
0.455885
  0
CIRCLE
  5
2E9
330
1D
100
AcDbEntity
  8
ボルト／ビス
  6
Continuous
100
AcDbCircle
 10
-81.24513500000001
 20
55.474165
 30
0.0
 40
0.288675
  0
CIRCLE
  5
2EA
330
1D
100
AcDbEntity
  8
ボルト／ビス
  6
Continuous
100
AcDbCircle
 10
-81.24513500000001
 20
55.474165
 30
0.0
 40
0.455885
  0
CIRCLE
  5
2EB
330
1D
100
AcDbEntity
  8
ボルト／ビス
  6
Continuous
100
AcDbCircle
 10
-81.24513500000001
 20
40.474165
 30
0.0
 40
0.288675
  0
CIRCLE
  5
2EC
330
1D
100
AcDbEntity
  8
ボルト／ビス
  6
Continuous
100
AcDbCircle
 10
-81.24513500000001
 20
40.474165
 30
0.0
 40
0.455885
  0
CIRCLE
  5
2ED
330
1D
100
AcDbEntity
  8
ボルト／ビス
  6
Continuous
100
AcDbCircle
 10
-81.24513500000001
 20
25.474165
 30
0.0
 40
0.288675
  0
CIRCLE
  5
2EE
330
1D
100
AcDbEntity
  8
ボルト／ビス
  6
Continuous
100
AcDbCircle
 10
-81.24513500000001
 20
25.474165
 30
0.0
 40
0.455885
  0
CIRCLE
  5
2EF
330
1D
100
AcDbEntity
  8
ボルト／ビス
  6
Continuous
100
AcDbCircle
 10
-81.24513500000001
 20
10.474165
 30
0.0
 40
0.288675
  0
CIRCLE
  5
2F0
330
1D
100
AcDbEntity
  8
ボルト／ビス
  6
Continuous
100
AcDbCircle
 10
-81.24513500000001
 20
10.474165
 30
0.0
 40
0.455885
  0
CIRCLE
  5
2F1
330
1D
100
AcDbEntity
  8
ボルト／ビス
  6
Continuous
100
AcDbCircle
 10
-81.24513500000001
 20
-4.525835
 30
0.0
 40
0.288675
  0
CIRCLE
  5
2F2
330
1D
100
AcDbEntity
  8
ボルト／ビス
  6
Continuous
100
AcDbCircle
 10
-81.24513500000001
 20
-4.525835
 30
0.0
 40
0.455885
  0
TEXT
  5
2F3
330
1D
100
AcDbEntity
  8
文字
  6
Continuous
100
AcDbText
 10
57.325
 20
-14.8
 30
0.0
 40
3.0
  1
は排水穴位置を示す
  7
TextStyle03
 72
     5
 11
87.325
 21
-14.8
 31
0.0
100
AcDbText
  0
TEXT
  5
2F4
330
1D
100
AcDbEntity
  8
文字
  6
Continuous
100
AcDbText
 10
-71.425
 20
35.55
 30
0.0
 40
3.0
  1
中桟
  7
TextStyle03
 72
     5
 11
-65.05
 21
35.55
 31
0.0
100
AcDbText
  0
TEXT
  5
2F5
330
1D
100
AcDbEntity
  8
文字
  6
Continuous
100
AcDbText
 10
-32.7
 20
70.7
 30
0.0
 40
3.0
  1
中桟
 50
270.0
  7
TextStyle03
 72
     5
 11
-32.7
 21
64.325
 31
0.0
100
AcDbText
  0
TEXT
  5
2F6
330
1D
100
AcDbEntity
  8
文字
  6
Continuous
100
AcDbText
 10
82.0
 20
100.975
 30
0.0
 40
5.0
  1
ＮＳコード：ＮＳＫ
  7
TextStyle03
 72
     5
 11
132.0
 21
100.975
 31
0.0
100
AcDbText
  0
TEXT
  5
2F7
330
1D
100
AcDbEntity
  8
文字
  6
Continuous
100
AcDbText
 10
51.725
 20
-22.2
 30
0.0
 40
3.0
  1
アンカー数量　１２ヶ所
  7
TextStyle03
 72
     5
 11
88.47499999999999
 21
-22.2
 31
0.0
100
AcDbText
  0
TEXT
  5
2F8
330
1D
100
AcDbEntity
  8
文字
  6
Continuous
100
AcDbText
 10
-113.225
 20
-26.75
 30
0.0
 40
3.0
  1
アンカーピッチ
 50
90.0
  7
TextStyle03
 72
     5
 11
-113.225
 21
-3.5
 31
0.0
100
AcDbText
  0
TEXT
  5
2F9
330
1D
100
AcDbEntity
  8
文字
  6
Continuous
100
AcDbText
 10
-97.5
 20
109.75
 30
0.0
 40
3.0
  1
アンカーピッチ
  7
TextStyle03
 72
     5
 11
-74.25
 21
109.75
 31
0.0
100
AcDbText
  0
TEXT
  5
2FA
330
1D
100
AcDbEntity
  8
文字
  6
Continuous
100
AcDbText
 10
125.225
 20
32.35
 30
0.0
 40
3.0
  1
網入り6.8t
  7
TextStyle03
 72
     5
 11
141.9125
 21
32.35
 31
0.0
100
AcDbText
  0
TEXT
  5
2FB
330
1D
100
AcDbEntity
  8
文字
  6
Continuous
100
AcDbText
 10
132.375
 20
28.325
 30
0.0
 40
3.0
  1
×４枚
  7
TextStyle03
 72
     5
 11
142.125
 21
28.325
 31
0.0
100
AcDbText
  0
INSERT
  5
2FC
330
1D
100
AcDbEntity
  8
文字
  6
Continuous
100
AcDbBlockReference
  2
*U14
 10
0.0
 20
0.0
 30
0.0
  0
INSERT
  5
2FD
330
1D
100
AcDbEntity
  8
文字
  6
Continuous
100
AcDbBlockReference
  2
*U16
 10
0.0
 20
0.0
 30
0.0
  0
INSERT
  5
2FE
330
1D
100
AcDbEntity
  8
文字
  6
Continuous
100
AcDbBlockReference
  2
*U18
 10
0.0
 20
0.0
 30
0.0
  0
INSERT
  5
2FF
330
1D
100
AcDbEntity
  8
文字
  6
Continuous
100
AcDbBlockReference
  2
*U20
 10
0.0
 20
0.0
 30
0.0
  0
INSERT
  5
300
330
1D
100
AcDbEntity
  8
文字
  6
Continuous
100
AcDbBlockReference
  2
*U22
 10
0.0
 20
0.0
 30
0.0
  0
INSERT
  5
301
330
1D
100
AcDbEntity
  8
文字
  6
Continuous
100
AcDbBlockReference
  2
*U24
 10
0.0
 20
0.0
 30
0.0
  0
INSERT
  5
302
330
1D
100
AcDbEntity
  8
文字
  6
Continuous
100
AcDbBlockReference
  2
*U26
 10
0.0
 20
0.0
 30
0.0
  0
INSERT
  5
303
330
1D
100
AcDbEntity
  8
文字
  6
Continuous
100
AcDbBlockReference
  2
*U27
 10
0.0
 20
0.0
 30
0.0
  0
INSERT
  5
304
330
1D
100
AcDbEntity
  8
文字
  6
Continuous
100
AcDbBlockReference
  2
*U28
 10
0.0
 20
0.0
 30
0.0
  0
INSERT
  5
305
330
1D
100
AcDbEntity
  8
文字
  6
Continuous
100
AcDbBlockReference
  2
*U29
 10
0.0
 20
0.0
 30
0.0
  0
INSERT
  5
306
330
1D
100
AcDbEntity
  8
文字
  6
Continuous
100
AcDbBlockReference
  2
*U30
 10
0.0
 20
0.0
 30
0.0
  0
INSERT
  5
307
330
1D
100
AcDbEntity
  8
文字
  6
Continuous
100
AcDbBlockReference
  2
*U31
 10
0.0
 20
0.0
 30
0.0
  0
INSERT
  5
308
330
1D
100
AcDbEntity
  8
文字
  6
Continuous
100
AcDbBlockReference
  2
*U38
 10
0.0
 20
0.0
 30
0.0
  0
INSERT
  5
309
330
1D
100
AcDbEntity
  8
文字
  6
Continuous
100
AcDbBlockReference
  2
*U39
 10
0.0
 20
0.0
 30
0.0
  0
INSERT
  5
30A
330
1D
100
AcDbEntity
  8
文字
  6
Continuous
100
AcDbBlockReference
  2
*U40
 10
0.0
 20
0.0
 30
0.0
  0
INSERT
  5
30B
330
1D
100
AcDbEntity
  8
文字
  6
Continuous
100
AcDbBlockReference
  2
*U41
 10
0.0
 20
0.0
 30
0.0
  0
INSERT
  5
30C
330
1D
100
AcDbEntity
  8
文字
  6
Continuous
100
AcDbBlockReference
  2
*U42
 10
0.0
 20
0.0
 30
0.0
  0
INSERT
  5
30D
330
1D
100
AcDbEntity
  8
文字
  6
Continuous
100
AcDbBlockReference
  2
*U43
 10
0.0
 20
0.0
 30
0.0
  0
INSERT
  5
30E
330
1D
100
AcDbEntity
  8
文字
  6
Continuous
100
AcDbBlockReference
  2
*U50
 10
0.0
 20
0.0
 30
0.0
  0
INSERT
  5
30F
330
1D
100
AcDbEntity
  8
文字
  6
Continuous
100
AcDbBlockReference
  2
*U51
 10
0.0
 20
0.0
 30
0.0
  0
INSERT
  5
310
330
1D
100
AcDbEntity
  8
文字
  6
Continuous
100
AcDbBlockReference
  2
*U52
 10
0.0
 20
0.0
 30
0.0
  0
INSERT
  5
311
330
1D
100
AcDbEntity
  8
文字
  6
Continuous
100
AcDbBlockReference
  2
*U53
 10
0.0
 20
0.0
 30
0.0
  0
INSERT
  5
312
330
1D
100
AcDbEntity
  8
文字
  6
Continuous
100
AcDbBlockReference
  2
*U54
 10
0.0
 20
0.0
 30
0.0
  0
INSERT
  5
313
330
1D
100
AcDbEntity
  8
文字
  6
Continuous
100
AcDbBlockReference
  2
*U55
 10
0.0
 20
0.0
 30
0.0
  0
TEXT
  5
314
330
1D
100
AcDbEntity
  8
文字
  6
Continuous
100
AcDbText
 10
82.425
 20
120.7
 30
0.0
 40
5.0
  1
シリーズ：ＴＤ１Ｋ
  7
TextStyle03
 72
     5
 11
132.425
 21
120.7
 31
0.0
100
AcDbText
  0
TEXT
  5
315
330
1D
100
AcDbEntity
  8
文字
  6
Continuous
100
AcDbText
 10
82.425
 20
115.075
 30
0.0
 40
5.0
  1
　　　　　（固定）1800×1800タイプ
  7
TextStyle03
 72
     5
 11
177.425
 21
115.075
 31
0.0
100
AcDbText
  0
TEXT
  5
316
330
1D
100
AcDbEntity
  8
文字
  6
Continuous
100
AcDbText
 10
82.425
 20
109.45
 30
0.0
 40
5.0
  1
図面名　：外観姿図
  7
TextStyle03
 72
     5
 11
132.425
 21
109.45
 31
0.0
100
AcDbText
  0
TEXT
  5
317
330
1D
100
AcDbEntity
  8
文字
  6
Continuous
100
AcDbText
 10
82.425
 20
103.825
 30
0.0
 40
5.0
  1
　　　　　　
  7
TextStyle03
 72
     5
 11
115.55
 21
103.825
 31
0.0
100
AcDbText
  0
INSERT
  5
318
330
1D
100
AcDbEntity
  8
寸法
  6
Continuous
100
AcDbBlockReference
  2
*U1
 10
0.0
 20
0.0
 30
0.0
  0
INSERT
  5
319
330
1D
100
AcDbEntity
  8
寸法
  6
Continuous
100
AcDbBlockReference
  2
*U2
 10
0.0
 20
0.0
 30
0.0
  0
INSERT
  5
31A
330
1D
100
AcDbEntity
  8
寸法
  6
Continuous
100
AcDbBlockReference
  2
*U3
 10
0.0
 20
0.0
 30
0.0
  0
INSERT
  5
31B
330
1D
100
AcDbEntity
  8
寸法
  6
Continuous
100
AcDbBlockReference
  2
*U5
 10
0.0
 20
0.0
 30
0.0
  0
INSERT
  5
31C
330
1D
100
AcDbEntity
  8
寸法
  6
Continuous
100
AcDbBlockReference
  2
*U6
 10
0.0
 20
0.0
 30
0.0
  0
INSERT
  5
31D
330
1D
100
AcDbEntity
  8
寸法
  6
Continuous
100
AcDbBlockReference
  2
*U8
 10
0.0
 20
0.0
 30
0.0
  0
INSERT
  5
31E
330
1D
100
AcDbEntity
  8
寸法
  6
Continuous
100
AcDbBlockReference
  2
*U9
 10
0.0
 20
0.0
 30
0.0
  0
INSERT
  5
31F
330
1D
100
AcDbEntity
  8
寸法
  6
Continuous
100
AcDbBlockReference
  2
*U10
 10
0.0
 20
0.0
 30
0.0
  0
INSERT
  5
320
330
1D
100
AcDbEntity
  8
寸法
  6
Continuous
100
AcDbBlockReference
  2
*U11
 10
0.0
 20
0.0
 30
0.0
  0
INSERT
  5
321
330
1D
100
AcDbEntity
  8
寸法
  6
Continuous
100
AcDbBlockReference
  2
*U12
 10
0.0
 20
0.0
 30
0.0
  0
INSERT
  5
322
330
1D
100
AcDbEntity
  8
寸法
  6
Continuous
100
AcDbBlockReference
  2
*U13
 10
0.0
 20
0.0
 30
0.0
  0
LINE
  5
323
330
1D
100
AcDbEntity
  8
別途部材
  6
Continuous
 62
    96
100
AcDbLine
 10
-82.74513500000001
 20
-80.96608999999999
 30
0.0
 11
-83.345135
 21
-82.46608999999999
 31
0.0
  0
INSERT
  5
324
330
1D
100
AcDbEntity
  8
別途部材
  6
DOT
100
AcDbBlockReference
  2
*U4
 10
0.0
 20
0.0
 30
0.0
  0
LINE
  5
325
330
1D
100
AcDbEntity
  8
別途部材
  6
Continuous
 62
    96
100
AcDbLine
 10
12.254865
 20
-80.96608999999999
 30
0.0
 11
12.854865
 21
-82.46608999999999
 31
0.0
  0
INSERT
  5
326
330
1D
100
AcDbEntity
  8
別途部材
  6
DOT
100
AcDbBlockReference
  2
*U7
 10
0.0
 20
0.0
 30
0.0
  0
LINE
  5
327
330
1D
100
AcDbEntity
  8
別途部材
  6
Continuous
100
AcDbLine
 10
-83.345135
 20
81.07416499999999
 30
0.0
 11
-82.74513500000001
 21
80.474165
 31
0.0
  0
LINE
  5
328
330
1D
100
AcDbEntity
  8
別途部材
  6
Continuous
100
AcDbLine
 10
-80.24513500000001
 20
77.974165
 30
0.0
 11
-68.15625
 21
65.88528
 31
0.0
  0
LINE
  5
329
330
1D
100
AcDbEntity
  8
別途部材
  6
Continuous
100
AcDbLine
 10
12.854865
 20
81.07416499999999
 30
0.0
 11
12.254865
 21
80.474165
 31
0.0
  0
LINE
  5
32A
330
1D
100
AcDbEntity
  8
別途部材
  6
Continuous
100
AcDbLine
 10
9.754865000000001
 20
77.974165
 30
0.0
 11
-2.33402
 21
65.88528
 31
0.0
  0
LINE
  5
32B
330
1D
100
AcDbEntity
  8
別途部材
  6
Continuous
100
AcDbLine
 10
-83.345135
 20
-15.125835
 30
0.0
 11
-82.74513500000001
 21
-14.525835
 31
0.0
  0
LINE
  5
32C
330
1D
100
AcDbEntity
  8
別途部材
  6
Continuous
100
AcDbLine
 10
-80.24513500000001
 20
-12.025835
 30
0.0
 11
-68.15625
 21
0.06305
 31
0.0
  0
LINE
  5
32D
330
1D
100
AcDbEntity
  8
別途部材
  6
Continuous
100
AcDbLine
 10
12.854865
 20
-15.125835
 30
0.0
 11
12.254865
 21
-14.525835
 31
0.0
  0
LINE
  5
32E
330
1D
100
AcDbEntity
  8
別途部材
  6
Continuous
100
AcDbLine
 10
9.754865000000001
 20
-12.025835
 30
0.0
 11
-2.33402
 21
0.06305
 31
0.0
  0
LINE
  5
32F
330
1D
100
AcDbEntity
  8
別途部材
  6
Continuous
100
AcDbLine
 10
-82.74513500000001
 20
32.974165
 30
0.0
 11
-82.74513500000001
 21
80.474165
 31
0.0
  0
LINE
  5
330
330
1D
100
AcDbEntity
  8
別途部材
  6
Continuous
100
AcDbLine
 10
-35.245135
 20
80.474165
 30
0.0
 11
-82.74513500000001
 21
80.474165
 31
0.0
  0
LINE
  5
331
330
1D
100
AcDbEntity
  8
別途部材
  6
Continuous
100
AcDbLine
 10
-83.345135
 20
32.974165
 30
0.0
 11
-83.345135
 21
81.07416499999999
 31
0.0
  0
LINE
  5
332
330
1D
100
AcDbEntity
  8
別途部材
  6
Continuous
100
AcDbLine
 10
-35.245135
 20
81.07416499999999
 30
0.0
 11
-83.345135
 21
81.07416499999999
 31
0.0
  0
LINE
  5
333
330
1D
100
AcDbEntity
  8
別途部材
  6
Continuous
100
AcDbLine
 10
12.854865
 20
32.974165
 30
0.0
 11
12.854865
 21
81.07416499999999
 31
0.0
  0
LINE
  5
334
330
1D
100
AcDbEntity
  8
別途部材
  6
Continuous
100
AcDbLine
 10
-35.245135
 20
81.07416499999999
 30
0.0
 11
12.854865
 21
81.07416499999999
 31
0.0
  0
LINE
  5
335
330
1D
100
AcDbEntity
  8
別途部材
  6
Continuous
100
AcDbLine
 10
12.254865
 20
32.974165
 30
0.0
 11
12.254865
 21
80.474165
 31
0.0
  0
LINE
  5
336
330
1D
100
AcDbEntity
  8
別途部材
  6
Continuous
100
AcDbLine
 10
-35.245135
 20
80.474165
 30
0.0
 11
12.254865
 21
80.474165
 31
0.0
  0
LINE
  5
337
330
1D
100
AcDbEntity
  8
別途部材
  6
Continuous
100
AcDbLine
 10
-35.245135
 20
-15.125835
 30
0.0
 11
12.854865
 21
-15.125835
 31
0.0
  0
LINE
  5
338
330
1D
100
AcDbEntity
  8
別途部材
  6
Continuous
100
AcDbLine
 10
12.854865
 20
32.974165
 30
0.0
 11
12.854865
 21
-15.125835
 31
0.0
  0
LINE
  5
339
330
1D
100
AcDbEntity
  8
別途部材
  6
Continuous
100
AcDbLine
 10
-35.245135
 20
-14.525835
 30
0.0
 11
12.254865
 21
-14.525835
 31
0.0
  0
LINE
  5
33A
330
1D
100
AcDbEntity
  8
別途部材
  6
Continuous
100
AcDbLine
 10
12.254865
 20
32.974165
 30
0.0
 11
12.254865
 21
-14.525835
 31
0.0
  0
LINE
  5
33B
330
1D
100
AcDbEntity
  8
別途部材
  6
Continuous
100
AcDbLine
 10
-35.245135
 20
-14.525835
 30
0.0
 11
-82.74513500000001
 21
-14.525835
 31
0.0
  0
LINE
  5
33C
330
1D
100
AcDbEntity
  8
別途部材
  6
Continuous
100
AcDbLine
 10
-82.74513500000001
 20
32.974165
 30
0.0
 11
-82.74513500000001
 21
-14.525835
 31
0.0
  0
LINE
  5
33D
330
1D
100
AcDbEntity
  8
別途部材
  6
Continuous
100
AcDbLine
 10
-35.245135
 20
-15.125835
 30
0.0
 11
-83.345135
 21
-15.125835
 31
0.0
  0
LINE
  5
33E
330
1D
100
AcDbEntity
  8
別途部材
  6
Continuous
100
AcDbLine
 10
-83.345135
 20
32.974165
 30
0.0
 11
-83.345135
 21
-15.125835
 31
0.0
  0
LINE
  5
33F
330
1D
100
AcDbEntity
  8
別途部材
  6
Continuous
 62
    96
100
AcDbLine
 10
-35.245135
 20
-80.96608999999999
 30
0.0
 11
-82.74513500000001
 21
-80.96608999999999
 31
0.0
  0
LINE
  5
340
330
1D
100
AcDbEntity
  8
別途部材
  6
Continuous
100
AcDbLine
 10
-35.245135
 20
-82.46608999999999
 30
0.0
 11
-83.345135
 21
-82.46608999999999
 31
0.0
  0
LINE
  5
341
330
1D
100
AcDbEntity
  8
別途部材
  6
Continuous
100
AcDbLine
 10
-35.245135
 20
-82.46608999999999
 30
0.0
 11
12.854865
 21
-82.46608999999999
 31
0.0
  0
LINE
  5
342
330
1D
100
AcDbEntity
  8
別途部材
  6
Continuous
 62
    96
100
AcDbLine
 10
-35.245135
 20
-80.96608999999999
 30
0.0
 11
12.254865
 21
-80.96608999999999
 31
0.0
  0
ARC
  5
343
330
1D
100
AcDbEntity
  8
別途部材
  6
Continuous
100
AcDbCircle
 10
-35.245135
 20
-114.71609
 30
0.0
 40
56.25
100
AcDbArc
 50
36.869898
 51
143.130102
  0
ENDSEC
  0
SECTION
  2
OBJECTS
  0
DICTIONARY
  5
C
330
0
100
AcDbDictionary
281
     1
  3
ACAD_GROUP
350
D
  3
ACAD_LAYOUT
350
1A
  3
ACAD_MLINESTYLE
350
17
  3
ACAD_PLOTSETTINGS
350
19
  3
ACAD_PLOTSTYLENAME
350
E
  0
DICTIONARY
  5
D
102
{ACAD_REACTORS
330
C
102
}
330
C
100
AcDbDictionary
281
     1
  0
DICTIONARY
  5
1A
102
{ACAD_REACTORS
330
C
102
}
330
C
100
AcDbDictionary
281
     1
  3
Layout1
350
1C
  3
Model
350
1E
  0
DICTIONARY
  5
17
102
{ACAD_REACTORS
330
C
102
}
330
C
100
AcDbDictionary
281
     1
  3
Standard
350
18
  0
DICTIONARY
  5
19
102
{ACAD_REACTORS
330
C
102
}
330
C
100
AcDbDictionary
281
     1
  0
ACDBDICTIONARYWDFLT
  5
E
102
{ACAD_REACTORS
330
C
102
}
330
C
100
AcDbDictionary
281
     1
  3
Normal
350
F
100
AcDbDictionaryWithDefault
340
F
  0
LAYOUT
  5
1C
102
{ACAD_REACTORS
330
1A
102
}
330
1A
100
AcDbPlotSettings
  1

  2

  4

  6

 40
0.0
 41
0.0
 42
0.0
 43
0.0
 44
0.0
 45
0.0
 46
0.0
 47
0.0
 48
0.0
 49
0.0
140
0.0
141
0.0
142
1.0
143
1.0
 70
   688
 72
     0
 73
     0
 74
     5
  7

 75
    16
 76
     0
 77
     2
 78
   300
147
1.0
148
0.0
149
0.0
100
AcDbLayout
  1
Layout1
 70
     1
 71
     1
 10
0.0
 20
0.0
 11
12.0
 21
9.0
 12
0.0
 22
0.0
 32
0.0
 14
1.000000000000000E+20
 24
1.000000000000000E+20
 34
1.000000000000000E+20
 15
-1.000000000000000E+20
 25
-1.000000000000000E+20
 35
-1.000000000000000E+20
146
0.0
 13
0.0
 23
0.0
 33
0.0
 16
1.0
 26
0.0
 36
0.0
 17
0.0
 27
1.0
 37
0.0
 76
     0
330
1B
  0
LAYOUT
  5
1E
102
{ACAD_REACTORS
330
1A
102
}
330
1A
100
AcDbPlotSettings
  1

  2

  4

  6

 40
0.0
 41
0.0
 42
0.0
 43
0.0
 44
0.0
 45
0.0
 46
0.0
 47
0.0
 48
0.0
 49
0.0
140
0.0
141
0.0
142
1.0
143
1.0
 70
  1712
 72
     0
 73
     0
 74
     0
  7

 75
     0
 76
     0
 77
     2
 78
   300
147
1.0
148
0.0
149
0.0
100
AcDbLayout
  1
Model
 70
     1
 71
     0
 10
0.0
 20
0.0
 11
0.0
 21
0.0
 12
0.0
 22
0.0
 32
0.0
 14
-210.0
 24
-148.5
 34
0.0
 15
210.0
 25
148.5
 35
0.0
146
0.0
 13
0.0
 23
0.0
 33
0.0
 16
1.0
 26
0.0
 36
0.0
 17
0.0
 27
1.0
 37
0.0
 76
     0
330
1D
  0
MLINESTYLE
  5
18
102
{ACAD_REACTORS
330
17
102
}
330
17
100
AcDbMlineStyle
  2
Standard
 70
     0
  3

 62
   256
 51
90.0
 52
90.0
 71
     2
 49
0.5
 62
   256
  6
BYLAYER
 49
-0.5
 62
   256
  6
BYLAYER
  0
ACDBPLACEHOLDER
  5
F
102
{ACAD_REACTORS
330
E
102
}
330
E
  0
ENDSEC
  0
EOF
