  0
SECTION
  2
HEADER
  9
$ACADVER
  1
AC1018
  9
$ACADMAINTVER
 70
     0
  9
$DWGCODEPAGE
  3
ANSI_932
  9
$INSBASE
 10
0.0
 20
0.0
 30
0.0
  9
$EXTMIN
 10
-210.0
 20
-148.5
 30
0.0
  9
$EXTMAX
 10
210.0
 20
148.5
 30
0.0
  9
$LIMMIN
 10
0.0
 20
0.0
  9
$LIMMAX
 10
12.0
 20
9.0
  9
$ORTHOMODE
 70
     0
  9
$REGENMODE
 70
     1
  9
$FILLMODE
 70
     1
  9
$QTEXTMODE
 70
     0
  9
$MIRRTEXT
 70
     1
  9
$LTSCALE
 40
10.0
  9
$ATTMODE
 70
     1
  9
$TEXTSIZE
 40
0.2
  9
$TRACEWID
 40
0.05
  9
$TEXTSTYLE
  7
STANDARD
  9
$CLAYER
  8
0
  9
$CELTYPE
  6
ByBlock
  9
$CECOLOR
 62
   256
  9
$CELTSCALE
 40
1.0
  9
$DISPSILH
 70
     0
  9
$DIMSCALE
 40
1.0
  9
$DIMASZ
 40
0.18
  9
$DIMEXO
 40
0.0625
  9
$DIMDLI
 40
0.38
  9
$DIMRND
 40
0.0
  9
$DIMDLE
 40
0.0
  9
$DIMEXE
 40
0.18
  9
$DIMTP
 40
0.0
  9
$DIMTM
 40
0.0
  9
$DIMTXT
 40
0.18
  9
$DIMCEN
 40
0.09
  9
$DIMTSZ
 40
0.0
  9
$DIMTOL
 70
     0
  9
$DIMLIM
 70
     0
  9
$DIMTIH
 70
     1
  9
$DIMTOH
 70
     1
  9
$DIMSE1
 70
     0
  9
$DIMSE2
 70
     0
  9
$DIMTAD
 70
     0
  9
$DIMZIN
 70
     0
  9
$DIMBLK
  1

  9
$DIMASO
 70
     1
  9
$DIMSHO
 70
     1
  9
$DIMPOST
  1

  9
$DIMAPOST
  1

  9
$DIMALT
 70
     0
  9
$DIMALTD
 70
     2
  9
$DIMALTF
 40
25.4
  9
$DIMLFAC
 40
1.0
  9
$DIMTOFL
 70
     0
  9
$DIMTVP
 40
0.0
  9
$DIMTIX
 70
     0
  9
$DIMSOXD
 70
     0
  9
$DIMSAH
 70
     0
  9
$DIMBLK1
  1

  9
$DIMBLK2
  1

  9
$DIMSTYLE
  2
Standard
  9
$DIMCLRD
 70
     0
  9
$DIMCLRE
 70
     0
  9
$DIMCLRT
 70
     0
  9
$DIMTFAC
 40
1.0
  9
$DIMGAP
 40
0.09
  9
$DIMJUST
 70
     0
  9
$DIMSD1
 70
     0
  9
$DIMSD2
 70
     0
  9
$DIMTOLJ
 70
     1
  9
$DIMTZIN
 70
     0
  9
$DIMALTZ
 70
     0
  9
$DIMALTTZ
 70
     0
  9
$DIMUPT
 70
     0
  9
$DIMDEC
 70
     4
  9
$DIMTDEC
 70
     4
  9
$DIMALTU
 70
     2
  9
$DIMALTTD
 70
     2
  9
$DIMTXSTY
  7
STANDARD
  9
$DIMAUNIT
 70
     0
  9
$DIMADEC
 70
     0
  9
$DIMALTRND
 40
0.0
  9
$DIMAZIN
 70
     0
  9
$DIMDSEP
 70
    46
  9
$DIMATFIT
 70
     3
  9
$DIMFRAC
 70
     0
  9
$DIMLDRBLK
  1

  9
$DIMLUNIT
 70
     2
  9
$DIMLWD
 70
    -2
  9
$DIMLWE
 70
    -2
  9
$DIMTMOVE
 70
     0
  9
$LUNITS
 70
     2
  9
$LUPREC
 70
     4
  9
$SKETCHINC
 40
0.1
  9
$FILLETRAD
 40
0.5
  9
$AUNITS
 70
     0
  9
$AUPREC
 70
     0
  9
$MENU
  1
.
  9
$ELEVATION
 40
0.0
  9
$PELEVATION
 40
0.0
  9
$THICKNESS
 40
0.0
  9
$LIMCHECK
 70
     0
  9
$CHAMFERA
 40
0.5
  9
$CHAMFERB
 40
0.5
  9
$CHAMFERC
 40
1.0
  9
$CHAMFERD
 40
0.0
  9
$SKPOLY
 70
     0
  9
$TDCREATE
 40
2460242.402584896
  9
$TDUCREATE
 40
2460242.027584896
  9
$TDUPDATE
 40
2460242.402584908
  9
$TDUUPDATE
 40
2460242.027584908
  9
$TDINDWG
 40
0.0000000116
  9
$TDUSRTIMER
 40
0.0000000116
  9
$USRTIMER
 70
     1
  9
$ANGBASE
 50
0.0
  9
$ANGDIR
 70
     0
  9
$PDMODE
 70
    32
  9
$PDSIZE
 40
1.5
  9
$PLINEWID
 40
0.0
  9
$SPLFRAME
 70
     0
  9
$SPLINETYPE
 70
     6
  9
$SPLINESEGS
 70
     8
  9
$HANDSEED
  5
252
  9
$SURFTAB1
 70
     6
  9
$SURFTAB2
 70
     6
  9
$SURFTYPE
 70
     6
  9
$SURFU
 70
     6
  9
$SURFV
 70
     6
  9
$UCSBASE
  2

  9
$UCSNAME
  2

  9
$UCSORG
 10
0.0
 20
0.0
 30
0.0
  9
$UCSXDIR
 10
1.0
 20
0.0
 30
0.0
  9
$UCSYDIR
 10
0.0
 20
1.0
 30
0.0
  9
$UCSORTHOREF
  2

  9
$UCSORTHOVIEW
 70
     0
  9
$UCSORGTOP
 10
0.0
 20
0.0
 30
0.0
  9
$UCSORGBOTTOM
 10
0.0
 20
0.0
 30
0.0
  9
$UCSORGLEFT
 10
0.0
 20
0.0
 30
0.0
  9
$UCSORGRIGHT
 10
0.0
 20
0.0
 30
0.0
  9
$UCSORGFRONT
 10
0.0
 20
0.0
 30
0.0
  9
$UCSORGBACK
 10
0.0
 20
0.0
 30
0.0
  9
$PUCSBASE
  2

  9
$PUCSNAME
  2

  9
$PUCSORG
 10
0.0
 20
0.0
 30
0.0
  9
$PUCSXDIR
 10
1.0
 20
0.0
 30
0.0
  9
$PUCSYDIR
 10
0.0
 20
1.0
 30
0.0
  9
$PUCSORTHOREF
  2

  9
$PUCSORTHOVIEW
 70
     0
  9
$PUCSORGTOP
 10
0.0
 20
0.0
 30
0.0
  9
$PUCSORGBOTTOM
 10
0.0
 20
0.0
 30
0.0
  9
$PUCSORGLEFT
 10
0.0
 20
0.0
 30
0.0
  9
$PUCSORGRIGHT
 10
0.0
 20
0.0
 30
0.0
  9
$PUCSORGFRONT
 10
0.0
 20
0.0
 30
0.0
  9
$PUCSORGBACK
 10
0.0
 20
0.0
 30
0.0
  9
$USERI1
 70
     0
  9
$USERI2
 70
     0
  9
$USERI3
 70
     0
  9
$USERI4
 70
     0
  9
$USERI5
 70
     0
  9
$USERR1
 40
0.0
  9
$USERR2
 40
0.0
  9
$USERR3
 40
0.0
  9
$USERR4
 40
0.0
  9
$USERR5
 40
0.0
  9
$WORLDVIEW
 70
     1
  9
$SHADEDGE
 70
     3
  9
$SHADEDIF
 70
    70
  9
$TILEMODE
 70
     1
  9
$MAXACTVP
 70
    64
  9
$PINSBASE
 10
0.0
 20
0.0
 30
0.0
  9
$PLIMCHECK
 70
     0
  9
$PEXTMIN
 10
1.000000000000000E+20
 20
1.000000000000000E+20
 30
1.000000000000000E+20
  9
$PEXTMAX
 10
-1.000000000000000E+20
 20
-1.000000000000000E+20
 30
-1.000000000000000E+20
  9
$PLIMMIN
 10
0.0
 20
0.0
  9
$PLIMMAX
 10
12.0
 20
9.0
  9
$UNITMODE
 70
     0
  9
$VISRETAIN
 70
     1
  9
$PLINEGEN
 70
     0
  9
$PSLTSCALE
 70
     1
  9
$TREEDEPTH
 70
  3020
  9
$CMLSTYLE
  2
Standard
  9
$CMLJUST
 70
     0
  9
$CMLSCALE
 40
1.0
  9
$PROXYGRAPHICS
 70
     1
  9
$MEASUREMENT
 70
     0
  9
$CELWEIGHT
370
    -1
  9
$ENDCAPS
280
     0
  9
$JOINSTYLE
280
     0
  9
$LWDISPLAY
290
     0
  9
$INSUNITS
 70
     0
  9
$HYPERLINKBASE
  1

  9
$STYLESHEET
  1

  9
$XEDIT
290
     1
  9
$CEPSNTYPE
380
     0
  9
$PSTYLEMODE
290
     1
  9
$FINGERPRINTGUID
  2
{12B22297-A85E-454E-A560-CCE367D28804}
  9
$VERSIONGUID
  2
{FAEB1C32-E019-11D5-929B-00C0DF256EC4}
  9
$EXTNAMES
290
     1
  9
$PSVPSCALE
 40
0.0
  9
$OLESTARTUP
290
     0
  9
$SORTENTS
280
   127
  9
$INDEXCTL
280
     0
  9
$HIDETEXT
280
     1
  9
$XCLIPFRAME
290
     0
  9
$HALOGAP
280
     0
  9
$OBSCOLOR
 70
   257
  9
$OBSLTYPE
280
     0
  9
$INTERSECTIONDISPLAY
280
     0
  9
$INTERSECTIONCOLOR
 70
   257
  9
$DIMASSOC
280
     2
  9
$PROJECTNAME
  1

  0
ENDSEC
  0
SECTION
  2
CLASSES
  0
CLASS
  1
ACDBDICTIONARYWDFLT
  2
AcDbDictionaryWithDefault
  3
ObjectDBX Classes
 90
        0
 91
        3
280
     0
281
     0
  0
ENDSEC
  0
SECTION
  2
TABLES
  0
TABLE
  2
VPORT
  5
8
330
0
100
AcDbSymbolTable
 70
     1
  0
VPORT
  5
24D
330
8
100
AcDbSymbolTableRecord
100
AcDbViewportTableRecord
  2
*Active
 70
     0
 10
0.0
 20
0.0
 11
1.0
 21
1.0
 12
10.42990654205607
 22
4.5
 13
0.0
 23
0.0
 14
0.5
 24
0.5
 15
0.5
 25
0.5
 16
0.0
 26
0.0
 36
1.0
 17
0.0
 27
0.0
 37
0.0
 40
9.0
 41
1.972972972850329
 42
50.0
 43
0.0
 44
0.0
 50
0.0
 51
0.0
 71
     0
 72
   100
 73
     1
 74
     3
 75
     0
 76
     0
 77
     0
 78
     0
281
     0
 65
     1
110
0.0
120
0.0
130
0.0
111
1.0
121
0.0
131
0.0
112
0.0
122
1.0
132
0.0
 79
     0
146
0.0
  0
ENDTAB
  0
TABLE
  2
LTYPE
  5
5
330
0
100
AcDbSymbolTable
 70
     9
  0
LTYPE
  5
14
330
5
100
AcDbSymbolTableRecord
100
AcDbLinetypeTableRecord
  2
ByBlock
 70
     0
  3

 72
    65
 73
     0
 40
0.0
  0
LTYPE
  5
15
330
5
100
AcDbSymbolTableRecord
100
AcDbLinetypeTableRecord
  2
ByLayer
 70
     0
  3

 72
    65
 73
     0
 40
0.0
  0
LTYPE
  5
16
330
5
100
AcDbSymbolTableRecord
100
AcDbLinetypeTableRecord
  2
CONTINUOUS
 70
     0
  3
実線
 72
    65
 73
     0
 40
0.0
  0
LTYPE
  5
21
330
5
100
AcDbSymbolTableRecord
100
AcDbLinetypeTableRecord
  2
DASHED
 70
     0
  3
破線A
 72
    65
 73
     2
 40
0.6000000000000001
 49
0.4
 74
     0
 49
-0.2
 74
     0
  0
LTYPE
  5
22
330
5
100
AcDbSymbolTableRecord
100
AcDbLinetypeTableRecord
  2
DASHEDX2
 70
     0
  3
破線B
 72
    65
 73
     2
 40
1.3
 49
0.9
 74
     0
 49
-0.4
 74
     0
  0
LTYPE
  5
23
330
5
100
AcDbSymbolTableRecord
100
AcDbLinetypeTableRecord
  2
DASHDOT
 70
     0
  3
１点鎖線A
 72
    65
 73
     4
 40
0.5375
 49
0.375
 74
     0
 49
-0.05
 74
     0
 49
0.0625
 74
     0
 49
-0.05
 74
     0
  0
LTYPE
  5
24
330
5
100
AcDbSymbolTableRecord
100
AcDbLinetypeTableRecord
  2
DASHDOTX2
 70
     0
  3
１点鎖線B
 72
    65
 73
     4
 40
1.075
 49
0.75
 74
     0
 49
-0.1
 74
     0
 49
0.125
 74
     0
 49
-0.1
 74
     0
  0
LTYPE
  5
25
330
5
100
AcDbSymbolTableRecord
100
AcDbLinetypeTableRecord
  2
DIVIDE2
 70
     0
  3
２点鎖線A
 72
    65
 73
     6
 40
0.5125
 49
0.3
 74
     0
 49
-0.0375
 74
     0
 49
0.05
 74
     0
 49
-0.0375
 74
     0
 49
0.05
 74
     0
 49
-0.0375
 74
     0
  0
LTYPE
  5
26
330
5
100
AcDbSymbolTableRecord
100
AcDbLinetypeTableRecord
  2
DIVIDE
 70
     0
  3
２点鎖線B
 72
    65
 73
     6
 40
1.05
 49
0.55
 74
     0
 49
-0.1
 74
     0
 49
0.1
 74
     0
 49
-0.1
 74
     0
 49
0.1
 74
     0
 49
-0.1
 74
     0
  0
LTYPE
  5
27
330
5
100
AcDbSymbolTableRecord
100
AcDbLinetypeTableRecord
  2
DOT
 70
     0
  3
点線A
 72
    65
 73
     2
 40
0.1125
 49
0.0625
 74
     0
 49
-0.05
 74
     0
  0
LTYPE
  5
28
330
5
100
AcDbSymbolTableRecord
100
AcDbLinetypeTableRecord
  2
DOTX2
 70
     0
  3
点線B
 72
    65
 73
     2
 40
0.275
 49
0.15
 74
     0
 49
-0.125
 74
     0
  0
ENDTAB
  0
TABLE
  2
LAYER
  5
2
330
0
100
AcDbSymbolTable
 70
    34
  0
LAYER
  5
10
330
2
100
AcDbSymbolTableRecord
100
AcDbLayerTableRecord
  2
0
 70
     0
 62
    17
  6
CONTINUOUS
370
    -3
390
F
  0
LAYER
  5
2F
330
2
100
AcDbSymbolTableRecord
100
AcDbLayerTableRecord
  2
通り芯
 70
     0
 62
    15
  6
CONTINUOUS
370
    -3
390
F
  0
LAYER
  5
30
330
2
100
AcDbSymbolTableRecord
100
AcDbLayerTableRecord
  2
補助線
 70
     0
 62
    16
  6
DOT
370
    -3
390
F
  0
LAYER
  5
31
330
2
100
AcDbSymbolTableRecord
100
AcDbLayerTableRecord
  2
躯体
 70
     0
 62
    31
  6
CONTINUOUS
370
    -3
390
F
  0
LAYER
  5
32
330
2
100
AcDbSymbolTableRecord
100
AcDbLayerTableRecord
  2
型材
 70
     0
 62
    32
  6
CONTINUOUS
370
    -3
390
F
  0
LAYER
  5
33
330
2
100
AcDbSymbolTableRecord
100
AcDbLayerTableRecord
  2
型材断面
 70
     0
 62
    47
  6
CONTINUOUS
370
    -3
390
F
  0
LAYER
  5
34
330
2
100
AcDbSymbolTableRecord
100
AcDbLayerTableRecord
  2
ガラス
 70
     0
 62
    48
  6
CONTINUOUS
370
    -3
390
F
  0
LAYER
  5
35
330
2
100
AcDbSymbolTableRecord
100
AcDbLayerTableRecord
  2
ゴム等
 70
     0
 62
    63
  6
CONTINUOUS
370
    -3
390
F
  0
LAYER
  5
36
330
2
100
AcDbSymbolTableRecord
100
AcDbLayerTableRecord
  2
ボルト／ビス
 70
     0
 62
    64
  6
CONTINUOUS
370
    -3
390
F
  0
LAYER
  5
37
330
2
100
AcDbSymbolTableRecord
100
AcDbLayerTableRecord
  2
文字
 70
     0
 62
    79
  6
CONTINUOUS
370
    -3
390
F
  0
LAYER
  5
38
330
2
100
AcDbSymbolTableRecord
100
AcDbLayerTableRecord
  2
寸法
 70
     0
 62
    80
  6
CONTINUOUS
370
    -3
390
F
  0
LAYER
  5
39
330
2
100
AcDbSymbolTableRecord
100
AcDbLayerTableRecord
  2
ﾊｯﾁﾝｸﾞ
 70
     0
 62
    95
  6
CONTINUOUS
370
    -3
390
F
  0
LAYER
  5
3A
330
2
100
AcDbSymbolTableRecord
100
AcDbLayerTableRecord
  2
別途部材
 70
     0
 62
    96
  6
CONTINUOUS
370
    -3
390
F
  0
LAYER
  5
3B
330
2
100
AcDbSymbolTableRecord
100
AcDbLayerTableRecord
  2
曲げ物
 70
     0
 62
   111
  6
CONTINUOUS
370
    -3
390
F
  0
LAYER
  5
3C
330
2
100
AcDbSymbolTableRecord
100
AcDbLayerTableRecord
  2
鉄骨等
 70
     0
 62
   112
  6
CONTINUOUS
370
    -3
390
F
  0
LAYER
  5
3D
330
2
100
AcDbSymbolTableRecord
100
AcDbLayerTableRecord
  2
St
 70
     0
 62
   127
  6
CONTINUOUS
370
    -3
390
F
  0
LAYER
  5
3E
330
2
100
AcDbSymbolTableRecord
100
AcDbLayerTableRecord
  2
その他部品等
 70
     0
 62
   128
  6
CONTINUOUS
370
    -3
390
F
  0
LAYER
  5
3F
330
2
100
AcDbSymbolTableRecord
100
AcDbLayerTableRecord
  2
ｶﾞｽｹｯﾄ
 70
     0
 62
   143
  6
CONTINUOUS
370
    -3
390
F
  0
LAYER
  5
40
330
2
100
AcDbSymbolTableRecord
100
AcDbLayerTableRecord
  2
ｽｹｯﾁ
 70
     0
 62
    14
  6
CONTINUOUS
370
    -3
390
F
  0
LAYER
  5
42
330
2
100
AcDbSymbolTableRecord
100
AcDbLayerTableRecord
  2
1
 70
     0
 62
    30
  6
CONTINUOUS
370
    -3
390
F
  0
LAYER
  5
43
330
2
100
AcDbSymbolTableRecord
100
AcDbLayerTableRecord
  2
4
 70
     0
 62
    33
  6
CONTINUOUS
370
    -3
390
F
  0
LAYER
  5
44
330
2
100
AcDbSymbolTableRecord
100
AcDbLayerTableRecord
  2
ﾚｲﾔ3
 70
     0
 62
    46
  6
CONTINUOUS
370
    -3
390
F
  0
LAYER
  5
45
330
2
100
AcDbSymbolTableRecord
100
AcDbLayerTableRecord
  2
外形線
 70
     0
 62
    49
  6
CONTINUOUS
370
    -3
390
F
  0
LAYER
  5
46
330
2
100
AcDbSymbolTableRecord
100
AcDbLayerTableRecord
  2
部品
 70
     0
 62
    14
  6
CONTINUOUS
370
    -3
390
F
  0
LAYER
  5
47
330
2
100
AcDbSymbolTableRecord
100
AcDbLayerTableRecord
  2
サッシ芯
 70
     0
 62
    17
  6
DASHDOTX2
370
    -3
390
F
  0
LAYER
  5
48
330
2
100
AcDbSymbolTableRecord
100
AcDbLayerTableRecord
  2
寸法線
 70
     0
 62
    62
  6
CONTINUOUS
370
    -3
390
F
  0
LAYER
  5
49
330
2
100
AcDbSymbolTableRecord
100
AcDbLayerTableRecord
  2
姿図外形線
 70
     0
 62
    65
  6
CONTINUOUS
370
    -3
390
F
  0
LAYER
  5
4A
330
2
100
AcDbSymbolTableRecord
100
AcDbLayerTableRecord
  2
姿補助線
 70
     0
 62
    30
  6
CONTINUOUS
370
    -3
390
F
  0
LAYER
  5
4B
330
2
100
AcDbSymbolTableRecord
100
AcDbLayerTableRecord
  2
透視線
 70
     0
 62
    78
  6
DOT
370
    -3
390
F
  0
LAYER
  5
4C
330
2
100
AcDbSymbolTableRecord
100
AcDbLayerTableRecord
  2
用紙
 70
     0
 62
    81
  6
CONTINUOUS
370
    -3
390
F
  0
LAYER
  5
4D
330
2
100
AcDbSymbolTableRecord
100
AcDbLayerTableRecord
  2
実線図枠
 70
     0
 62
    94
  6
CONTINUOUS
370
    -3
390
F
  0
LAYER
  5
4E
330
2
100
AcDbSymbolTableRecord
100
AcDbLayerTableRecord
  2
補助図枠
 70
     0
 62
    97
  6
CONTINUOUS
370
    -3
390
F
  0
LAYER
  5
4F
330
2
100
AcDbSymbolTableRecord
100
AcDbLayerTableRecord
  2
建具記号
 70
     0
 62
   110
  6
CONTINUOUS
370
    -3
390
F
  0
LAYER
  5
50
330
2
100
AcDbSymbolTableRecord
100
AcDbLayerTableRecord
  2
補助文字
 70
     0
 62
   113
  6
CONTINUOUS
370
    -3
390
F
  0
ENDTAB
  0
TABLE
  2
STYLE
  5
3
330
0
100
AcDbSymbolTable
 70
    10
  0
STYLE
  5
11
330
3
100
AcDbSymbolTableRecord
100
AcDbTextStyleTableRecord
  2
STANDARD
 70
     0
 40
1.0
 41
1.0
 50
0.0
 71
     0
 42
1.0
  3
TXT
  4
BIGFONT
  0
STYLE
  5
52
330
3
100
AcDbSymbolTableRecord
100
AcDbTextStyleTableRecord
  2
TATE
 70
     4
 40
1.0
 41
1.0
 50
0.0
 71
     0
 42
1.0
  3
TXT
  4
BIGFONT
  0
STYLE
  5
53
330
3
100
AcDbSymbolTableRecord
100
AcDbTextStyleTableRecord
  2
TextStyle03
 70
     0
 40
1.0
 41
1.0
 50
0.0
 71
     0
 42
1.0
  3
MONOTXT
  4
BIGFONT
  0
STYLE
  5
54
330
3
100
AcDbSymbolTableRecord
100
AcDbTextStyleTableRecord
  2
TextStyle04
 70
     0
 40
1.0
 41
1.0
 50
0.0
 71
     0
 42
1.0
  3
MONOTXT
  4
BIGFONT
  0
STYLE
  5
55
330
3
100
AcDbSymbolTableRecord
100
AcDbTextStyleTableRecord
  2
TextStyle05
 70
     0
 40
1.0
 41
1.0
 50
0.0
 71
     0
 42
1.0
  3
MONOTXT
  4
BIGFONT
  0
STYLE
  5
56
330
3
100
AcDbSymbolTableRecord
100
AcDbTextStyleTableRecord
  2
TextStyle06
 70
     0
 40
1.0
 41
1.0
 50
0.0
 71
     0
 42
1.0
  3
MONOTXT
  4
BIGFONT
  0
STYLE
  5
57
330
3
100
AcDbSymbolTableRecord
100
AcDbTextStyleTableRecord
  2
TextStyle07
 70
     0
 40
1.0
 41
1.0
 50
0.0
 71
     0
 42
1.0
  3
MONOTXT
  4
BIGFONT
  0
STYLE
  5
58
330
3
100
AcDbSymbolTableRecord
100
AcDbTextStyleTableRecord
  2
TextStyle08
 70
     0
 40
1.0
 41
1.0
 50
0.0
 71
     0
 42
1.0
  3
MONOTXT
  4
BIGFONT
  0
STYLE
  5
59
330
3
100
AcDbSymbolTableRecord
100
AcDbTextStyleTableRecord
  2
TextStyle09
 70
     0
 40
1.0
 41
1.0
 50
0.0
 71
     0
 42
1.0
  3
MONOTXT
  4
BIGFONT
  0
STYLE
  5
5A
330
3
100
AcDbSymbolTableRecord
100
AcDbTextStyleTableRecord
  2
TextStyle10
 70
     0
 40
1.0
 41
1.0
 50
0.0
 71
     0
 42
1.0
  3
MONOTXT
  4
BIGFONT
  0
ENDTAB
  0
TABLE
  2
VIEW
  5
6
330
0
100
AcDbSymbolTable
 70
     0
  0
ENDTAB
  0
TABLE
  2
UCS
  5
7
330
0
100
AcDbSymbolTable
 70
     0
  0
ENDTAB
  0
TABLE
  2
APPID
  5
9
330
0
100
AcDbSymbolTable
 70
     1
  0
APPID
  5
12
330
9
100
AcDbSymbolTableRecord
100
AcDbRegAppTableRecord
  2
ACAD
 70
     0
  0
ENDTAB
  0
TABLE
  2
DIMSTYLE
  5
A
330
0
100
AcDbSymbolTable
 70
     1
100
AcDbDimStyleTable
  0
DIMSTYLE
105
5B
330
A
100
AcDbSymbolTableRecord
100
AcDbDimStyleTableRecord
  2
Standard
 70
     0
340
11
  0
ENDTAB
  0
TABLE
  2
BLOCK_RECORD
  5
1
330
0
100
AcDbSymbolTable
 70
    37
  0
BLOCK_RECORD
  5
1D
330
1
100
AcDbSymbolTableRecord
100
AcDbBlockTableRecord
  2
*Model_Space
340
1E
  0
BLOCK_RECORD
  5
1B
330
1
100
AcDbSymbolTableRecord
100
AcDbBlockTableRecord
  2
*Paper_Space
340
1C
  0
BLOCK_RECORD
  5
5D
330
1
100
AcDbSymbolTableRecord
100
AcDbBlockTableRecord
  2
*U0
340
0
102
{BLKREFS
331
1B0
102
}
  0
BLOCK_RECORD
  5
66
330
1
100
AcDbSymbolTableRecord
100
AcDbBlockTableRecord
  2
*U1
340
0
102
{BLKREFS
331
20A
102
}
  0
BLOCK_RECORD
  5
71
330
1
100
AcDbSymbolTableRecord
100
AcDbBlockTableRecord
  2
*U2
340
0
102
{BLKREFS
331
20B
102
}
  0
BLOCK_RECORD
  5
7C
330
1
100
AcDbSymbolTableRecord
100
AcDbBlockTableRecord
  2
*U3
340
0
102
{BLKREFS
331
20C
102
}
  0
BLOCK_RECORD
  5
87
330
1
100
AcDbSymbolTableRecord
100
AcDbBlockTableRecord
  2
*U4
340
0
102
{BLKREFS
331
20D
102
}
  0
BLOCK_RECORD
  5
92
330
1
100
AcDbSymbolTableRecord
100
AcDbBlockTableRecord
  2
*U5
340
0
102
{BLKREFS
331
20E
102
}
  0
BLOCK_RECORD
  5
9D
330
1
100
AcDbSymbolTableRecord
100
AcDbBlockTableRecord
  2
*U6
340
0
102
{BLKREFS
331
20F
102
}
  0
BLOCK_RECORD
  5
A8
330
1
100
AcDbSymbolTableRecord
100
AcDbBlockTableRecord
  2
*U7
340
0
102
{BLKREFS
331
210
102
}
  0
BLOCK_RECORD
  5
B3
330
1
100
AcDbSymbolTableRecord
100
AcDbBlockTableRecord
  2
*U8
340
0
102
{BLKREFS
331
211
102
}
  0
BLOCK_RECORD
  5
BE
330
1
100
AcDbSymbolTableRecord
100
AcDbBlockTableRecord
  2
*U9
340
0
102
{BLKREFS
331
212
102
}
  0
BLOCK_RECORD
  5
C9
330
1
100
AcDbSymbolTableRecord
100
AcDbBlockTableRecord
  2
*U10
340
0
102
{BLKREFS
331
213
102
}
  0
BLOCK_RECORD
  5
D4
330
1
100
AcDbSymbolTableRecord
100
AcDbBlockTableRecord
  2
*U11
340
0
102
{BLKREFS
331
214
102
}
  0
BLOCK_RECORD
  5
DF
330
1
100
AcDbSymbolTableRecord
100
AcDbBlockTableRecord
  2
*U12
340
0
102
{BLKREFS
331
215
102
}
  0
BLOCK_RECORD
  5
EA
330
1
100
AcDbSymbolTableRecord
100
AcDbBlockTableRecord
  2
*U13
340
0
102
{BLKREFS
331
221
102
}
  0
BLOCK_RECORD
  5
F2
330
1
100
AcDbSymbolTableRecord
100
AcDbBlockTableRecord
  2
*U14
340
0
102
{BLKREFS
331
222
102
}
  0
BLOCK_RECORD
  5
F9
330
1
100
AcDbSymbolTableRecord
100
AcDbBlockTableRecord
  2
*U15
340
0
102
{BLKREFS
331
67
102
}
  0
BLOCK_RECORD
  5
FE
330
1
100
AcDbSymbolTableRecord
100
AcDbBlockTableRecord
  2
*U16
340
0
102
{BLKREFS
331
72
102
}
  0
BLOCK_RECORD
  5
103
330
1
100
AcDbSymbolTableRecord
100
AcDbBlockTableRecord
  2
*U17
340
0
102
{BLKREFS
331
7D
102
}
  0
BLOCK_RECORD
  5
108
330
1
100
AcDbSymbolTableRecord
100
AcDbBlockTableRecord
  2
*U18
340
0
102
{BLKREFS
331
88
102
}
  0
BLOCK_RECORD
  5
10D
330
1
100
AcDbSymbolTableRecord
100
AcDbBlockTableRecord
  2
*U19
340
0
102
{BLKREFS
331
93
102
}
  0
BLOCK_RECORD
  5
112
330
1
100
AcDbSymbolTableRecord
100
AcDbBlockTableRecord
  2
*U20
340
0
102
{BLKREFS
331
9E
102
}
  0
BLOCK_RECORD
  5
117
330
1
100
AcDbSymbolTableRecord
100
AcDbBlockTableRecord
  2
*U21
340
0
102
{BLKREFS
331
A9
102
}
  0
BLOCK_RECORD
  5
11C
330
1
100
AcDbSymbolTableRecord
100
AcDbBlockTableRecord
  2
*U22
340
0
102
{BLKREFS
331
B4
102
}
  0
BLOCK_RECORD
  5
121
330
1
100
AcDbSymbolTableRecord
100
AcDbBlockTableRecord
  2
*U23
340
0
102
{BLKREFS
331
BF
102
}
  0
BLOCK_RECORD
  5
126
330
1
100
AcDbSymbolTableRecord
100
AcDbBlockTableRecord
  2
*U24
340
0
102
{BLKREFS
331
CA
102
}
  0
BLOCK_RECORD
  5
12B
330
1
100
AcDbSymbolTableRecord
100
AcDbBlockTableRecord
  2
*U25
340
0
102
{BLKREFS
331
D5
102
}
  0
BLOCK_RECORD
  5
130
330
1
100
AcDbSymbolTableRecord
100
AcDbBlockTableRecord
  2
*U26
340
0
102
{BLKREFS
331
E0
102
}
  0
BLOCK_RECORD
  5
135
330
1
100
AcDbSymbolTableRecord
100
AcDbBlockTableRecord
  2
*U27
340
0
102
{BLKREFS
331
223
102
}
  0
BLOCK_RECORD
  5
13E
330
1
100
AcDbSymbolTableRecord
100
AcDbBlockTableRecord
  2
*U28
340
0
102
{BLKREFS
331
224
102
}
  0
BLOCK_RECORD
  5
147
330
1
100
AcDbSymbolTableRecord
100
AcDbBlockTableRecord
  2
*U29
340
0
102
{BLKREFS
331
225
102
}
  0
BLOCK_RECORD
  5
14E
330
1
100
AcDbSymbolTableRecord
100
AcDbBlockTableRecord
  2
*U30
340
0
102
{BLKREFS
331
227
102
}
  0
BLOCK_RECORD
  5
157
330
1
100
AcDbSymbolTableRecord
100
AcDbBlockTableRecord
  2
*U31
340
0
102
{BLKREFS
331
228
102
}
  0
BLOCK_RECORD
  5
15F
330
1
100
AcDbSymbolTableRecord
100
AcDbBlockTableRecord
  2
*U32
340
0
102
{BLKREFS
331
229
102
}
  0
BLOCK_RECORD
  5
167
330
1
100
AcDbSymbolTableRecord
100
AcDbBlockTableRecord
  2
*U33
340
0
102
{BLKREFS
331
22A
102
}
  0
BLOCK_RECORD
  5
170
330
1
100
AcDbSymbolTableRecord
100
AcDbBlockTableRecord
  2
*U34
340
0
102
{BLKREFS
331
22B
102
}
  0
BLOCK_RECORD
  5
179
330
1
100
AcDbSymbolTableRecord
100
AcDbBlockTableRecord
  2
*U35
340
0
102
{BLKREFS
331
24B
102
}
  0
BLOCK_RECORD
  5
192
330
1
100
AcDbSymbolTableRecord
100
AcDbBlockTableRecord
  2
*U36
340
0
102
{BLKREFS
331
24C
102
}
  0
ENDTAB
  0
ENDSEC
  0
SECTION
  2
BLOCKS
  0
BLOCK
  5
24E
330
1D
100
AcDbEntity
  8
0
100
AcDbBlockBegin
  2
*Model_Space
 70
     0
 71
     0
 10
0.0
 20
0.0
 30
0.0
  3
*Model_Space
  1

  0
ENDBLK
  5
24F
330
1D
100
AcDbEntity
  8
0
100
AcDbBlockEnd
  0
BLOCK
  5
250
330
1B
100
AcDbEntity
 67
     1
  8
0
100
AcDbBlockBegin
  2
*Paper_Space
 70
     0
 71
     0
 10
0.0
 20
0.0
 30
0.0
  3
*Paper_Space
  1

  0
ENDBLK
  5
251
330
1B
100
AcDbEntity
 67
     1
  8
0
100
AcDbBlockEnd
  0
BLOCK
  5
5C
330
5D
100
AcDbEntity
  8
0
100
AcDbBlockBegin
  2
*U0
 70
     1
 71
     0
 10
0.0
 20
0.0
 30
0.0
  3
*U0
  1

  0
LINE
  5
5E
330
5D
100
AcDbEntity
  8
型材断面
  6
Continuous
100
AcDbLine
 10
195.0
 20
133.5
 30
0.0
 11
195.0
 21
-133.5
 31
0.0
  0
LINE
  5
5F
330
5D
100
AcDbEntity
  8
型材断面
  6
Continuous
100
AcDbLine
 10
195.0
 20
-133.5
 30
0.0
 11
-185.0
 21
-133.5
 31
0.0
  0
LINE
  5
60
330
5D
100
AcDbEntity
  8
型材断面
  6
Continuous
100
AcDbLine
 10
-185.0
 20
-133.5
 30
0.0
 11
-185.0
 21
133.5
 31
0.0
  0
LINE
  5
61
330
5D
100
AcDbEntity
  8
型材断面
  6
Continuous
100
AcDbLine
 10
195.0
 20
133.5
 30
0.0
 11
-185.0
 21
133.5
 31
0.0
  0
LINE
  5
62
330
5D
100
AcDbEntity
  8
型材断面
  6
Continuous
100
AcDbLine
 10
145.0
 20
-133.5
 30
0.0
 11
145.0
 21
-118.5
 31
0.0
  0
LINE
  5
63
330
5D
100
AcDbEntity
  8
型材断面
  6
Continuous
100
AcDbLine
 10
195.0
 20
-118.5
 30
0.0
 11
145.0
 21
-118.5
 31
0.0
  0
ENDBLK
  5
64
330
5D
100
AcDbEntity
  8
0
100
AcDbBlockEnd
  0
BLOCK
  5
65
330
66
100
AcDbEntity
  8
0
100
AcDbBlockBegin
  2
*U1
 70
     1
 71
     0
 10
0.0
 20
0.0
 30
0.0
  3
*U1
  1

  0
INSERT
  5
67
330
66
100
AcDbEntity
  8
補助線
  6
Continuous
100
AcDbBlockReference
  2
*U15
 10
0.0
 20
0.0
 30
0.0
  0
LINE
  5
68
330
66
100
AcDbEntity
  8
ボルト／ビス
  6
Continuous
100
AcDbLine
 10
-84.935405
 20
10.371595
 30
0.0
 11
-84.685405
 21
10.515933
 31
0.0
  0
LINE
  5
69
330
66
100
AcDbEntity
  8
ボルト／ビス
  6
Continuous
100
AcDbLine
 10
-84.935405
 20
10.371595
 30
0.0
 11
-85.185405
 21
10.515933
 31
0.0
  0
LINE
  5
6A
330
66
100
AcDbEntity
  8
ボルト／ビス
  6
Continuous
100
AcDbLine
 10
-84.685405
 20
10.804608
 30
0.0
 11
-84.935405
 21
10.948945
 31
0.0
  0
LINE
  5
6B
330
66
100
AcDbEntity
  8
ボルト／ビス
  6
Continuous
100
AcDbLine
 10
-85.185405
 20
10.804608
 30
0.0
 11
-84.935405
 21
10.948945
 31
0.0
  0
CIRCLE
  5
6C
330
66
100
AcDbEntity
  8
ボルト／ビス
  6
Continuous
100
AcDbCircle
 10
-84.935405
 20
10.66027
 30
0.0
 40
0.25
  0
LINE
  5
6D
330
66
100
AcDbEntity
  8
ボルト／ビス
  6
Continuous
100
AcDbLine
 10
-85.185405
 20
10.515933
 30
0.0
 11
-85.185405
 21
10.804608
 31
0.0
  0
LINE
  5
6E
330
66
100
AcDbEntity
  8
ボルト／ビス
  6
Continuous
100
AcDbLine
 10
-84.685405
 20
10.804608
 30
0.0
 11
-84.685405
 21
10.515933
 31
0.0
  0
ENDBLK
  5
6F
330
66
100
AcDbEntity
  8
0
100
AcDbBlockEnd
  0
BLOCK
  5
70
330
71
100
AcDbEntity
  8
0
100
AcDbBlockBegin
  2
*U2
 70
     1
 71
     0
 10
0.0
 20
0.0
 30
0.0
  3
*U2
  1

  0
INSERT
  5
72
330
71
100
AcDbEntity
  8
補助線
  6
Continuous
100
AcDbBlockReference
  2
*U16
 10
0.0
 20
0.0
 30
0.0
  0
LINE
  5
73
330
71
100
AcDbEntity
  8
ボルト／ビス
  6
Continuous
100
AcDbLine
 10
-69.935405
 20
10.371595
 30
0.0
 11
-69.685405
 21
10.515933
 31
0.0
  0
LINE
  5
74
330
71
100
AcDbEntity
  8
ボルト／ビス
  6
Continuous
100
AcDbLine
 10
-69.935405
 20
10.371595
 30
0.0
 11
-70.185405
 21
10.515933
 31
0.0
  0
LINE
  5
75
330
71
100
AcDbEntity
  8
ボルト／ビス
  6
Continuous
100
AcDbLine
 10
-69.685405
 20
10.804608
 30
0.0
 11
-69.935405
 21
10.948945
 31
0.0
  0
LINE
  5
76
330
71
100
AcDbEntity
  8
ボルト／ビス
  6
Continuous
100
AcDbLine
 10
-70.185405
 20
10.804608
 30
0.0
 11
-69.935405
 21
10.948945
 31
0.0
  0
CIRCLE
  5
77
330
71
100
AcDbEntity
  8
ボルト／ビス
  6
Continuous
100
AcDbCircle
 10
-69.935405
 20
10.66027
 30
0.0
 40
0.25
  0
LINE
  5
78
330
71
100
AcDbEntity
  8
ボルト／ビス
  6
Continuous
100
AcDbLine
 10
-70.185405
 20
10.515933
 30
0.0
 11
-70.185405
 21
10.804608
 31
0.0
  0
LINE
  5
79
330
71
100
AcDbEntity
  8
ボルト／ビス
  6
Continuous
100
AcDbLine
 10
-69.685405
 20
10.804608
 30
0.0
 11
-69.685405
 21
10.515933
 31
0.0
  0
ENDBLK
  5
7A
330
71
100
AcDbEntity
  8
0
100
AcDbBlockEnd
  0
BLOCK
  5
7B
330
7C
100
AcDbEntity
  8
0
100
AcDbBlockBegin
  2
*U3
 70
     1
 71
     0
 10
0.0
 20
0.0
 30
0.0
  3
*U3
  1

  0
INSERT
  5
7D
330
7C
100
AcDbEntity
  8
補助線
  6
Continuous
100
AcDbBlockReference
  2
*U17
 10
0.0
 20
0.0
 30
0.0
  0
LINE
  5
7E
330
7C
100
AcDbEntity
  8
ボルト／ビス
  6
Continuous
100
AcDbLine
 10
-93.72408
 20
19.16027
 30
0.0
 11
-93.579742
 21
19.41027
 31
0.0
  0
LINE
  5
7F
330
7C
100
AcDbEntity
  8
ボルト／ビス
  6
Continuous
100
AcDbLine
 10
-93.72408
 20
19.16027
 30
0.0
 11
-93.579742
 21
18.91027
 31
0.0
  0
LINE
  5
80
330
7C
100
AcDbEntity
  8
ボルト／ビス
  6
Continuous
100
AcDbLine
 10
-93.291068
 20
19.41027
 30
0.0
 11
-93.14673000000001
 21
19.16027
 31
0.0
  0
LINE
  5
81
330
7C
100
AcDbEntity
  8
ボルト／ビス
  6
Continuous
100
AcDbLine
 10
-93.291068
 20
18.91027
 30
0.0
 11
-93.14673000000001
 21
19.16027
 31
0.0
  0
CIRCLE
  5
82
330
7C
100
AcDbEntity
  8
ボルト／ビス
  6
Continuous
100
AcDbCircle
 10
-93.435405
 20
19.16027
 30
0.0
 40
0.25
  0
LINE
  5
83
330
7C
100
AcDbEntity
  8
ボルト／ビス
  6
Continuous
100
AcDbLine
 10
-93.579742
 20
18.91027
 30
0.0
 11
-93.291068
 21
18.91027
 31
0.0
  0
LINE
  5
84
330
7C
100
AcDbEntity
  8
ボルト／ビス
  6
Continuous
100
AcDbLine
 10
-93.291068
 20
19.41027
 30
0.0
 11
-93.579742
 21
19.41027
 31
0.0
  0
ENDBLK
  5
85
330
7C
100
AcDbEntity
  8
0
100
AcDbBlockEnd
  0
BLOCK
  5
86
330
87
100
AcDbEntity
  8
0
100
AcDbBlockBegin
  2
*U4
 70
     1
 71
     0
 10
0.0
 20
0.0
 30
0.0
  3
*U4
  1

  0
INSERT
  5
88
330
87
100
AcDbEntity
  8
補助線
  6
Continuous
100
AcDbBlockReference
  2
*U18
 10
0.0
 20
0.0
 30
0.0
  0
LINE
  5
89
330
87
100
AcDbEntity
  8
ボルト／ビス
  6
Continuous
100
AcDbLine
 10
-93.72408
 20
34.16027
 30
0.0
 11
-93.579742
 21
34.41027
 31
0.0
  0
LINE
  5
8A
330
87
100
AcDbEntity
  8
ボルト／ビス
  6
Continuous
100
AcDbLine
 10
-93.72408
 20
34.16027
 30
0.0
 11
-93.579742
 21
33.91027
 31
0.0
  0
LINE
  5
8B
330
87
100
AcDbEntity
  8
ボルト／ビス
  6
Continuous
100
AcDbLine
 10
-93.291068
 20
34.41027
 30
0.0
 11
-93.14673000000001
 21
34.16027
 31
0.0
  0
LINE
  5
8C
330
87
100
AcDbEntity
  8
ボルト／ビス
  6
Continuous
100
AcDbLine
 10
-93.291068
 20
33.91027
 30
0.0
 11
-93.14673000000001
 21
34.16027
 31
0.0
  0
CIRCLE
  5
8D
330
87
100
AcDbEntity
  8
ボルト／ビス
  6
Continuous
100
AcDbCircle
 10
-93.435405
 20
34.16027
 30
0.0
 40
0.25
  0
LINE
  5
8E
330
87
100
AcDbEntity
  8
ボルト／ビス
  6
Continuous
100
AcDbLine
 10
-93.579742
 20
33.91027
 30
0.0
 11
-93.291068
 21
33.91027
 31
0.0
  0
LINE
  5
8F
330
87
100
AcDbEntity
  8
ボルト／ビス
  6
Continuous
100
AcDbLine
 10
-93.291068
 20
34.41027
 30
0.0
 11
-93.579742
 21
34.41027
 31
0.0
  0
ENDBLK
  5
90
330
87
100
AcDbEntity
  8
0
100
AcDbBlockEnd
  0
BLOCK
  5
91
330
92
100
AcDbEntity
  8
0
100
AcDbBlockBegin
  2
*U5
 70
     1
 71
     0
 10
0.0
 20
0.0
 30
0.0
  3
*U5
  1

  0
INSERT
  5
93
330
92
100
AcDbEntity
  8
補助線
  6
Continuous
100
AcDbBlockReference
  2
*U19
 10
0.0
 20
0.0
 30
0.0
  0
LINE
  5
94
330
92
100
AcDbEntity
  8
ボルト／ビス
  6
Continuous
100
AcDbLine
 10
-54.935405
 20
10.371595
 30
0.0
 11
-55.185405
 21
10.515933
 31
0.0
  0
LINE
  5
95
330
92
100
AcDbEntity
  8
ボルト／ビス
  6
Continuous
100
AcDbLine
 10
-54.935405
 20
10.371595
 30
0.0
 11
-54.685405
 21
10.515933
 31
0.0
  0
LINE
  5
96
330
92
100
AcDbEntity
  8
ボルト／ビス
  6
Continuous
100
AcDbLine
 10
-55.185405
 20
10.804608
 30
0.0
 11
-54.935405
 21
10.948945
 31
0.0
  0
LINE
  5
97
330
92
100
AcDbEntity
  8
ボルト／ビス
  6
Continuous
100
AcDbLine
 10
-54.685405
 20
10.804608
 30
0.0
 11
-54.935405
 21
10.948945
 31
0.0
  0
CIRCLE
  5
98
330
92
100
AcDbEntity
  8
ボルト／ビス
  6
Continuous
100
AcDbCircle
 10
-54.935405
 20
10.66027
 30
0.0
 40
0.25
  0
LINE
  5
99
330
92
100
AcDbEntity
  8
ボルト／ビス
  6
Continuous
100
AcDbLine
 10
-54.685405
 20
10.515933
 30
0.0
 11
-54.685405
 21
10.804608
 31
0.0
  0
LINE
  5
9A
330
92
100
AcDbEntity
  8
ボルト／ビス
  6
Continuous
100
AcDbLine
 10
-55.185405
 20
10.804608
 30
0.0
 11
-55.185405
 21
10.515933
 31
0.0
  0
ENDBLK
  5
9B
330
92
100
AcDbEntity
  8
0
100
AcDbBlockEnd
  0
BLOCK
  5
9C
330
9D
100
AcDbEntity
  8
0
100
AcDbBlockBegin
  2
*U6
 70
     1
 71
     0
 10
0.0
 20
0.0
 30
0.0
  3
*U6
  1

  0
INSERT
  5
9E
330
9D
100
AcDbEntity
  8
補助線
  6
Continuous
100
AcDbBlockReference
  2
*U20
 10
0.0
 20
0.0
 30
0.0
  0
LINE
  5
9F
330
9D
100
AcDbEntity
  8
ボルト／ビス
  6
Continuous
100
AcDbLine
 10
-46.14673
 20
19.16027
 30
0.0
 11
-46.291068
 21
19.41027
 31
0.0
  0
LINE
  5
A0
330
9D
100
AcDbEntity
  8
ボルト／ビス
  6
Continuous
100
AcDbLine
 10
-46.14673
 20
19.16027
 30
0.0
 11
-46.291068
 21
18.91027
 31
0.0
  0
LINE
  5
A1
330
9D
100
AcDbEntity
  8
ボルト／ビス
  6
Continuous
100
AcDbLine
 10
-46.579742
 20
19.41027
 30
0.0
 11
-46.72408
 21
19.16027
 31
0.0
  0
LINE
  5
A2
330
9D
100
AcDbEntity
  8
ボルト／ビス
  6
Continuous
100
AcDbLine
 10
-46.579742
 20
18.91027
 30
0.0
 11
-46.72408
 21
19.16027
 31
0.0
  0
CIRCLE
  5
A3
330
9D
100
AcDbEntity
  8
ボルト／ビス
  6
Continuous
100
AcDbCircle
 10
-46.435405
 20
19.16027
 30
0.0
 40
0.25
  0
LINE
  5
A4
330
9D
100
AcDbEntity
  8
ボルト／ビス
  6
Continuous
100
AcDbLine
 10
-46.291068
 20
18.91027
 30
0.0
 11
-46.579742
 21
18.91027
 31
0.0
  0
LINE
  5
A5
330
9D
100
AcDbEntity
  8
ボルト／ビス
  6
Continuous
100
AcDbLine
 10
-46.579742
 20
19.41027
 30
0.0
 11
-46.291068
 21
19.41027
 31
0.0
  0
ENDBLK
  5
A6
330
9D
100
AcDbEntity
  8
0
100
AcDbBlockEnd
  0
BLOCK
  5
A7
330
A8
100
AcDbEntity
  8
0
100
AcDbBlockBegin
  2
*U7
 70
     1
 71
     0
 10
0.0
 20
0.0
 30
0.0
  3
*U7
  1

  0
INSERT
  5
A9
330
A8
100
AcDbEntity
  8
補助線
  6
Continuous
100
AcDbBlockReference
  2
*U21
 10
0.0
 20
0.0
 30
0.0
  0
LINE
  5
AA
330
A8
100
AcDbEntity
  8
ボルト／ビス
  6
Continuous
100
AcDbLine
 10
-46.14673
 20
34.16027
 30
0.0
 11
-46.291068
 21
34.41027
 31
0.0
  0
LINE
  5
AB
330
A8
100
AcDbEntity
  8
ボルト／ビス
  6
Continuous
100
AcDbLine
 10
-46.14673
 20
34.16027
 30
0.0
 11
-46.291068
 21
33.91027
 31
0.0
  0
LINE
  5
AC
330
A8
100
AcDbEntity
  8
ボルト／ビス
  6
Continuous
100
AcDbLine
 10
-46.579742
 20
34.41027
 30
0.0
 11
-46.72408
 21
34.16027
 31
0.0
  0
LINE
  5
AD
330
A8
100
AcDbEntity
  8
ボルト／ビス
  6
Continuous
100
AcDbLine
 10
-46.579742
 20
33.91027
 30
0.0
 11
-46.72408
 21
34.16027
 31
0.0
  0
CIRCLE
  5
AE
330
A8
100
AcDbEntity
  8
ボルト／ビス
  6
Continuous
100
AcDbCircle
 10
-46.435405
 20
34.16027
 30
0.0
 40
0.25
  0
LINE
  5
AF
330
A8
100
AcDbEntity
  8
ボルト／ビス
  6
Continuous
100
AcDbLine
 10
-46.291068
 20
33.91027
 30
0.0
 11
-46.579742
 21
33.91027
 31
0.0
  0
LINE
  5
B0
330
A8
100
AcDbEntity
  8
ボルト／ビス
  6
Continuous
100
AcDbLine
 10
-46.579742
 20
34.41027
 30
0.0
 11
-46.291068
 21
34.41027
 31
0.0
  0
ENDBLK
  5
B1
330
A8
100
AcDbEntity
  8
0
100
AcDbBlockEnd
  0
BLOCK
  5
B2
330
B3
100
AcDbEntity
  8
0
100
AcDbBlockBegin
  2
*U8
 70
     1
 71
     0
 10
0.0
 20
0.0
 30
0.0
  3
*U8
  1

  0
INSERT
  5
B4
330
B3
100
AcDbEntity
  8
補助線
  6
Continuous
100
AcDbBlockReference
  2
*U22
 10
0.0
 20
0.0
 30
0.0
  0
LINE
  5
B5
330
B3
100
AcDbEntity
  8
ボルト／ビス
  6
Continuous
100
AcDbLine
 10
-84.935405
 20
57.948945
 30
0.0
 11
-84.685405
 21
57.804608
 31
0.0
  0
LINE
  5
B6
330
B3
100
AcDbEntity
  8
ボルト／ビス
  6
Continuous
100
AcDbLine
 10
-84.935405
 20
57.948945
 30
0.0
 11
-85.185405
 21
57.804608
 31
0.0
  0
LINE
  5
B7
330
B3
100
AcDbEntity
  8
ボルト／ビス
  6
Continuous
100
AcDbLine
 10
-84.685405
 20
57.515933
 30
0.0
 11
-84.935405
 21
57.371595
 31
0.0
  0
LINE
  5
B8
330
B3
100
AcDbEntity
  8
ボルト／ビス
  6
Continuous
100
AcDbLine
 10
-85.185405
 20
57.515933
 30
0.0
 11
-84.935405
 21
57.371595
 31
0.0
  0
CIRCLE
  5
B9
330
B3
100
AcDbEntity
  8
ボルト／ビス
  6
Continuous
100
AcDbCircle
 10
-84.935405
 20
57.66027
 30
0.0
 40
0.25
  0
LINE
  5
BA
330
B3
100
AcDbEntity
  8
ボルト／ビス
  6
Continuous
100
AcDbLine
 10
-85.185405
 20
57.804608
 30
0.0
 11
-85.185405
 21
57.515933
 31
0.0
  0
LINE
  5
BB
330
B3
100
AcDbEntity
  8
ボルト／ビス
  6
Continuous
100
AcDbLine
 10
-84.685405
 20
57.515933
 30
0.0
 11
-84.685405
 21
57.804608
 31
0.0
  0
ENDBLK
  5
BC
330
B3
100
AcDbEntity
  8
0
100
AcDbBlockEnd
  0
BLOCK
  5
BD
330
BE
100
AcDbEntity
  8
0
100
AcDbBlockBegin
  2
*U9
 70
     1
 71
     0
 10
0.0
 20
0.0
 30
0.0
  3
*U9
  1

  0
INSERT
  5
BF
330
BE
100
AcDbEntity
  8
補助線
  6
Continuous
100
AcDbBlockReference
  2
*U23
 10
0.0
 20
0.0
 30
0.0
  0
LINE
  5
C0
330
BE
100
AcDbEntity
  8
ボルト／ビス
  6
Continuous
100
AcDbLine
 10
-69.935405
 20
57.948945
 30
0.0
 11
-69.685405
 21
57.804608
 31
0.0
  0
LINE
  5
C1
330
BE
100
AcDbEntity
  8
ボルト／ビス
  6
Continuous
100
AcDbLine
 10
-69.935405
 20
57.948945
 30
0.0
 11
-70.185405
 21
57.804608
 31
0.0
  0
LINE
  5
C2
330
BE
100
AcDbEntity
  8
ボルト／ビス
  6
Continuous
100
AcDbLine
 10
-69.685405
 20
57.515933
 30
0.0
 11
-69.935405
 21
57.371595
 31
0.0
  0
LINE
  5
C3
330
BE
100
AcDbEntity
  8
ボルト／ビス
  6
Continuous
100
AcDbLine
 10
-70.185405
 20
57.515933
 30
0.0
 11
-69.935405
 21
57.371595
 31
0.0
  0
CIRCLE
  5
C4
330
BE
100
AcDbEntity
  8
ボルト／ビス
  6
Continuous
100
AcDbCircle
 10
-69.935405
 20
57.66027
 30
0.0
 40
0.25
  0
LINE
  5
C5
330
BE
100
AcDbEntity
  8
ボルト／ビス
  6
Continuous
100
AcDbLine
 10
-70.185405
 20
57.804608
 30
0.0
 11
-70.185405
 21
57.515933
 31
0.0
  0
LINE
  5
C6
330
BE
100
AcDbEntity
  8
ボルト／ビス
  6
Continuous
100
AcDbLine
 10
-69.685405
 20
57.515933
 30
0.0
 11
-69.685405
 21
57.804608
 31
0.0
  0
ENDBLK
  5
C7
330
BE
100
AcDbEntity
  8
0
100
AcDbBlockEnd
  0
BLOCK
  5
C8
330
C9
100
AcDbEntity
  8
0
100
AcDbBlockBegin
  2
*U10
 70
     1
 71
     0
 10
0.0
 20
0.0
 30
0.0
  3
*U10
  1

  0
INSERT
  5
CA
330
C9
100
AcDbEntity
  8
補助線
  6
Continuous
100
AcDbBlockReference
  2
*U24
 10
0.0
 20
0.0
 30
0.0
  0
LINE
  5
CB
330
C9
100
AcDbEntity
  8
ボルト／ビス
  6
Continuous
100
AcDbLine
 10
-93.72408
 20
49.16027
 30
0.0
 11
-93.579742
 21
48.91027
 31
0.0
  0
LINE
  5
CC
330
C9
100
AcDbEntity
  8
ボルト／ビス
  6
Continuous
100
AcDbLine
 10
-93.72408
 20
49.16027
 30
0.0
 11
-93.579742
 21
49.41027
 31
0.0
  0
LINE
  5
CD
330
C9
100
AcDbEntity
  8
ボルト／ビス
  6
Continuous
100
AcDbLine
 10
-93.291068
 20
48.91027
 30
0.0
 11
-93.14673000000001
 21
49.16027
 31
0.0
  0
LINE
  5
CE
330
C9
100
AcDbEntity
  8
ボルト／ビス
  6
Continuous
100
AcDbLine
 10
-93.291068
 20
49.41027
 30
0.0
 11
-93.14673000000001
 21
49.16027
 31
0.0
  0
CIRCLE
  5
CF
330
C9
100
AcDbEntity
  8
ボルト／ビス
  6
Continuous
100
AcDbCircle
 10
-93.435405
 20
49.16027
 30
0.0
 40
0.25
  0
LINE
  5
D0
330
C9
100
AcDbEntity
  8
ボルト／ビス
  6
Continuous
100
AcDbLine
 10
-93.579742
 20
49.41027
 30
0.0
 11
-93.291068
 21
49.41027
 31
0.0
  0
LINE
  5
D1
330
C9
100
AcDbEntity
  8
ボルト／ビス
  6
Continuous
100
AcDbLine
 10
-93.291068
 20
48.91027
 30
0.0
 11
-93.579742
 21
48.91027
 31
0.0
  0
ENDBLK
  5
D2
330
C9
100
AcDbEntity
  8
0
100
AcDbBlockEnd
  0
BLOCK
  5
D3
330
D4
100
AcDbEntity
  8
0
100
AcDbBlockBegin
  2
*U11
 70
     1
 71
     0
 10
0.0
 20
0.0
 30
0.0
  3
*U11
  1

  0
INSERT
  5
D5
330
D4
100
AcDbEntity
  8
補助線
  6
Continuous
100
AcDbBlockReference
  2
*U25
 10
0.0
 20
0.0
 30
0.0
  0
LINE
  5
D6
330
D4
100
AcDbEntity
  8
ボルト／ビス
  6
Continuous
100
AcDbLine
 10
-54.935405
 20
57.948945
 30
0.0
 11
-55.185405
 21
57.804608
 31
0.0
  0
LINE
  5
D7
330
D4
100
AcDbEntity
  8
ボルト／ビス
  6
Continuous
100
AcDbLine
 10
-54.935405
 20
57.948945
 30
0.0
 11
-54.685405
 21
57.804608
 31
0.0
  0
LINE
  5
D8
330
D4
100
AcDbEntity
  8
ボルト／ビス
  6
Continuous
100
AcDbLine
 10
-55.185405
 20
57.515933
 30
0.0
 11
-54.935405
 21
57.371595
 31
0.0
  0
LINE
  5
D9
330
D4
100
AcDbEntity
  8
ボルト／ビス
  6
Continuous
100
AcDbLine
 10
-54.685405
 20
57.515933
 30
0.0
 11
-54.935405
 21
57.371595
 31
0.0
  0
CIRCLE
  5
DA
330
D4
100
AcDbEntity
  8
ボルト／ビス
  6
Continuous
100
AcDbCircle
 10
-54.935405
 20
57.66027
 30
0.0
 40
0.25
  0
LINE
  5
DB
330
D4
100
AcDbEntity
  8
ボルト／ビス
  6
Continuous
100
AcDbLine
 10
-54.685405
 20
57.804608
 30
0.0
 11
-54.685405
 21
57.515933
 31
0.0
  0
LINE
  5
DC
330
D4
100
AcDbEntity
  8
ボルト／ビス
  6
Continuous
100
AcDbLine
 10
-55.185405
 20
57.515933
 30
0.0
 11
-55.185405
 21
57.804608
 31
0.0
  0
ENDBLK
  5
DD
330
D4
100
AcDbEntity
  8
0
100
AcDbBlockEnd
  0
BLOCK
  5
DE
330
DF
100
AcDbEntity
  8
0
100
AcDbBlockBegin
  2
*U12
 70
     1
 71
     0
 10
0.0
 20
0.0
 30
0.0
  3
*U12
  1

  0
INSERT
  5
E0
330
DF
100
AcDbEntity
  8
補助線
  6
Continuous
100
AcDbBlockReference
  2
*U26
 10
0.0
 20
0.0
 30
0.0
  0
LINE
  5
E1
330
DF
100
AcDbEntity
  8
ボルト／ビス
  6
Continuous
100
AcDbLine
 10
-46.14673
 20
49.16027
 30
0.0
 11
-46.291068
 21
48.91027
 31
0.0
  0
LINE
  5
E2
330
DF
100
AcDbEntity
  8
ボルト／ビス
  6
Continuous
100
AcDbLine
 10
-46.14673
 20
49.16027
 30
0.0
 11
-46.291068
 21
49.41027
 31
0.0
  0
LINE
  5
E3
330
DF
100
AcDbEntity
  8
ボルト／ビス
  6
Continuous
100
AcDbLine
 10
-46.579742
 20
48.91027
 30
0.0
 11
-46.72408
 21
49.16027
 31
0.0
  0
LINE
  5
E4
330
DF
100
AcDbEntity
  8
ボルト／ビス
  6
Continuous
100
AcDbLine
 10
-46.579742
 20
49.41027
 30
0.0
 11
-46.72408
 21
49.16027
 31
0.0
  0
CIRCLE
  5
E5
330
DF
100
AcDbEntity
  8
ボルト／ビス
  6
Continuous
100
AcDbCircle
 10
-46.435405
 20
49.16027
 30
0.0
 40
0.25
  0
LINE
  5
E6
330
DF
100
AcDbEntity
  8
ボルト／ビス
  6
Continuous
100
AcDbLine
 10
-46.291068
 20
49.41027
 30
0.0
 11
-46.579742
 21
49.41027
 31
0.0
  0
LINE
  5
E7
330
DF
100
AcDbEntity
  8
ボルト／ビス
  6
Continuous
100
AcDbLine
 10
-46.579742
 20
48.91027
 30
0.0
 11
-46.291068
 21
48.91027
 31
0.0
  0
ENDBLK
  5
E8
330
DF
100
AcDbEntity
  8
0
100
AcDbBlockEnd
  0
BLOCK
  5
E9
330
EA
100
AcDbEntity
  8
0
100
AcDbBlockBegin
  2
*U13
 70
     1
 71
     0
 10
0.0
 20
0.0
 30
0.0
  3
*U13
  1

  0
LINE
  5
EB
330
EA
100
AcDbEntity
  8
寸法
  6
ByBlock
 62
     0
100
AcDbLine
 10
-68.935405
 20
-39.779985
 30
0.0
 11
-25.043632
 21
-39.779985
 31
0.0
  0
LINE
  5
EC
330
EA
100
AcDbEntity
  8
寸法
  6
ByBlock
 62
     0
100
AcDbLine
 10
-25.043632
 20
-52.279985
 30
0.0
 11
-25.043632
 21
-39.779985
 31
0.0
  0
POINT
  5
ED
330
EA
100
AcDbEntity
  8
寸法
 62
     0
100
AcDbPoint
 10
-25.043632
 20
-52.279985
 30
0.0
  0
POINT
  5
EE
330
EA
100
AcDbEntity
  8
寸法
 62
     0
100
AcDbPoint
 10
-25.043632
 20
-39.779985
 30
0.0
  0
TEXT
  5
EF
330
EA
100
AcDbEntity
  8
寸法
  6
Continuous
 62
     0
100
AcDbText
 10
-25.45
 20
-48.4875
 30
0.0
 40
3.0
  1
250
 50
90.0
  7
TextStyle03
 72
     5
 11
-25.45
 21
-43.6125
 31
0.0
100
AcDbText
  0
ENDBLK
  5
F0
330
EA
100
AcDbEntity
  8
0
100
AcDbBlockEnd
  0
BLOCK
  5
F1
330
F2
100
AcDbEntity
  8
0
100
AcDbBlockBegin
  2
*U14
 70
     1
 71
     0
 10
0.0
 20
0.0
 30
0.0
  3
*U14
  1

  0
LINE
  5
F3
330
F2
100
AcDbEntity
  8
寸法
  6
ByBlock
 62
     0
100
AcDbLine
 10
-92.435405
 20
-16.126177
 30
0.0
 11
-47.435405
 21
-16.126177
 31
0.0
  0
POINT
  5
F4
330
F2
100
AcDbEntity
  8
寸法
 62
     0
100
AcDbPoint
 10
-92.435405
 20
-16.126177
 30
0.0
  0
POINT
  5
F5
330
F2
100
AcDbEntity
  8
寸法
 62
     0
100
AcDbPoint
 10
-47.435405
 20
-16.126177
 30
0.0
  0
TEXT
  5
F6
330
F2
100
AcDbEntity
  8
寸法
  6
Continuous
 62
     0
100
AcDbText
 10
-80.84999999999999
 20
-15.775
 30
0.0
 40
3.0
  1
呼称寸法　900
  7
TextStyle03
 72
     5
 11
-59.1
 21
-15.775
 31
0.0
100
AcDbText
  0
ENDBLK
  5
F7
330
F2
100
AcDbEntity
  8
0
100
AcDbBlockEnd
  0
BLOCK
  5
F8
330
F9
100
AcDbEntity
  8
0
100
AcDbBlockBegin
  2
*U15
 70
     1
 71
     0
 10
0.0
 20
0.0
 30
0.0
  3
*U15
  1

  0
LINE
  5
FA
330
F9
100
AcDbEntity
  8
補助線
  6
ByBlock
 62
     0
100
AcDbLine
 10
-85.060405
 20
10.66027
 30
0.0
 11
-84.810405
 21
10.66027
 31
0.0
  0
LINE
  5
FB
330
F9
100
AcDbEntity
  8
補助線
  6
ByBlock
 62
     0
100
AcDbLine
 10
-84.935405
 20
10.53527
 30
0.0
 11
-84.935405
 21
10.78527
 31
0.0
  0
ENDBLK
  5
FC
330
F9
100
AcDbEntity
  8
0
100
AcDbBlockEnd
  0
BLOCK
  5
FD
330
FE
100
AcDbEntity
  8
0
100
AcDbBlockBegin
  2
*U16
 70
     1
 71
     0
 10
0.0
 20
0.0
 30
0.0
  3
*U16
  1

  0
LINE
  5
FF
330
FE
100
AcDbEntity
  8
補助線
  6
ByBlock
 62
     0
100
AcDbLine
 10
-70.060405
 20
10.66027
 30
0.0
 11
-69.810405
 21
10.66027
 31
0.0
  0
LINE
  5
100
330
FE
100
AcDbEntity
  8
補助線
  6
ByBlock
 62
     0
100
AcDbLine
 10
-69.935405
 20
10.53527
 30
0.0
 11
-69.935405
 21
10.78527
 31
0.0
  0
ENDBLK
  5
101
330
FE
100
AcDbEntity
  8
0
100
AcDbBlockEnd
  0
BLOCK
  5
102
330
103
100
AcDbEntity
  8
0
100
AcDbBlockBegin
  2
*U17
 70
     1
 71
     0
 10
0.0
 20
0.0
 30
0.0
  3
*U17
  1

  0
LINE
  5
104
330
103
100
AcDbEntity
  8
補助線
  6
ByBlock
 62
     0
100
AcDbLine
 10
-93.435405
 20
19.03527
 30
0.0
 11
-93.435405
 21
19.28527
 31
0.0
  0
LINE
  5
105
330
103
100
AcDbEntity
  8
補助線
  6
ByBlock
 62
     0
100
AcDbLine
 10
-93.560405
 20
19.16027
 30
0.0
 11
-93.310405
 21
19.16027
 31
0.0
  0
ENDBLK
  5
106
330
103
100
AcDbEntity
  8
0
100
AcDbBlockEnd
  0
BLOCK
  5
107
330
108
100
AcDbEntity
  8
0
100
AcDbBlockBegin
  2
*U18
 70
     1
 71
     0
 10
0.0
 20
0.0
 30
0.0
  3
*U18
  1

  0
LINE
  5
109
330
108
100
AcDbEntity
  8
補助線
  6
ByBlock
 62
     0
100
AcDbLine
 10
-93.435405
 20
34.03527
 30
0.0
 11
-93.435405
 21
34.28527
 31
0.0
  0
LINE
  5
10A
330
108
100
AcDbEntity
  8
補助線
  6
ByBlock
 62
     0
100
AcDbLine
 10
-93.560405
 20
34.16027
 30
0.0
 11
-93.310405
 21
34.16027
 31
0.0
  0
ENDBLK
  5
10B
330
108
100
AcDbEntity
  8
0
100
AcDbBlockEnd
  0
BLOCK
  5
10C
330
10D
100
AcDbEntity
  8
0
100
AcDbBlockBegin
  2
*U19
 70
     1
 71
     0
 10
0.0
 20
0.0
 30
0.0
  3
*U19
  1

  0
LINE
  5
10E
330
10D
100
AcDbEntity
  8
補助線
  6
ByBlock
 62
     0
100
AcDbLine
 10
-54.810405
 20
10.66027
 30
0.0
 11
-55.060405
 21
10.66027
 31
0.0
  0
LINE
  5
10F
330
10D
100
AcDbEntity
  8
補助線
  6
ByBlock
 62
     0
100
AcDbLine
 10
-54.935405
 20
10.53527
 30
0.0
 11
-54.935405
 21
10.78527
 31
0.0
  0
ENDBLK
  5
110
330
10D
100
AcDbEntity
  8
0
100
AcDbBlockEnd
  0
BLOCK
  5
111
330
112
100
AcDbEntity
  8
0
100
AcDbBlockBegin
  2
*U20
 70
     1
 71
     0
 10
0.0
 20
0.0
 30
0.0
  3
*U20
  1

  0
LINE
  5
113
330
112
100
AcDbEntity
  8
補助線
  6
ByBlock
 62
     0
100
AcDbLine
 10
-46.435405
 20
19.03527
 30
0.0
 11
-46.435405
 21
19.28527
 31
0.0
  0
LINE
  5
114
330
112
100
AcDbEntity
  8
補助線
  6
ByBlock
 62
     0
100
AcDbLine
 10
-46.310405
 20
19.16027
 30
0.0
 11
-46.560405
 21
19.16027
 31
0.0
  0
ENDBLK
  5
115
330
112
100
AcDbEntity
  8
0
100
AcDbBlockEnd
  0
BLOCK
  5
116
330
117
100
AcDbEntity
  8
0
100
AcDbBlockBegin
  2
*U21
 70
     1
 71
     0
 10
0.0
 20
0.0
 30
0.0
  3
*U21
  1

  0
LINE
  5
118
330
117
100
AcDbEntity
  8
補助線
  6
ByBlock
 62
     0
100
AcDbLine
 10
-46.435405
 20
34.03527
 30
0.0
 11
-46.435405
 21
34.28527
 31
0.0
  0
LINE
  5
119
330
117
100
AcDbEntity
  8
補助線
  6
ByBlock
 62
     0
100
AcDbLine
 10
-46.310405
 20
34.16027
 30
0.0
 11
-46.560405
 21
34.16027
 31
0.0
  0
ENDBLK
  5
11A
330
117
100
AcDbEntity
  8
0
100
AcDbBlockEnd
  0
BLOCK
  5
11B
330
11C
100
AcDbEntity
  8
0
100
AcDbBlockBegin
  2
*U22
 70
     1
 71
     0
 10
0.0
 20
0.0
 30
0.0
  3
*U22
  1

  0
LINE
  5
11D
330
11C
100
AcDbEntity
  8
補助線
  6
ByBlock
 62
     0
100
AcDbLine
 10
-85.060405
 20
57.66027
 30
0.0
 11
-84.810405
 21
57.66027
 31
0.0
  0
LINE
  5
11E
330
11C
100
AcDbEntity
  8
補助線
  6
ByBlock
 62
     0
100
AcDbLine
 10
-84.935405
 20
57.78527
 30
0.0
 11
-84.935405
 21
57.53527
 31
0.0
  0
ENDBLK
  5
11F
330
11C
100
AcDbEntity
  8
0
100
AcDbBlockEnd
  0
BLOCK
  5
120
330
121
100
AcDbEntity
  8
0
100
AcDbBlockBegin
  2
*U23
 70
     1
 71
     0
 10
0.0
 20
0.0
 30
0.0
  3
*U23
  1

  0
LINE
  5
122
330
121
100
AcDbEntity
  8
補助線
  6
ByBlock
 62
     0
100
AcDbLine
 10
-70.060405
 20
57.66027
 30
0.0
 11
-69.810405
 21
57.66027
 31
0.0
  0
LINE
  5
123
330
121
100
AcDbEntity
  8
補助線
  6
ByBlock
 62
     0
100
AcDbLine
 10
-69.935405
 20
57.78527
 30
0.0
 11
-69.935405
 21
57.53527
 31
0.0
  0
ENDBLK
  5
124
330
121
100
AcDbEntity
  8
0
100
AcDbBlockEnd
  0
BLOCK
  5
125
330
126
100
AcDbEntity
  8
0
100
AcDbBlockBegin
  2
*U24
 70
     1
 71
     0
 10
0.0
 20
0.0
 30
0.0
  3
*U24
  1

  0
LINE
  5
127
330
126
100
AcDbEntity
  8
補助線
  6
ByBlock
 62
     0
100
AcDbLine
 10
-93.435405
 20
49.28527
 30
0.0
 11
-93.435405
 21
49.03527
 31
0.0
  0
LINE
  5
128
330
126
100
AcDbEntity
  8
補助線
  6
ByBlock
 62
     0
100
AcDbLine
 10
-93.560405
 20
49.16027
 30
0.0
 11
-93.310405
 21
49.16027
 31
0.0
  0
ENDBLK
  5
129
330
126
100
AcDbEntity
  8
0
100
AcDbBlockEnd
  0
BLOCK
  5
12A
330
12B
100
AcDbEntity
  8
0
100
AcDbBlockBegin
  2
*U25
 70
     1
 71
     0
 10
0.0
 20
0.0
 30
0.0
  3
*U25
  1

  0
LINE
  5
12C
330
12B
100
AcDbEntity
  8
補助線
  6
ByBlock
 62
     0
100
AcDbLine
 10
-54.810405
 20
57.66027
 30
0.0
 11
-55.060405
 21
57.66027
 31
0.0
  0
LINE
  5
12D
330
12B
100
AcDbEntity
  8
補助線
  6
ByBlock
 62
     0
100
AcDbLine
 10
-54.935405
 20
57.78527
 30
0.0
 11
-54.935405
 21
57.53527
 31
0.0
  0
ENDBLK
  5
12E
330
12B
100
AcDbEntity
  8
0
100
AcDbBlockEnd
  0
BLOCK
  5
12F
330
130
100
AcDbEntity
  8
0
100
AcDbBlockBegin
  2
*U26
 70
     1
 71
     0
 10
0.0
 20
0.0
 30
0.0
  3
*U26
  1

  0
LINE
  5
131
330
130
100
AcDbEntity
  8
補助線
  6
ByBlock
 62
     0
100
AcDbLine
 10
-46.435405
 20
49.28527
 30
0.0
 11
-46.435405
 21
49.03527
 31
0.0
  0
LINE
  5
132
330
130
100
AcDbEntity
  8
補助線
  6
ByBlock
 62
     0
100
AcDbLine
 10
-46.310405
 20
49.16027
 30
0.0
 11
-46.560405
 21
49.16027
 31
0.0
  0
ENDBLK
  5
133
330
130
100
AcDbEntity
  8
0
100
AcDbBlockEnd
  0
BLOCK
  5
134
330
135
100
AcDbEntity
  8
0
100
AcDbBlockBegin
  2
*U27
 70
     1
 71
     0
 10
0.0
 20
0.0
 30
0.0
  3
*U27
  1

  0
LINE
  5
136
330
135
100
AcDbEntity
  8
寸法
  6
ByBlock
 62
     0
100
AcDbLine
 10
-84.935405
 20
57.66027
 30
0.0
 11
-84.935405
 21
75.599285
 31
0.0
  0
LINE
  5
137
330
135
100
AcDbEntity
  8
寸法
  6
ByBlock
 62
     0
100
AcDbLine
 10
-54.935405
 20
57.66027
 30
0.0
 11
-54.935405
 21
75.599285
 31
0.0
  0
LINE
  5
138
330
135
100
AcDbEntity
  8
寸法
  6
ByBlock
 62
     0
100
AcDbLine
 10
-84.935405
 20
75.599285
 30
0.0
 11
-54.935405
 21
75.599285
 31
0.0
  0
POINT
  5
139
330
135
100
AcDbEntity
  8
寸法
 62
     0
100
AcDbPoint
 10
-84.935405
 20
75.599285
 30
0.0
  0
POINT
  5
13A
330
135
100
AcDbEntity
  8
寸法
 62
     0
100
AcDbPoint
 10
-54.935405
 20
75.599285
 30
0.0
  0
TEXT
  5
13B
330
135
100
AcDbEntity
  8
寸法
  6
Continuous
 62
     0
100
AcDbText
 10
-72.3875
 20
75.95
 30
0.0
 40
3.0
  1
600
  7
TextStyle03
 72
     5
 11
-67.5125
 21
75.95
 31
0.0
100
AcDbText
  0
ENDBLK
  5
13C
330
135
100
AcDbEntity
  8
0
100
AcDbBlockEnd
  0
BLOCK
  5
13D
330
13E
100
AcDbEntity
  8
0
100
AcDbBlockBegin
  2
*U28
 70
     1
 71
     0
 10
0.0
 20
0.0
 30
0.0
  3
*U28
  1

  0
LINE
  5
13F
330
13E
100
AcDbEntity
  8
寸法
  6
ByBlock
 62
     0
100
AcDbLine
 10
-93.435405
 20
56.66027
 30
0.0
 11
-116.343648
 21
56.66027
 31
0.0
  0
LINE
  5
140
330
13E
100
AcDbEntity
  8
寸法
  6
ByBlock
 62
     0
100
AcDbLine
 10
-93.435405
 20
34.16027
 30
0.0
 11
-116.343648
 21
34.16027
 31
0.0
  0
LINE
  5
141
330
13E
100
AcDbEntity
  8
寸法
  6
ByBlock
 62
     0
100
AcDbLine
 10
-116.343648
 20
56.66027
 30
0.0
 11
-116.343648
 21
34.16027
 31
0.0
  0
POINT
  5
142
330
13E
100
AcDbEntity
  8
寸法
 62
     0
100
AcDbPoint
 10
-116.343648
 20
56.66027
 30
0.0
  0
POINT
  5
143
330
13E
100
AcDbEntity
  8
寸法
 62
     0
100
AcDbPoint
 10
-116.343648
 20
34.16027
 30
0.0
  0
TEXT
  5
144
330
13E
100
AcDbEntity
  8
寸法
  6
Continuous
 62
     0
100
AcDbText
 10
-116.725
 20
42.9375
 30
0.0
 40
3.0
  1
450
 50
90.0
  7
TextStyle03
 72
     5
 11
-116.725
 21
47.8125
 31
0.0
100
AcDbText
  0
ENDBLK
  5
145
330
13E
100
AcDbEntity
  8
0
100
AcDbBlockEnd
  0
BLOCK
  5
146
330
147
100
AcDbEntity
  8
0
100
AcDbBlockBegin
  2
*U29
 70
     1
 71
     0
 10
0.0
 20
0.0
 30
0.0
  3
*U29
  1

  0
LINE
  5
148
330
147
100
AcDbEntity
  8
寸法
  6
ByBlock
 62
     0
100
AcDbLine
 10
-93.435405
 20
11.66027
 30
0.0
 11
-116.343648
 21
11.66027
 31
0.0
  0
LINE
  5
149
330
147
100
AcDbEntity
  8
寸法
  6
ByBlock
 62
     0
100
AcDbLine
 10
-116.343648
 20
34.16027
 30
0.0
 11
-116.343648
 21
11.66027
 31
0.0
  0
POINT
  5
14A
330
147
100
AcDbEntity
  8
寸法
 62
     0
100
AcDbPoint
 10
-116.343648
 20
11.66027
 30
0.0
  0
TEXT
  5
14B
330
147
100
AcDbEntity
  8
寸法
  6
Continuous
 62
     0
100
AcDbText
 10
-116.725
 20
20.4375
 30
0.0
 40
3.0
  1
450
 50
90.0
  7
TextStyle03
 72
     5
 11
-116.725
 21
25.3125
 31
0.0
100
AcDbText
  0
ENDBLK
  5
14C
330
147
100
AcDbEntity
  8
0
100
AcDbBlockEnd
  0
BLOCK
  5
14D
330
14E
100
AcDbEntity
  8
0
100
AcDbBlockBegin
  2
*U30
 70
     1
 71
     0
 10
0.0
 20
0.0
 30
0.0
  3
*U30
  1

  0
LINE
  5
14F
330
14E
100
AcDbEntity
  8
寸法
  6
ByBlock
 62
     0
100
AcDbLine
 10
-40.673157
 20
-52.279985
 30
0.0
 11
-25.043632
 21
-52.279985
 31
0.0
  0
LINE
  5
150
330
14E
100
AcDbEntity
  8
寸法
  6
ByBlock
 62
     0
100
AcDbLine
 10
-38.173155
 20
-58.030343
 30
0.0
 11
-25.043632
 21
-58.030343
 31
0.0
  0
LINE
  5
151
330
14E
100
AcDbEntity
  8
寸法
  6
ByBlock
 62
     0
100
AcDbLine
 10
-25.043632
 20
-52.279985
 30
0.0
 11
-25.043632
 21
-58.030343
 31
0.0
  0
POINT
  5
152
330
14E
100
AcDbEntity
  8
寸法
 62
     0
100
AcDbPoint
 10
-25.043632
 20
-52.279985
 30
0.0
  0
POINT
  5
153
330
14E
100
AcDbEntity
  8
寸法
 62
     0
100
AcDbPoint
 10
-25.043632
 20
-58.030343
 30
0.0
  0
TEXT
  5
154
330
14E
100
AcDbEntity
  8
寸法
  6
Continuous
 62
     0
100
AcDbText
 10
-25.45
 20
-57.6125
 30
0.0
 40
3.0
  1
115
 50
90.0
  7
TextStyle03
 72
     5
 11
-25.45
 21
-52.7375
 31
0.0
100
AcDbText
  0
ENDBLK
  5
155
330
14E
100
AcDbEntity
  8
0
100
AcDbBlockEnd
  0
BLOCK
  5
156
330
157
100
AcDbEntity
  8
0
100
AcDbBlockBegin
  2
*U31
 70
     1
 71
     0
 10
0.0
 20
0.0
 30
0.0
  3
*U31
  1

  0
LINE
  5
158
330
157
100
AcDbEntity
  8
寸法
  6
ByBlock
 62
     0
100
AcDbLine
 10
-42.685402
 20
-54.280343
 30
0.0
 11
-42.685402
 21
-16.126177
 31
0.0
  0
LINE
  5
159
330
157
100
AcDbEntity
  8
寸法
  6
ByBlock
 62
     0
100
AcDbLine
 10
-47.435405
 20
-16.126177
 30
0.0
 11
-42.685402
 21
-16.126177
 31
0.0
  0
POINT
  5
15A
330
157
100
AcDbEntity
  8
寸法
 62
     0
100
AcDbPoint
 10
-47.435405
 20
-16.126177
 30
0.0
  0
POINT
  5
15B
330
157
100
AcDbEntity
  8
寸法
 62
     0
100
AcDbPoint
 10
-42.685402
 20
-16.126177
 30
0.0
  0
TEXT
  5
15C
330
157
100
AcDbEntity
  8
寸法
  6
Continuous
 62
     0
100
AcDbText
 10
-46.66875
 20
-15.775
 30
0.0
 40
3.0
  1
95
  7
TextStyle03
 72
     5
 11
-43.48125
 21
-15.775
 31
0.0
100
AcDbText
  0
ENDBLK
  5
15D
330
157
100
AcDbEntity
  8
0
100
AcDbBlockEnd
  0
BLOCK
  5
15E
330
15F
100
AcDbEntity
  8
0
100
AcDbBlockBegin
  2
*U32
 70
     1
 71
     0
 10
0.0
 20
0.0
 30
0.0
  3
*U32
  1

  0
LINE
  5
160
330
15F
100
AcDbEntity
  8
寸法
  6
ByBlock
 62
     0
100
AcDbLine
 10
-97.185408
 20
-54.280343
 30
0.0
 11
-97.185408
 21
-16.126177
 31
0.0
  0
LINE
  5
161
330
15F
100
AcDbEntity
  8
寸法
  6
ByBlock
 62
     0
100
AcDbLine
 10
-92.435405
 20
-16.126177
 30
0.0
 11
-97.185408
 21
-16.126177
 31
0.0
  0
POINT
  5
162
330
15F
100
AcDbEntity
  8
寸法
 62
     0
100
AcDbPoint
 10
-92.435405
 20
-16.126177
 30
0.0
  0
POINT
  5
163
330
15F
100
AcDbEntity
  8
寸法
 62
     0
100
AcDbPoint
 10
-97.185408
 20
-16.126177
 30
0.0
  0
TEXT
  5
164
330
15F
100
AcDbEntity
  8
寸法
  6
Continuous
 62
     0
100
AcDbText
 10
-96.41875
 20
-15.775
 30
0.0
 40
3.0
  1
95
  7
TextStyle03
 72
     5
 11
-93.23125
 21
-15.775
 31
0.0
100
AcDbText
  0
ENDBLK
  5
165
330
15F
100
AcDbEntity
  8
0
100
AcDbBlockEnd
  0
BLOCK
  5
166
330
167
100
AcDbEntity
  8
0
100
AcDbBlockBegin
  2
*U33
 70
     1
 71
     0
 10
0.0
 20
0.0
 30
0.0
  3
*U33
  1

  0
LINE
  5
168
330
167
100
AcDbEntity
  8
寸法
  6
ByBlock
 62
     0
100
AcDbLine
 10
122.554785
 20
77.30747700000001
 30
0.0
 11
122.554785
 21
87.027592
 31
0.0
  0
LINE
  5
169
330
167
100
AcDbEntity
  8
寸法
  6
ByBlock
 62
     0
100
AcDbLine
 10
167.054785
 20
77.30747700000001
 30
0.0
 11
167.054785
 21
87.027592
 31
0.0
  0
LINE
  5
16A
330
167
100
AcDbEntity
  8
寸法
  6
ByBlock
 62
     0
100
AcDbLine
 10
122.554785
 20
87.027592
 30
0.0
 11
167.054785
 21
87.027592
 31
0.0
  0
POINT
  5
16B
330
167
100
AcDbEntity
  8
寸法
 62
     0
100
AcDbPoint
 10
122.554785
 20
87.027592
 30
0.0
  0
POINT
  5
16C
330
167
100
AcDbEntity
  8
寸法
 62
     0
100
AcDbPoint
 10
167.054785
 20
87.027592
 30
0.0
  0
TEXT
  5
16D
330
167
100
AcDbEntity
  8
寸法
  6
Continuous
 62
     0
100
AcDbText
 10
142.3625
 20
87.40000000000001
 30
0.0
 40
3.0
  1
890
  7
TextStyle03
 72
     5
 11
147.2375
 21
87.40000000000001
 31
0.0
100
AcDbText
  0
ENDBLK
  5
16E
330
167
100
AcDbEntity
  8
0
100
AcDbBlockEnd
  0
BLOCK
  5
16F
330
170
100
AcDbEntity
  8
0
100
AcDbBlockBegin
  2
*U34
 70
     1
 71
     0
 10
0.0
 20
0.0
 30
0.0
  3
*U34
  1

  0
LINE
  5
171
330
170
100
AcDbEntity
  8
寸法
  6
ByBlock
 62
     0
100
AcDbLine
 10
170.054785
 20
74.30747700000001
 30
0.0
 11
180.156187
 21
74.30747700000001
 31
0.0
  0
LINE
  5
172
330
170
100
AcDbEntity
  8
寸法
  6
ByBlock
 62
     0
100
AcDbLine
 10
170.054785
 20
29.807477
 30
0.0
 11
180.156187
 21
29.807477
 31
0.0
  0
LINE
  5
173
330
170
100
AcDbEntity
  8
寸法
  6
ByBlock
 62
     0
100
AcDbLine
 10
180.156187
 20
74.30747700000001
 30
0.0
 11
180.156187
 21
29.807477
 31
0.0
  0
POINT
  5
174
330
170
100
AcDbEntity
  8
寸法
 62
     0
100
AcDbPoint
 10
180.156187
 20
74.30747700000001
 30
0.0
  0
POINT
  5
175
330
170
100
AcDbEntity
  8
寸法
 62
     0
100
AcDbPoint
 10
180.156187
 20
29.807477
 30
0.0
  0
TEXT
  5
176
330
170
100
AcDbEntity
  8
寸法
  6
Continuous
 62
     0
100
AcDbText
 10
179.775
 20
49.6125
 30
0.0
 40
3.0
  1
890
 50
90.0
  7
TextStyle03
 72
     5
 11
179.775
 21
54.4875
 31
0.0
100
AcDbText
  0
ENDBLK
  5
177
330
170
100
AcDbEntity
  8
0
100
AcDbBlockEnd
  0
BLOCK
  5
178
330
179
100
AcDbEntity
  8
0
100
AcDbBlockBegin
  2
*U35
 70
     1
 71
     0
 10
0.0
 20
0.0
 30
0.0
  3
*U35
  1

  0
LINE
  5
17A
330
179
100
AcDbEntity
  8
ボルト／ビス
  6
Continuous
100
AcDbLine
 10
-93.435405
 20
-52.279987
 30
0.0
 11
-93.435405
 21
-51.579987
 31
0.0
  0
LINE
  5
17B
330
179
100
AcDbEntity
  8
ボルト／ビス
  6
Continuous
100
AcDbLine
 10
-92.88540500000001
 20
-52.279987
 30
0.0
 11
-92.88540500000001
 21
-52.179987
 31
0.0
  0
LINE
  5
17C
330
179
100
AcDbEntity
  8
ボルト／ビス
  6
Continuous
100
AcDbLine
 10
-92.88540500000001
 20
-52.179987
 30
0.0
 11
-93.985405
 21
-52.179987
 31
0.0
  0
LINE
  5
17D
330
179
100
AcDbEntity
  8
ボルト／ビス
  6
Continuous
100
AcDbLine
 10
-93.985405
 20
-52.179987
 30
0.0
 11
-93.985405
 21
-52.279987
 31
0.0
  0
LINE
  5
17E
330
179
100
AcDbEntity
  8
ボルト／ビス
  6
Continuous
100
AcDbLine
 10
-92.88540500000001
 20
-52.279987
 30
0.0
 11
-93.985405
 21
-52.279987
 31
0.0
  0
LINE
  5
17F
330
179
100
AcDbEntity
  8
ボルト／ビス
  6
Continuous
100
AcDbLine
 10
-92.985405
 20
-52.129987
 30
0.0
 11
-92.985405
 21
-52.179987
 31
0.0
  0
LINE
  5
180
330
179
100
AcDbEntity
  8
ボルト／ビス
  6
Continuous
100
AcDbLine
 10
-92.985405
 20
-52.129987
 30
0.0
 11
-93.88540500000001
 21
-52.129987
 31
0.0
  0
LINE
  5
181
330
179
100
AcDbEntity
  8
ボルト／ビス
  6
Continuous
100
AcDbLine
 10
-93.88540500000001
 20
-52.129987
 30
0.0
 11
-93.88540500000001
 21
-52.179987
 31
0.0
  0
LINE
  5
182
330
179
100
AcDbEntity
  8
ボルト／ビス
  6
Continuous
 62
    64
100
AcDbLine
 10
-93.19484199999999
 20
-51.829987
 30
0.0
 11
-93.14673000000001
 21
-51.8475
 31
0.0
  0
ARC
  5
183
330
179
100
AcDbEntity
  8
ボルト／ビス
  6
Continuous
 62
    64
100
AcDbCircle
 10
-93.21889899999999
 20
-51.987457
 30
0.0
 40
0.157468
100
AcDbArc
 50
90.0
 51
117.278033
  0
ARC
  5
184
330
179
100
AcDbEntity
  8
ボルト／ビス
  6
Continuous
 62
    64
100
AcDbCircle
 10
-93.435405
 20
-52.433593
 30
0.0
 40
0.603603
100
AcDbArc
 50
76.165015
 51
103.834998
  0
LINE
  5
185
330
179
100
AcDbEntity
  8
ボルト／ビス
  6
Continuous
 62
    64
100
AcDbLine
 10
-93.675968
 20
-51.829987
 30
0.0
 11
-93.72408
 21
-51.8475
 31
0.0
  0
ARC
  5
186
330
179
100
AcDbEntity
  8
ボルト／ビス
  6
Continuous
 62
    64
100
AcDbCircle
 10
-93.651912
 20
-51.987457
 30
0.0
 40
0.157468
100
AcDbArc
 50
62.721967
 51
90.0
  0
LINE
  5
187
330
179
100
AcDbEntity
  8
ボルト／ビス
  6
Continuous
 62
    64
100
AcDbLine
 10
-93.19484199999999
 20
-51.829987
 30
0.0
 11
-93.675968
 21
-51.829987
 31
0.0
  0
LINE
  5
188
330
179
100
AcDbEntity
  8
ボルト／ビス
  6
Continuous
 62
    64
100
AcDbLine
 10
-93.72408
 20
-51.8475
 30
0.0
 11
-93.72408
 21
-52.029987
 31
0.0
  0
LINE
  5
189
330
179
100
AcDbEntity
  8
ボルト／ビス
  6
Continuous
 62
    64
100
AcDbLine
 10
-93.579742
 20
-51.8475
 30
0.0
 11
-93.579742
 21
-52.029987
 31
0.0
  0
LINE
  5
18A
330
179
100
AcDbEntity
  8
ボルト／ビス
  6
Continuous
 62
    64
100
AcDbLine
 10
-93.14673000000001
 20
-51.8475
 30
0.0
 11
-93.14673000000001
 21
-52.029987
 31
0.0
  0
LINE
  5
18B
330
179
100
AcDbEntity
  8
ボルト／ビス
  6
Continuous
 62
    64
100
AcDbLine
 10
-93.291068
 20
-51.8475
 30
0.0
 11
-93.291068
 21
-52.029987
 31
0.0
  0
LINE
  5
18C
330
179
100
AcDbEntity
  8
ボルト／ビス
  6
Continuous
100
AcDbLine
 10
-93.14673000000001
 20
-52.029987
 30
0.0
 11
-93.72408
 21
-52.029987
 31
0.0
  0
LINE
  5
18D
330
179
100
AcDbEntity
  8
ボルト／ビス
  6
Continuous
100
AcDbLine
 10
-93.13540500000001
 20
-52.029987
 30
0.0
 11
-93.13540500000001
 21
-52.129987
 31
0.0
  0
LINE
  5
18E
330
179
100
AcDbEntity
  8
ボルト／ビス
  6
Continuous
100
AcDbLine
 10
-93.13540500000001
 20
-52.029987
 30
0.0
 11
-93.735405
 21
-52.029987
 31
0.0
  0
LINE
  5
18F
330
179
100
AcDbEntity
  8
ボルト／ビス
  6
Continuous
100
AcDbLine
 10
-93.735405
 20
-52.029987
 30
0.0
 11
-93.735405
 21
-52.129987
 31
0.0
  0
ENDBLK
  5
190
330
179
100
AcDbEntity
  8
0
100
AcDbBlockEnd
  0
BLOCK
  5
191
330
192
100
AcDbEntity
  8
0
100
AcDbBlockBegin
  2
*U36
 70
     1
 71
     0
 10
0.0
 20
0.0
 30
0.0
  3
*U36
  1

  0
LINE
  5
193
330
192
100
AcDbEntity
  8
ボルト／ビス
  6
Continuous
100
AcDbLine
 10
-46.435405
 20
-52.279987
 30
0.0
 11
-46.435405
 21
-51.579987
 31
0.0
  0
LINE
  5
194
330
192
100
AcDbEntity
  8
ボルト／ビス
  6
Continuous
100
AcDbLine
 10
-46.985405
 20
-52.279987
 30
0.0
 11
-46.985405
 21
-52.179987
 31
0.0
  0
LINE
  5
195
330
192
100
AcDbEntity
  8
ボルト／ビス
  6
Continuous
100
AcDbLine
 10
-46.985405
 20
-52.179987
 30
0.0
 11
-45.885405
 21
-52.179987
 31
0.0
  0
LINE
  5
196
330
192
100
AcDbEntity
  8
ボルト／ビス
  6
Continuous
100
AcDbLine
 10
-45.885405
 20
-52.179987
 30
0.0
 11
-45.885405
 21
-52.279987
 31
0.0
  0
LINE
  5
197
330
192
100
AcDbEntity
  8
ボルト／ビス
  6
Continuous
100
AcDbLine
 10
-46.985405
 20
-52.279987
 30
0.0
 11
-45.885405
 21
-52.279987
 31
0.0
  0
LINE
  5
198
330
192
100
AcDbEntity
  8
ボルト／ビス
  6
Continuous
100
AcDbLine
 10
-46.885405
 20
-52.129987
 30
0.0
 11
-46.885405
 21
-52.179987
 31
0.0
  0
LINE
  5
199
330
192
100
AcDbEntity
  8
ボルト／ビス
  6
Continuous
100
AcDbLine
 10
-46.885405
 20
-52.129987
 30
0.0
 11
-45.985405
 21
-52.129987
 31
0.0
  0
LINE
  5
19A
330
192
100
AcDbEntity
  8
ボルト／ビス
  6
Continuous
100
AcDbLine
 10
-45.985405
 20
-52.129987
 30
0.0
 11
-45.985405
 21
-52.179987
 31
0.0
  0
LINE
  5
19B
330
192
100
AcDbEntity
  8
ボルト／ビス
  6
Continuous
 62
    64
100
AcDbLine
 10
-46.675968
 20
-51.829987
 30
0.0
 11
-46.72408
 21
-51.8475
 31
0.0
  0
ARC
  5
19C
330
192
100
AcDbEntity
  8
ボルト／ビス
  6
Continuous
 62
    64
100
AcDbCircle
 10
-46.651911
 20
-51.987457
 30
0.0
 40
0.157468
100
AcDbArc
 50
62.721967
 51
90.0
  0
ARC
  5
19D
330
192
100
AcDbEntity
  8
ボルト／ビス
  6
Continuous
 62
    64
100
AcDbCircle
 10
-46.435405
 20
-52.433593
 30
0.0
 40
0.603603
100
AcDbArc
 50
76.165002
 51
103.834985
  0
LINE
  5
19E
330
192
100
AcDbEntity
  8
ボルト／ビス
  6
Continuous
 62
    64
100
AcDbLine
 10
-46.194842
 20
-51.829987
 30
0.0
 11
-46.14673
 21
-51.8475
 31
0.0
  0
ARC
  5
19F
330
192
100
AcDbEntity
  8
ボルト／ビス
  6
Continuous
 62
    64
100
AcDbCircle
 10
-46.218898
 20
-51.987457
 30
0.0
 40
0.157468
100
AcDbArc
 50
90.0
 51
117.278033
  0
LINE
  5
1A0
330
192
100
AcDbEntity
  8
ボルト／ビス
  6
Continuous
 62
    64
100
AcDbLine
 10
-46.675968
 20
-51.829987
 30
0.0
 11
-46.194842
 21
-51.829987
 31
0.0
  0
LINE
  5
1A1
330
192
100
AcDbEntity
  8
ボルト／ビス
  6
Continuous
 62
    64
100
AcDbLine
 10
-46.14673
 20
-51.8475
 30
0.0
 11
-46.14673
 21
-52.029987
 31
0.0
  0
LINE
  5
1A2
330
192
100
AcDbEntity
  8
ボルト／ビス
  6
Continuous
 62
    64
100
AcDbLine
 10
-46.291068
 20
-51.8475
 30
0.0
 11
-46.291068
 21
-52.029987
 31
0.0
  0
LINE
  5
1A3
330
192
100
AcDbEntity
  8
ボルト／ビス
  6
Continuous
 62
    64
100
AcDbLine
 10
-46.72408
 20
-51.8475
 30
0.0
 11
-46.72408
 21
-52.029987
 31
0.0
  0
LINE
  5
1A4
330
192
100
AcDbEntity
  8
ボルト／ビス
  6
Continuous
 62
    64
100
AcDbLine
 10
-46.579742
 20
-51.8475
 30
0.0
 11
-46.579742
 21
-52.029987
 31
0.0
  0
LINE
  5
1A5
330
192
100
AcDbEntity
  8
ボルト／ビス
  6
Continuous
100
AcDbLine
 10
-46.72408
 20
-52.029987
 30
0.0
 11
-46.14673
 21
-52.029987
 31
0.0
  0
LINE
  5
1A6
330
192
100
AcDbEntity
  8
ボルト／ビス
  6
Continuous
100
AcDbLine
 10
-46.735405
 20
-52.029987
 30
0.0
 11
-46.735405
 21
-52.129987
 31
0.0
  0
LINE
  5
1A7
330
192
100
AcDbEntity
  8
ボルト／ビス
  6
Continuous
100
AcDbLine
 10
-46.735405
 20
-52.029987
 30
0.0
 11
-46.135405
 21
-52.029987
 31
0.0
  0
LINE
  5
1A8
330
192
100
AcDbEntity
  8
ボルト／ビス
  6
Continuous
100
AcDbLine
 10
-46.135405
 20
-52.029987
 30
0.0
 11
-46.135405
 21
-52.129987
 31
0.0
  0
ENDBLK
  5
1A9
330
192
100
AcDbEntity
  8
0
100
AcDbBlockEnd
  0
ENDSEC
  0
SECTION
  2
ENTITIES
  0
LWPOLYLINE
  5
1AA
330
1D
100
AcDbEntity
  8
通り芯
  6
Continuous
100
AcDbPolyline
 90
        4
 70
     1
 43
0.0
 10
-210.0
 20
-148.5
 10
210.0
 20
-148.5
 10
210.0
 20
148.5
 10
-210.0
 20
148.5
  0
INSERT
  5
1B0
330
1D
100
AcDbEntity
  8
型材断面
  6
Continuous
100
AcDbBlockReference
  2
*U0
 10
0.0
 20
0.0
 30
0.0
  0
LINE
  5
1B1
330
1D
100
AcDbEntity
  8
型材断面
  6
DASHDOT
100
AcDbLine
 10
-69.935405
 20
-67.794
 30
0.0
 11
-69.935405
 21
56.66027
 31
0.0
  0
LINE
  5
1B2
330
1D
100
AcDbEntity
  8
型材断面
  6
DASHDOT
100
AcDbLine
 10
-92.435405
 20
-67.794
 30
0.0
 11
-92.435405
 21
56.66027
 31
0.0
  0
LINE
  5
1B3
330
1D
100
AcDbEntity
  8
型材断面
  6
DASHDOT
100
AcDbLine
 10
-47.435405
 20
-67.794
 30
0.0
 11
-47.435405
 21
56.66027
 31
0.0
  0
LINE
  5
1B4
330
1D
100
AcDbEntity
  8
型材断面
  6
DASHDOT
100
AcDbLine
 10
-92.435405
 20
56.66027
 30
0.0
 11
-47.435405
 21
56.66027
 31
0.0
  0
LINE
  5
1B5
330
1D
100
AcDbEntity
  8
型材断面
  6
DASHDOT
100
AcDbLine
 10
-92.435405
 20
34.16027
 30
0.0
 11
-47.435405
 21
34.16027
 31
0.0
  0
LINE
  5
1B6
330
1D
100
AcDbEntity
  8
型材断面
  6
DASHDOT
100
AcDbLine
 10
-92.435405
 20
11.66027
 30
0.0
 11
-47.435405
 21
11.66027
 31
0.0
  0
LINE
  5
1B7
330
1D
100
AcDbEntity
  8
型材断面
  6
Continuous
100
AcDbLine
 10
-14.97586
 20
10.78135
 30
0.0
 11
-17.219305
 21
6.89559
 31
0.0
  0
LINE
  5
1B8
330
1D
100
AcDbEntity
  8
型材断面
  6
Continuous
100
AcDbLine
 10
-14.97586
 20
10.78135
 30
0.0
 11
-12.732415
 21
6.89559
 31
0.0
  0
LINE
  5
1B9
330
1D
100
AcDbEntity
  8
型材断面
  6
Continuous
100
AcDbLine
 10
-12.732415
 20
6.89559
 30
0.0
 11
-17.219305
 21
6.89559
 31
0.0
  0
LINE
  5
1BA
330
1D
100
AcDbEntity
  8
型材断面
  6
Continuous
100
AcDbLine
 10
-24.00974
 20
5.487697
 30
0.0
 11
28.64694
 21
5.487697
 31
0.0
  0
LINE
  5
1BB
330
1D
100
AcDbEntity
  8
型材断面
  6
Continuous
100
AcDbLine
 10
-69.935405
 20
64.684145
 30
0.0
 11
-72.17885
 21
68.56990500000001
 31
0.0
  0
LINE
  5
1BC
330
1D
100
AcDbEntity
  8
型材断面
  6
Continuous
100
AcDbLine
 10
-69.935405
 20
64.684145
 30
0.0
 11
-67.69196
 21
68.56990500000001
 31
0.0
  0
LINE
  5
1BD
330
1D
100
AcDbEntity
  8
型材断面
  6
Continuous
100
AcDbLine
 10
-67.69196
 20
68.56990500000001
 30
0.0
 11
-72.17885
 21
68.56990500000001
 31
0.0
  0
LINE
  5
1BE
330
1D
100
AcDbEntity
  8
型材断面
  6
Continuous
100
AcDbLine
 10
-69.935405
 20
3.636395
 30
0.0
 11
-72.17885
 21
-0.249365
 31
0.0
  0
LINE
  5
1BF
330
1D
100
AcDbEntity
  8
型材断面
  6
Continuous
100
AcDbLine
 10
-69.935405
 20
3.636395
 30
0.0
 11
-67.69196
 21
-0.249365
 31
0.0
  0
LINE
  5
1C0
330
1D
100
AcDbEntity
  8
型材断面
  6
Continuous
100
AcDbLine
 10
-67.69196
 20
-0.249365
 30
0.0
 11
-72.17885
 21
-0.249365
 31
0.0
  0
LINE
  5
1C1
330
1D
100
AcDbEntity
  8
型材断面
  6
Continuous
100
AcDbLine
 10
-39.41153
 20
34.16027
 30
0.0
 11
-35.52577
 21
36.403715
 31
0.0
  0
LINE
  5
1C2
330
1D
100
AcDbEntity
  8
型材断面
  6
Continuous
100
AcDbLine
 10
-39.41153
 20
34.16027
 30
0.0
 11
-35.52577
 21
31.916825
 31
0.0
  0
LINE
  5
1C3
330
1D
100
AcDbEntity
  8
型材断面
  6
Continuous
100
AcDbLine
 10
-35.52577
 20
31.916825
 30
0.0
 11
-35.52577
 21
36.403715
 31
0.0
  0
LINE
  5
1C4
330
1D
100
AcDbEntity
  8
型材断面
  6
Continuous
100
AcDbLine
 10
-100.45928
 20
34.16027
 30
0.0
 11
-104.34504
 21
36.403715
 31
0.0
  0
LINE
  5
1C5
330
1D
100
AcDbEntity
  8
型材断面
  6
Continuous
100
AcDbLine
 10
-100.45928
 20
34.16027
 30
0.0
 11
-104.34504
 21
31.916825
 31
0.0
  0
LINE
  5
1C6
330
1D
100
AcDbEntity
  8
型材断面
  6
Continuous
100
AcDbLine
 10
-104.34504
 20
31.916825
 30
0.0
 11
-104.34504
 21
36.403715
 31
0.0
  0
LINE
  5
1C7
330
1D
100
AcDbEntity
  8
型材断面
  6
Continuous
100
AcDbLine
 10
-24.00974
 20
-1.519412
 30
0.0
 11
28.64694
 21
-1.519412
 31
0.0
  0
LINE
  5
1C8
330
1D
100
AcDbEntity
  8
型材断面
  6
Continuous
 62
    14
100
AcDbLine
 10
-97.185408
 20
-58.030343
 30
0.0
 11
-97.185408
 21
-57.280343
 31
0.0
  0
LINE
  5
1C9
330
1D
100
AcDbEntity
  8
型材断面
  6
Continuous
100
AcDbLine
 10
-44.585405
 20
59.51027
 30
0.0
 11
-42.685405
 21
61.41027
 31
0.0
  0
LINE
  5
1CA
330
1D
100
AcDbEntity
  8
型材断面
  6
Continuous
100
AcDbLine
 10
-42.685405
 20
61.41027
 30
0.0
 11
-42.685405
 21
34.16027
 31
0.0
  0
LINE
  5
1CB
330
1D
100
AcDbEntity
  8
型材断面
  6
Continuous
100
AcDbLine
 10
-42.685405
 20
61.41027
 30
0.0
 11
-69.935405
 21
61.41027
 31
0.0
  0
LINE
  5
1CC
330
1D
100
AcDbEntity
  8
型材断面
  6
Continuous
100
AcDbLine
 10
-42.685405
 20
6.91027
 30
0.0
 11
-69.935405
 21
6.91027
 31
0.0
  0
LINE
  5
1CD
330
1D
100
AcDbEntity
  8
型材断面
  6
Continuous
100
AcDbLine
 10
-42.685405
 20
6.91027
 30
0.0
 11
-42.685405
 21
34.16027
 31
0.0
  0
LINE
  5
1CE
330
1D
100
AcDbEntity
  8
型材断面
  6
Continuous
100
AcDbLine
 10
-42.685405
 20
6.91027
 30
0.0
 11
-44.335405
 21
8.560269999999999
 31
0.0
  0
LINE
  5
1CF
330
1D
100
AcDbEntity
  8
型材断面
  6
Continuous
100
AcDbLine
 10
-95.285405
 20
59.51027
 30
0.0
 11
-97.185405
 21
61.41027
 31
0.0
  0
LINE
  5
1D0
330
1D
100
AcDbEntity
  8
型材断面
  6
Continuous
100
AcDbLine
 10
-97.185405
 20
61.41027
 30
0.0
 11
-97.185405
 21
34.16027
 31
0.0
  0
LINE
  5
1D1
330
1D
100
AcDbEntity
  8
型材断面
  6
Continuous
100
AcDbLine
 10
-97.185405
 20
61.41027
 30
0.0
 11
-69.935405
 21
61.41027
 31
0.0
  0
LINE
  5
1D2
330
1D
100
AcDbEntity
  8
型材断面
  6
Continuous
100
AcDbLine
 10
-97.185405
 20
6.91027
 30
0.0
 11
-69.935405
 21
6.91027
 31
0.0
  0
LINE
  5
1D3
330
1D
100
AcDbEntity
  8
型材断面
  6
Continuous
100
AcDbLine
 10
-97.185405
 20
6.91027
 30
0.0
 11
-97.185405
 21
34.16027
 31
0.0
  0
LINE
  5
1D4
330
1D
100
AcDbEntity
  8
型材断面
  6
Continuous
100
AcDbLine
 10
-97.185405
 20
6.91027
 30
0.0
 11
-95.535405
 21
8.560269999999999
 31
0.0
  0
LINE
  5
1D5
330
1D
100
AcDbEntity
  8
型材断面
  6
Continuous
 62
    14
100
AcDbLine
 10
-42.685402
 20
-58.030343
 30
0.0
 11
-42.685402
 21
-57.280343
 31
0.0
  0
LINE
  5
1D6
330
1D
100
AcDbEntity
  8
型材断面
  6
Continuous
100
AcDbLine
 10
-94.435408
 20
-57.030343
 30
0.0
 11
-45.435402
 21
-57.030343
 31
0.0
  0
LINE
  5
1D7
330
1D
100
AcDbEntity
  8
型材断面
  6
Continuous
100
AcDbLine
 10
-97.185408
 20
-57.280343
 30
0.0
 11
-42.685402
 21
-57.280343
 31
0.0
  0
LINE
  5
1D8
330
1D
100
AcDbEntity
  8
型材断面
  6
Continuous
100
AcDbLine
 10
-94.435408
 20
-57.030343
 30
0.0
 11
-97.185408
 21
-57.280343
 31
0.0
  0
LINE
  5
1D9
330
1D
100
AcDbEntity
  8
型材断面
  6
Continuous
100
AcDbLine
 10
-97.185408
 20
-57.280343
 30
0.0
 11
-97.185408
 21
-58.030343
 31
0.0
  0
LINE
  5
1DA
330
1D
100
AcDbEntity
  8
型材断面
  6
Continuous
100
AcDbLine
 10
-95.935408
 20
-58.030343
 30
0.0
 11
-95.935408
 21
-58.530343
 31
0.0
  0
LINE
  5
1DB
330
1D
100
AcDbEntity
  8
型材断面
  6
Continuous
100
AcDbLine
 10
-45.435402
 20
-57.030343
 30
0.0
 11
-42.685402
 21
-57.280343
 31
0.0
  0
LINE
  5
1DC
330
1D
100
AcDbEntity
  8
型材断面
  6
Continuous
100
AcDbLine
 10
-42.685402
 20
-57.280343
 30
0.0
 11
-42.685402
 21
-58.030343
 31
0.0
  0
LINE
  5
1DD
330
1D
100
AcDbEntity
  8
型材断面
  6
Continuous
100
AcDbLine
 10
-43.935402
 20
-58.030343
 30
0.0
 11
-43.935402
 21
-58.530343
 31
0.0
  0
LINE
  5
1DE
330
1D
100
AcDbEntity
  8
型材断面
  6
Continuous
100
AcDbLine
 10
-97.185408
 20
-58.030343
 30
0.0
 11
-42.685402
 21
-58.030343
 31
0.0
  0
LINE
  5
1DF
330
1D
100
AcDbEntity
  8
型材断面
  6
Continuous
100
AcDbLine
 10
-95.935408
 20
-58.53034
 30
0.0
 11
-43.935402
 21
-58.53034
 31
0.0
  0
LWPOLYLINE
  5
1E0
330
1D
100
AcDbEntity
  8
型材断面
  6
Continuous
100
AcDbPolyline
 90
        3
 70
     0
 43
0.0
 10
-94.23540800000001
 20
-53.779985
 10
-94.23540800000001
 20
-54.30534
 10
-94.435408
 20
-54.50534
  0
LINE
  5
1E5
330
1D
100
AcDbEntity
  8
型材断面
  6
Continuous
100
AcDbLine
 10
-94.435408
 20
-57.030343
 30
0.0
 11
-94.435408
 21
-54.50534
 31
0.0
  0
LWPOLYLINE
  5
1E6
330
1D
100
AcDbEntity
  8
型材断面
  6
Continuous
100
AcDbPolyline
 90
        3
 70
     0
 43
0.0
 10
-45.635402
 20
-53.779985
 10
-45.635402
 20
-54.30534
 10
-45.435402
 20
-54.50534
  0
LINE
  5
1EB
330
1D
100
AcDbEntity
  8
型材断面
  6
Continuous
100
AcDbLine
 10
-94.23540800000001
 20
-54.30534
 30
0.0
 11
-45.635402
 21
-54.30534
 31
0.0
  0
LINE
  5
1EC
330
1D
100
AcDbEntity
  8
型材断面
  6
Continuous
100
AcDbLine
 10
-94.435408
 20
-54.50534
 30
0.0
 11
-45.435402
 21
-54.50534
 31
0.0
  0
LINE
  5
1ED
330
1D
100
AcDbEntity
  8
型材断面
  6
Continuous
100
AcDbLine
 10
-45.435402
 20
-57.030343
 30
0.0
 11
-45.435402
 21
-54.50534
 31
0.0
  0
LINE
  5
1EE
330
1D
100
AcDbEntity
  8
ガラス
  6
Continuous
100
AcDbLine
 10
122.554785
 20
74.30747700000001
 30
0.0
 11
122.554785
 21
29.807477
 31
0.0
  0
LINE
  5
1EF
330
1D
100
AcDbEntity
  8
ガラス
  6
Continuous
100
AcDbLine
 10
167.054785
 20
29.807477
 30
0.0
 11
122.554785
 21
29.807477
 31
0.0
  0
LINE
  5
1F0
330
1D
100
AcDbEntity
  8
ガラス
  6
Continuous
100
AcDbLine
 10
167.054785
 20
29.807477
 30
0.0
 11
167.054785
 21
74.30747700000001
 31
0.0
  0
LINE
  5
1F1
330
1D
100
AcDbEntity
  8
ガラス
  6
Continuous
100
AcDbLine
 10
122.554785
 20
74.30747700000001
 30
0.0
 11
167.054785
 21
74.30747700000001
 31
0.0
  0
CIRCLE
  5
1F2
330
1D
100
AcDbEntity
  8
ボルト／ビス
  6
Continuous
100
AcDbCircle
 10
-84.935405
 20
10.66027
 30
0.0
 40
0.288675
  0
CIRCLE
  5
1F3
330
1D
100
AcDbEntity
  8
ボルト／ビス
  6
Continuous
100
AcDbCircle
 10
-84.935405
 20
10.66027
 30
0.0
 40
0.455885
  0
CIRCLE
  5
1F4
330
1D
100
AcDbEntity
  8
ボルト／ビス
  6
Continuous
100
AcDbCircle
 10
-69.935405
 20
10.66027
 30
0.0
 40
0.288675
  0
CIRCLE
  5
1F5
330
1D
100
AcDbEntity
  8
ボルト／ビス
  6
Continuous
100
AcDbCircle
 10
-69.935405
 20
10.66027
 30
0.0
 40
0.455885
  0
CIRCLE
  5
1F6
330
1D
100
AcDbEntity
  8
ボルト／ビス
  6
Continuous
100
AcDbCircle
 10
-93.435405
 20
19.16027
 30
0.0
 40
0.288675
  0
CIRCLE
  5
1F7
330
1D
100
AcDbEntity
  8
ボルト／ビス
  6
Continuous
100
AcDbCircle
 10
-93.435405
 20
19.16027
 30
0.0
 40
0.455885
  0
CIRCLE
  5
1F8
330
1D
100
AcDbEntity
  8
ボルト／ビス
  6
Continuous
100
AcDbCircle
 10
-93.435405
 20
34.16027
 30
0.0
 40
0.288675
  0
CIRCLE
  5
1F9
330
1D
100
AcDbEntity
  8
ボルト／ビス
  6
Continuous
100
AcDbCircle
 10
-93.435405
 20
34.16027
 30
0.0
 40
0.455885
  0
CIRCLE
  5
1FA
330
1D
100
AcDbEntity
  8
ボルト／ビス
  6
Continuous
100
AcDbCircle
 10
-54.935405
 20
10.66027
 30
0.0
 40
0.288675
  0
CIRCLE
  5
1FB
330
1D
100
AcDbEntity
  8
ボルト／ビス
  6
Continuous
100
AcDbCircle
 10
-54.935405
 20
10.66027
 30
0.0
 40
0.455885
  0
CIRCLE
  5
1FC
330
1D
100
AcDbEntity
  8
ボルト／ビス
  6
Continuous
100
AcDbCircle
 10
-46.435405
 20
19.16027
 30
0.0
 40
0.288675
  0
CIRCLE
  5
1FD
330
1D
100
AcDbEntity
  8
ボルト／ビス
  6
Continuous
100
AcDbCircle
 10
-46.435405
 20
19.16027
 30
0.0
 40
0.455885
  0
CIRCLE
  5
1FE
330
1D
100
AcDbEntity
  8
ボルト／ビス
  6
Continuous
100
AcDbCircle
 10
-46.435405
 20
34.16027
 30
0.0
 40
0.288675
  0
CIRCLE
  5
1FF
330
1D
100
AcDbEntity
  8
ボルト／ビス
  6
Continuous
100
AcDbCircle
 10
-46.435405
 20
34.16027
 30
0.0
 40
0.455885
  0
CIRCLE
  5
200
330
1D
100
AcDbEntity
  8
ボルト／ビス
  6
Continuous
100
AcDbCircle
 10
-84.935405
 20
57.66027
 30
0.0
 40
0.288675
  0
CIRCLE
  5
201
330
1D
100
AcDbEntity
  8
ボルト／ビス
  6
Continuous
100
AcDbCircle
 10
-84.935405
 20
57.66027
 30
0.0
 40
0.455885
  0
CIRCLE
  5
202
330
1D
100
AcDbEntity
  8
ボルト／ビス
  6
Continuous
100
AcDbCircle
 10
-69.935405
 20
57.66027
 30
0.0
 40
0.288675
  0
CIRCLE
  5
203
330
1D
100
AcDbEntity
  8
ボルト／ビス
  6
Continuous
100
AcDbCircle
 10
-69.935405
 20
57.66027
 30
0.0
 40
0.455885
  0
CIRCLE
  5
204
330
1D
100
AcDbEntity
  8
ボルト／ビス
  6
Continuous
100
AcDbCircle
 10
-93.435405
 20
49.16027
 30
0.0
 40
0.288675
  0
CIRCLE
  5
205
330
1D
100
AcDbEntity
  8
ボルト／ビス
  6
Continuous
100
AcDbCircle
 10
-93.435405
 20
49.16027
 30
0.0
 40
0.455885
  0
CIRCLE
  5
206
330
1D
100
AcDbEntity
  8
ボルト／ビス
  6
Continuous
100
AcDbCircle
 10
-54.935405
 20
57.66027
 30
0.0
 40
0.288675
  0
CIRCLE
  5
207
330
1D
100
AcDbEntity
  8
ボルト／ビス
  6
Continuous
100
AcDbCircle
 10
-54.935405
 20
57.66027
 30
0.0
 40
0.455885
  0
CIRCLE
  5
208
330
1D
100
AcDbEntity
  8
ボルト／ビス
  6
Continuous
100
AcDbCircle
 10
-46.435405
 20
49.16027
 30
0.0
 40
0.288675
  0
CIRCLE
  5
209
330
1D
100
AcDbEntity
  8
ボルト／ビス
  6
Continuous
100
AcDbCircle
 10
-46.435405
 20
49.16027
 30
0.0
 40
0.455885
  0
INSERT
  5
20A
330
1D
100
AcDbEntity
  8
文字
  6
Continuous
100
AcDbBlockReference
  2
*U1
 10
0.0
 20
0.0
 30
0.0
  0
INSERT
  5
20B
330
1D
100
AcDbEntity
  8
文字
  6
Continuous
100
AcDbBlockReference
  2
*U2
 10
0.0
 20
0.0
 30
0.0
  0
INSERT
  5
20C
330
1D
100
AcDbEntity
  8
文字
  6
Continuous
100
AcDbBlockReference
  2
*U3
 10
0.0
 20
0.0
 30
0.0
  0
INSERT
  5
20D
330
1D
100
AcDbEntity
  8
文字
  6
Continuous
100
AcDbBlockReference
  2
*U4
 10
0.0
 20
0.0
 30
0.0
  0
INSERT
  5
20E
330
1D
100
AcDbEntity
  8
文字
  6
Continuous
100
AcDbBlockReference
  2
*U5
 10
0.0
 20
0.0
 30
0.0
  0
INSERT
  5
20F
330
1D
100
AcDbEntity
  8
文字
  6
Continuous
100
AcDbBlockReference
  2
*U6
 10
0.0
 20
0.0
 30
0.0
  0
INSERT
  5
210
330
1D
100
AcDbEntity
  8
文字
  6
Continuous
100
AcDbBlockReference
  2
*U7
 10
0.0
 20
0.0
 30
0.0
  0
INSERT
  5
211
330
1D
100
AcDbEntity
  8
文字
  6
Continuous
100
AcDbBlockReference
  2
*U8
 10
0.0
 20
0.0
 30
0.0
  0
INSERT
  5
212
330
1D
100
AcDbEntity
  8
文字
  6
Continuous
100
AcDbBlockReference
  2
*U9
 10
0.0
 20
0.0
 30
0.0
  0
INSERT
  5
213
330
1D
100
AcDbEntity
  8
文字
  6
Continuous
100
AcDbBlockReference
  2
*U10
 10
0.0
 20
0.0
 30
0.0
  0
INSERT
  5
214
330
1D
100
AcDbEntity
  8
文字
  6
Continuous
100
AcDbBlockReference
  2
*U11
 10
0.0
 20
0.0
 30
0.0
  0
INSERT
  5
215
330
1D
100
AcDbEntity
  8
文字
  6
Continuous
100
AcDbBlockReference
  2
*U12
 10
0.0
 20
0.0
 30
0.0
  0
TEXT
  5
216
330
1D
100
AcDbEntity
  8
文字
  6
Continuous
100
AcDbText
 10
-10.7
 20
7.2
 30
0.0
 40
3.0
  1
は排水穴位置を示す
  7
TextStyle03
 72
     5
 11
19.3
 21
7.2
 31
0.0
100
AcDbText
  0
TEXT
  5
217
330
1D
100
AcDbEntity
  8
文字
  6
Continuous
100
AcDbText
 10
-98.825
 20
79.84999999999999
 30
0.0
 40
3.0
  1
アンカーピッチ
  7
TextStyle03
 72
     5
 11
-75.575
 21
79.84999999999999
 31
0.0
100
AcDbText
  0
TEXT
  5
218
330
1D
100
AcDbEntity
  8
文字
  6
Continuous
100
AcDbText
 10
-122.475
 20
1.75
 30
0.0
 40
3.0
  1
アンカーピッチ
 50
90.0
  7
TextStyle03
 72
     5
 11
-122.475
 21
25.0
 31
0.0
100
AcDbText
  0
TEXT
  5
219
330
1D
100
AcDbEntity
  8
文字
  6
Continuous
100
AcDbText
 10
-16.3
 20
-0.15
 30
0.0
 40
3.0
  1
アンカー数量　６ヶ所
  7
TextStyle03
 72
     5
 11
17.075
 21
-0.15
 31
0.0
100
AcDbText
  0
TEXT
  5
21A
330
1D
100
AcDbEntity
  8
文字
  6
Continuous
100
AcDbText
 10
91.65000000000001
 20
99.925
 30
0.0
 40
5.0
  1
ＮＳコード：ＮＳＫ
  7
TextStyle03
 72
     5
 11
141.65
 21
99.925
 31
0.0
100
AcDbText
  0
TEXT
  5
21B
330
1D
100
AcDbEntity
  8
文字
  6
Continuous
100
AcDbText
 10
146.1
 20
38.8
 30
0.0
 40
3.0
  1
網入り6.8t
  7
TextStyle03
 72
     5
 11
162.7875
 21
38.8
 31
0.0
100
AcDbText
  0
TEXT
  5
21C
330
1D
100
AcDbEntity
  8
文字
  6
Continuous
100
AcDbText
 10
152.725
 20
33.55
 30
0.0
 40
3.0
  1
×１枚
  7
TextStyle03
 72
     5
 11
162.475
 21
33.55
 31
0.0
100
AcDbText
  0
TEXT
  5
21D
330
1D
100
AcDbEntity
  8
文字
  6
Continuous
100
AcDbText
 10
91.925
 20
120.7
 30
0.0
 40
5.0
  1
シリーズ：ＴＤ１Ｋ
  7
TextStyle03
 72
     5
 11
141.925
 21
120.7
 31
0.0
100
AcDbText
  0
TEXT
  5
21E
330
1D
100
AcDbEntity
  8
文字
  6
Continuous
100
AcDbText
 10
91.925
 20
115.075
 30
0.0
 40
5.0
  1
　　　　　（固定）900×900タイプ
  7
TextStyle03
 72
     5
 11
181.3
 21
115.075
 31
0.0
100
AcDbText
  0
TEXT
  5
21F
330
1D
100
AcDbEntity
  8
文字
  6
Continuous
100
AcDbText
 10
91.925
 20
109.45
 30
0.0
 40
5.0
  1
図面名　：外観姿図
  7
TextStyle03
 72
     5
 11
141.925
 21
109.45
 31
0.0
100
AcDbText
  0
TEXT
  5
220
330
1D
100
AcDbEntity
  8
文字
  6
Continuous
100
AcDbText
 10
91.925
 20
103.825
 30
0.0
 40
5.0
  1
　　　　　　
  7
TextStyle03
 72
     5
 11
125.05
 21
103.825
 31
0.0
100
AcDbText
  0
INSERT
  5
221
330
1D
100
AcDbEntity
  8
寸法
  6
Continuous
100
AcDbBlockReference
  2
*U13
 10
0.0
 20
0.0
 30
0.0
  0
INSERT
  5
222
330
1D
100
AcDbEntity
  8
寸法
  6
Continuous
100
AcDbBlockReference
  2
*U14
 10
0.0
 20
0.0
 30
0.0
  0
INSERT
  5
223
330
1D
100
AcDbEntity
  8
寸法
  6
Continuous
100
AcDbBlockReference
  2
*U27
 10
0.0
 20
0.0
 30
0.0
  0
INSERT
  5
224
330
1D
100
AcDbEntity
  8
寸法
  6
Continuous
100
AcDbBlockReference
  2
*U28
 10
0.0
 20
0.0
 30
0.0
  0
INSERT
  5
225
330
1D
100
AcDbEntity
  8
寸法
  6
Continuous
100
AcDbBlockReference
  2
*U29
 10
0.0
 20
0.0
 30
0.0
  0
CIRCLE
  5
226
330
1D
100
AcDbEntity
  8
寸法
  6
Continuous
100
AcDbCircle
 10
-111.453763
 20
34.16027
 30
0.0
 40
1.73792
  0
INSERT
  5
227
330
1D
100
AcDbEntity
  8
寸法
  6
Continuous
100
AcDbBlockReference
  2
*U30
 10
0.0
 20
0.0
 30
0.0
  0
INSERT
  5
228
330
1D
100
AcDbEntity
  8
寸法
  6
Continuous
100
AcDbBlockReference
  2
*U31
 10
0.0
 20
0.0
 30
0.0
  0
INSERT
  5
229
330
1D
100
AcDbEntity
  8
寸法
  6
Continuous
100
AcDbBlockReference
  2
*U32
 10
0.0
 20
0.0
 30
0.0
  0
INSERT
  5
22A
330
1D
100
AcDbEntity
  8
寸法
  6
Continuous
100
AcDbBlockReference
  2
*U33
 10
0.0
 20
0.0
 30
0.0
  0
INSERT
  5
22B
330
1D
100
AcDbEntity
  8
寸法
  6
Continuous
100
AcDbBlockReference
  2
*U34
 10
0.0
 20
0.0
 30
0.0
  0
LINE
  5
22C
330
1D
100
AcDbEntity
  8
別途部材
  6
Continuous
100
AcDbLine
 10
-95.535405
 20
8.560269999999999
 30
0.0
 11
-94.935405
 21
9.160270000000001
 31
0.0
  0
LINE
  5
22D
330
1D
100
AcDbEntity
  8
別途部材
  6
Continuous
100
AcDbLine
 10
-92.435405
 20
11.66027
 30
0.0
 11
-80.34652
 21
23.749155
 31
0.0
  0
LINE
  5
22E
330
1D
100
AcDbEntity
  8
別途部材
  6
Continuous
 62
    96
100
AcDbLine
 10
-94.935405
 20
-52.279985
 30
0.0
 11
-95.535405
 21
-53.779985
 31
0.0
  0
LINE
  5
22F
330
1D
100
AcDbEntity
  8
別途部材
  6
Continuous
 62
    96
100
AcDbLine
 10
-94.935405
 20
-52.279985
 30
0.0
 11
-69.935405
 21
-52.279985
 31
0.0
  0
LINE
  5
230
330
1D
100
AcDbEntity
  8
別途部材
  6
Continuous
100
AcDbLine
 10
-95.535405
 20
-53.779985
 30
0.0
 11
-69.935405
 21
-53.779985
 31
0.0
  0
LINE
  5
231
330
1D
100
AcDbEntity
  8
別途部材
  6
Continuous
 62
    96
100
AcDbLine
 10
-44.935405
 20
-52.279985
 30
0.0
 11
-44.335405
 21
-53.779985
 31
0.0
  0
LINE
  5
232
330
1D
100
AcDbEntity
  8
別途部材
  6
Continuous
 62
    96
100
AcDbLine
 10
-44.935405
 20
-52.279985
 30
0.0
 11
-69.935405
 21
-52.279985
 31
0.0
  0
LINE
  5
233
330
1D
100
AcDbEntity
  8
別途部材
  6
Continuous
100
AcDbLine
 10
-44.335405
 20
-53.779985
 30
0.0
 11
-69.935405
 21
-53.779985
 31
0.0
  0
ARC
  5
234
330
1D
100
AcDbEntity
  8
別途部材
  6
Continuous
100
AcDbCircle
 10
-69.93540400000001
 20
-66.279985
 30
0.0
 40
26.5
100
AcDbArc
 50
31.89079200000001
 51
148.109208
  0
LINE
  5
235
330
1D
100
AcDbEntity
  8
別途部材
  6
Continuous
100
AcDbLine
 10
-94.935405
 20
9.160270000000001
 30
0.0
 11
-69.935405
 21
9.160270000000001
 31
0.0
  0
LINE
  5
236
330
1D
100
AcDbEntity
  8
別途部材
  6
Continuous
100
AcDbLine
 10
-95.535405
 20
8.560269999999999
 30
0.0
 11
-69.935405
 21
8.560269999999999
 31
0.0
  0
LINE
  5
237
330
1D
100
AcDbEntity
  8
別途部材
  6
Continuous
100
AcDbLine
 10
-95.535405
 20
8.560269999999999
 30
0.0
 11
-95.535405
 21
34.16027
 31
0.0
  0
LINE
  5
238
330
1D
100
AcDbEntity
  8
別途部材
  6
Continuous
100
AcDbLine
 10
-94.935405
 20
9.160270000000001
 30
0.0
 11
-94.935405
 21
34.16027
 31
0.0
  0
LINE
  5
239
330
1D
100
AcDbEntity
  8
別途部材
  6
Continuous
100
AcDbLine
 10
-44.335405
 20
8.560269999999999
 30
0.0
 11
-44.935405
 21
9.160270000000001
 31
0.0
  0
LINE
  5
23A
330
1D
100
AcDbEntity
  8
別途部材
  6
Continuous
100
AcDbLine
 10
-47.435405
 20
11.66027
 30
0.0
 11
-59.52429
 21
23.749155
 31
0.0
  0
LINE
  5
23B
330
1D
100
AcDbEntity
  8
別途部材
  6
Continuous
100
AcDbLine
 10
-44.935405
 20
9.160270000000001
 30
0.0
 11
-69.935405
 21
9.160270000000001
 31
0.0
  0
LINE
  5
23C
330
1D
100
AcDbEntity
  8
別途部材
  6
Continuous
100
AcDbLine
 10
-44.335405
 20
8.560269999999999
 30
0.0
 11
-69.935405
 21
8.560269999999999
 31
0.0
  0
LINE
  5
23D
330
1D
100
AcDbEntity
  8
別途部材
  6
Continuous
100
AcDbLine
 10
-44.335405
 20
8.560269999999999
 30
0.0
 11
-44.335405
 21
34.16027
 31
0.0
  0
LINE
  5
23E
330
1D
100
AcDbEntity
  8
別途部材
  6
Continuous
100
AcDbLine
 10
-44.935405
 20
9.160270000000001
 30
0.0
 11
-44.935405
 21
34.16027
 31
0.0
  0
LINE
  5
23F
330
1D
100
AcDbEntity
  8
別途部材
  6
Continuous
100
AcDbLine
 10
-95.535405
 20
59.76027
 30
0.0
 11
-94.935405
 21
59.16027
 31
0.0
  0
LINE
  5
240
330
1D
100
AcDbEntity
  8
別途部材
  6
Continuous
100
AcDbLine
 10
-92.435405
 20
56.66027
 30
0.0
 11
-80.34652
 21
44.571385
 31
0.0
  0
LINE
  5
241
330
1D
100
AcDbEntity
  8
別途部材
  6
Continuous
100
AcDbLine
 10
-94.935405
 20
59.16027
 30
0.0
 11
-69.935405
 21
59.16027
 31
0.0
  0
LINE
  5
242
330
1D
100
AcDbEntity
  8
別途部材
  6
Continuous
100
AcDbLine
 10
-95.535405
 20
59.76027
 30
0.0
 11
-69.935405
 21
59.76027
 31
0.0
  0
LINE
  5
243
330
1D
100
AcDbEntity
  8
別途部材
  6
Continuous
100
AcDbLine
 10
-95.535405
 20
59.76027
 30
0.0
 11
-95.535405
 21
34.16027
 31
0.0
  0
LINE
  5
244
330
1D
100
AcDbEntity
  8
別途部材
  6
Continuous
100
AcDbLine
 10
-94.935405
 20
59.16027
 30
0.0
 11
-94.935405
 21
34.16027
 31
0.0
  0
LINE
  5
245
330
1D
100
AcDbEntity
  8
別途部材
  6
Continuous
100
AcDbLine
 10
-44.335405
 20
59.76027
 30
0.0
 11
-44.935405
 21
59.16027
 31
0.0
  0
LINE
  5
246
330
1D
100
AcDbEntity
  8
別途部材
  6
Continuous
100
AcDbLine
 10
-47.435405
 20
56.66027
 30
0.0
 11
-59.52429
 21
44.571385
 31
0.0
  0
LINE
  5
247
330
1D
100
AcDbEntity
  8
別途部材
  6
Continuous
100
AcDbLine
 10
-44.935405
 20
59.16027
 30
0.0
 11
-69.935405
 21
59.16027
 31
0.0
  0
LINE
  5
248
330
1D
100
AcDbEntity
  8
別途部材
  6
Continuous
100
AcDbLine
 10
-44.335405
 20
59.76027
 30
0.0
 11
-69.935405
 21
59.76027
 31
0.0
  0
LINE
  5
249
330
1D
100
AcDbEntity
  8
別途部材
  6
Continuous
100
AcDbLine
 10
-44.335405
 20
59.76027
 30
0.0
 11
-44.335405
 21
34.16027
 31
0.0
  0
LINE
  5
24A
330
1D
100
AcDbEntity
  8
別途部材
  6
Continuous
100
AcDbLine
 10
-44.935405
 20
59.16027
 30
0.0
 11
-44.935405
 21
34.16027
 31
0.0
  0
INSERT
  5
24B
330
1D
100
AcDbEntity
  8
別途部材
  6
DOT
100
AcDbBlockReference
  2
*U35
 10
0.0
 20
0.0
 30
0.0
  0
INSERT
  5
24C
330
1D
100
AcDbEntity
  8
別途部材
  6
DOT
100
AcDbBlockReference
  2
*U36
 10
0.0
 20
0.0
 30
0.0
  0
ENDSEC
  0
SECTION
  2
OBJECTS
  0
DICTIONARY
  5
C
330
0
100
AcDbDictionary
281
     1
  3
ACAD_GROUP
350
D
  3
ACAD_LAYOUT
350
1A
  3
ACAD_MLINESTYLE
350
17
  3
ACAD_PLOTSETTINGS
350
19
  3
ACAD_PLOTSTYLENAME
350
E
  0
DICTIONARY
  5
D
102
{ACAD_REACTORS
330
C
102
}
330
C
100
AcDbDictionary
281
     1
  0
DICTIONARY
  5
1A
102
{ACAD_REACTORS
330
C
102
}
330
C
100
AcDbDictionary
281
     1
  3
Layout1
350
1C
  3
Model
350
1E
  0
DICTIONARY
  5
17
102
{ACAD_REACTORS
330
C
102
}
330
C
100
AcDbDictionary
281
     1
  3
Standard
350
18
  0
DICTIONARY
  5
19
102
{ACAD_REACTORS
330
C
102
}
330
C
100
AcDbDictionary
281
     1
  0
ACDBDICTIONARYWDFLT
  5
E
102
{ACAD_REACTORS
330
C
102
}
330
C
100
AcDbDictionary
281
     1
  3
Normal
350
F
100
AcDbDictionaryWithDefault
340
F
  0
LAYOUT
  5
1C
102
{ACAD_REACTORS
330
1A
102
}
330
1A
100
AcDbPlotSettings
  1

  2

  4

  6

 40
0.0
 41
0.0
 42
0.0
 43
0.0
 44
0.0
 45
0.0
 46
0.0
 47
0.0
 48
0.0
 49
0.0
140
0.0
141
0.0
142
1.0
143
1.0
 70
   688
 72
     0
 73
     0
 74
     5
  7

 75
    16
 76
     0
 77
     2
 78
   300
147
1.0
148
0.0
149
0.0
100
AcDbLayout
  1
Layout1
 70
     1
 71
     1
 10
0.0
 20
0.0
 11
12.0
 21
9.0
 12
0.0
 22
0.0
 32
0.0
 14
1.000000000000000E+20
 24
1.000000000000000E+20
 34
1.000000000000000E+20
 15
-1.000000000000000E+20
 25
-1.000000000000000E+20
 35
-1.000000000000000E+20
146
0.0
 13
0.0
 23
0.0
 33
0.0
 16
1.0
 26
0.0
 36
0.0
 17
0.0
 27
1.0
 37
0.0
 76
     0
330
1B
  0
LAYOUT
  5
1E
102
{ACAD_REACTORS
330
1A
102
}
330
1A
100
AcDbPlotSettings
  1

  2

  4

  6

 40
0.0
 41
0.0
 42
0.0
 43
0.0
 44
0.0
 45
0.0
 46
0.0
 47
0.0
 48
0.0
 49
0.0
140
0.0
141
0.0
142
1.0
143
1.0
 70
  1712
 72
     0
 73
     0
 74
     0
  7

 75
     0
 76
     0
 77
     2
 78
   300
147
1.0
148
0.0
149
0.0
100
AcDbLayout
  1
Model
 70
     1
 71
     0
 10
0.0
 20
0.0
 11
0.0
 21
0.0
 12
0.0
 22
0.0
 32
0.0
 14
-210.0
 24
-148.5
 34
0.0
 15
210.0
 25
148.5
 35
0.0
146
0.0
 13
0.0
 23
0.0
 33
0.0
 16
1.0
 26
0.0
 36
0.0
 17
0.0
 27
1.0
 37
0.0
 76
     0
330
1D
  0
MLINESTYLE
  5
18
102
{ACAD_REACTORS
330
17
102
}
330
17
100
AcDbMlineStyle
  2
Standard
 70
     0
  3

 62
   256
 51
90.0
 52
90.0
 71
     2
 49
0.5
 62
   256
  6
BYLAYER
 49
-0.5
 62
   256
  6
BYLAYER
  0
ACDBPLACEHOLDER
  5
F
102
{ACAD_REACTORS
330
E
102
}
330
E
  0
ENDSEC
  0
EOF
