  0
SECTION
  2
HEADER
  9
$EXTMIN
 10
-210.0
 20
-148.5
  9
$EXTMAX
 10
210.0
 20
148.5
  9
$PDMODE
 70
    32
  9
$PDSIZE
 40
1.5
  9
$LTSCALE
 40
10.0
  0
ENDSEC
  0
SECTION
  2
TABLES
  0
TABLE
  2
LTYPE
 70
    15
  0
LTYPE
  2
CONTINUOUS
 70
    64
  3
実線
 72
    65
 73
     0
 40
0.0
  0
LTYPE
  2
DASHED
 70
    64
  3
破線A
 72
    65
 73
     2
 40
0.6
 49
0.4
 49
-0.2
  0
LTYPE
  2
DASHEDX2
 70
    64
  3
破線B
 72
    65
 73
     2
 40
1.3
 49
0.9
 49
-0.4
  0
LTYPE
  2
DASHDOT
 70
    64
  3
１点鎖線A
 72
    65
 73
     4
 40
0.5375
 49
0.375
 49
-0.05
 49
0.0625
 49
-0.05
  0
LTYPE
  2
DASHDOTX2
 70
    64
  3
１点鎖線B
 72
    65
 73
     4
 40
1.075
 49
0.75
 49
-0.1
 49
0.125
 49
-0.1
  0
LTYPE
  2
DIVIDE2
 70
    64
  3
２点鎖線A
 72
    65
 73
     6
 40
0.5125
 49
0.3
 49
-0.0375
 49
0.05
 49
-0.0375
 49
0.05
 49
-0.0375
  0
LTYPE
  2
DIVIDE
 70
    64
  3
２点鎖線B
 72
    65
 73
     6
 40
1.05
 49
0.55
 49
-0.1
 49
0.1
 49
-0.1
 49
0.1
 49
-0.1
  0
LTYPE
  2
DOT
 70
    64
  3
点線A
 72
    65
 73
     2
 40
0.1125
 49
0.0625
 49
-0.05
  0
LTYPE
  2
DOTX2
 70
    64
  3
点線B
 72
    65
 73
     2
 40
0.275
 49
0.15
 49
-0.125
  0
LTYPE
  2
CONTINUOUS
 70
    64
  3
実線
 72
    65
 73
     0
 40
0.0
  0
LTYPE
  2
CONTINUOUS
 70
    64
  3
実線
 72
    65
 73
     0
 40
0.0
  0
LTYPE
  2
CONTINUOUS
 70
    64
  3
実線
 72
    65
 73
     0
 40
0.0
  0
LTYPE
  2
CONTINUOUS
 70
    64
  3
実線
 72
    65
 73
     0
 40
0.0
  0
LTYPE
  2
CONTINUOUS
 70
    64
  3
実線
 72
    65
 73
     0
 40
0.0
  0
LTYPE
  2
CONTINUOUS
 70
    64
  3
実線
 72
    65
 73
     0
 40
0.0
  0
ENDTAB
  0
TABLE
  2
LAYER
 70
    35
  0
LAYER
  2
通り芯
 70
     0
 62
    15
  6
CONTINUOUS
  0
LAYER
  2
補助線
 70
     0
 62
    16
  6
DOT
  0
LAYER
  2
躯体
 70
     0
 62
    31
  6
CONTINUOUS
  0
LAYER
  2
型材
 70
     0
 62
    32
  6
CONTINUOUS
  0
LAYER
  2
型材断面
 70
     0
 62
    47
  6
CONTINUOUS
  0
LAYER
  2
ガラス
 70
     0
 62
    48
  6
CONTINUOUS
  0
LAYER
  2
ゴム等
 70
     0
 62
    63
  6
CONTINUOUS
  0
LAYER
  2
ボルト／ビス
 70
     0
 62
    64
  6
CONTINUOUS
  0
LAYER
  2
文字
 70
     0
 62
    79
  6
CONTINUOUS
  0
LAYER
  2
寸法
 70
     0
 62
    80
  6
CONTINUOUS
  0
LAYER
  2
ﾊｯﾁﾝｸﾞ
 70
     0
 62
    95
  6
CONTINUOUS
  0
LAYER
  2
別途部材
 70
     0
 62
    96
  6
CONTINUOUS
  0
LAYER
  2
曲げ物
 70
     0
 62
   111
  6
CONTINUOUS
  0
LAYER
  2
鉄骨等
 70
     0
 62
   112
  6
CONTINUOUS
  0
LAYER
  2
St
 70
     0
 62
   127
  6
CONTINUOUS
  0
LAYER
  2
その他部品等
 70
     0
 62
   128
  6
CONTINUOUS
  0
LAYER
  2
ｶﾞｽｹｯﾄ
 70
     0
 62
   143
  6
CONTINUOUS
  0
LAYER
  2
ｽｹｯﾁ
 70
     0
 62
    14
  6
CONTINUOUS
  0
LAYER
  2
0
 70
     0
 62
    17
  6
CONTINUOUS
  0
LAYER
  2
1
 70
     0
 62
    30
  6
CONTINUOUS
  0
LAYER
  2
4
 70
     0
 62
    33
  6
CONTINUOUS
  0
LAYER
  2
ﾚｲﾔ3
 70
     0
 62
    46
  6
CONTINUOUS
  0
LAYER
  2
外形線
 70
     0
 62
    49
  6
CONTINUOUS
  0
LAYER
  2
部品
 70
     0
 62
    14
  6
CONTINUOUS
  0
LAYER
  2
サッシ芯
 70
     0
 62
    17
  6
DASHDOTX2
  0
LAYER
  2
寸法線
 70
     0
 62
    62
  6
CONTINUOUS
  0
LAYER
  2
姿図外形線
 70
     0
 62
    65
  6
CONTINUOUS
  0
LAYER
  2
姿補助線
 70
     0
 62
    30
  6
CONTINUOUS
  0
LAYER
  2
透視線
 70
     0
 62
    78
  6
DOT
  0
LAYER
  2
用紙
 70
     0
 62
    81
  6
CONTINUOUS
  0
LAYER
  2
実線図枠
 70
     0
 62
    94
  6
CONTINUOUS
  0
LAYER
  2
補助図枠
 70
     0
 62
    97
  6
CONTINUOUS
  0
LAYER
  2
建具記号
 70
     0
 62
   110
  6
CONTINUOUS
  0
LAYER
  2
補助文字
 70
     0
 62
   113
  6
CONTINUOUS
  0
LAYER
  2
投影線02
 70
     0
 62
    12
  6
CONTINUOUS
  0
ENDTAB
  0
TABLE
  2
STYLE
 70
    10
  0
STYLE
  2
STANDARD
 70
     0
 40
1.0
 41
1.0
 42
1.0
 50
0.0
 71
     0
  3
TXT
  4
BIGFONT
  0
STYLE
  2
TATE
 70
     4
 40
1.0
 41
1.0
 42
1.0
 50
0.0
 71
     0
  3
TXT
  4
BIGFONT
  0
STYLE
  2
TextStyle03
 70
     0
 40
1.0
 41
1.0
 42
1.0
 50
0.0
 71
     0
  3
MONOTXT
  4
BIGFONT
  0
STYLE
  2
TextStyle04
 70
     0
 40
1.0
 41
1.0
 42
1.0
 50
0.0
 71
     0
  3
MONOTXT
  4
BIGFONT
  0
STYLE
  2
TextStyle05
 70
     0
 40
1.0
 41
1.0
 42
1.0
 50
0.0
 71
     0
  3
MONOTXT
  4
BIGFONT
  0
STYLE
  2
TextStyle06
 70
     0
 40
1.0
 41
1.0
 42
1.0
 50
0.0
 71
     0
  3
MONOTXT
  4
BIGFONT
  0
STYLE
  2
TextStyle07
 70
     0
 40
1.0
 41
1.0
 42
1.0
 50
0.0
 71
     0
  3
MONOTXT
  4
BIGFONT
  0
STYLE
  2
TextStyle08
 70
     0
 40
1.0
 41
1.0
 42
1.0
 50
0.0
 71
     0
  3
MONOTXT
  4
BIGFONT
  0
STYLE
  2
TextStyle09
 70
     0
 40
1.0
 41
1.0
 42
1.0
 50
0.0
 71
     0
  3
MONOTXT
  4
BIGFONT
  0
STYLE
  2
TextStyle10
 70
     0
 40
1.0
 41
1.0
 42
1.0
 50
0.0
 71
     0
  3
MONOTXT
  4
BIGFONT
  0
ENDTAB
  0
ENDSEC
  0
SECTION
  2
BLOCKS
  0
BLOCK
  2
*GRP_0001
 70
    65
 10
0.0
 20
0.0
  0
LINE
  8
型材断面
  6
CONTINUOUS
 10
195.0
 20
133.5
 11
195.0
 21
-133.5
  0
LINE
  8
型材断面
  6
CONTINUOUS
 10
195.0
 20
-133.5
 11
-185.0
 21
-133.5
  0
LINE
  8
型材断面
  6
CONTINUOUS
 10
-185.0
 20
-133.5
 11
-185.0
 21
133.5
  0
LINE
  8
型材断面
  6
CONTINUOUS
 10
195.0
 20
133.5
 11
-185.0
 21
133.5
  0
LINE
  8
型材断面
  6
CONTINUOUS
 10
145.0
 20
-133.5
 11
145.0
 21
-118.5
  0
LINE
  8
型材断面
  6
CONTINUOUS
 10
195.0
 20
-118.5
 11
145.0
 21
-118.5
  0
ENDBLK
  0
BLOCK
  2
*GRP_0179
 70
    65
 10
0.0
 20
0.0
  0
LINE
  8
補助線
  6
CONTINUOUS
 10
205.427593
 20
230.334492
 11
204.427593
 21
230.334492
  0
LINE
  8
補助線
  6
CONTINUOUS
 10
204.927593
 20
230.834492
 11
204.927593
 21
229.834492
  0
ENDBLK
  0
BLOCK
  2
*GRP_0180
 70
    65
 10
0.0
 20
0.0
  0
LINE
  8
補助線
  6
CONTINUOUS
 10
205.427593
 20
230.334492
 11
204.427593
 21
230.334492
  0
LINE
  8
補助線
  6
CONTINUOUS
 10
204.927593
 20
230.834492
 11
204.927593
 21
229.834492
  0
ENDBLK
  0
BLOCK
  2
*GRP_0366
 70
    65
 10
0.0
 20
0.0
  0
LINE
  8
型材断面
  6
CONTINUOUS
 10
-10.44995
 20
15.641403
 11
-10.44995
 21
-0.358602
  0
LINE
  8
型材断面
  6
CONTINUOUS
 10
13.150052
 20
15.641403
 11
-10.44995
 21
15.641403
  0
ARC
  8
型材断面
  6
CONTINUOUS
 10
14.050085
 20
17.341493
 40
0.3
 50
0.0
 51
90.0
  0
LINE
  8
型材断面
  6
CONTINUOUS
 10
13.150052
 20
15.641403
 11
13.150052
 21
14.941397
  0
ARC
  8
型材断面
  6
CONTINUOUS
 10
13.450085
 20
14.941493
 40
0.3
 50
180.0
 51
270.0
  0
LINE
  8
型材断面
  6
CONTINUOUS
 10
14.050052
 20
14.641397
 11
13.450052
 21
14.641397
  0
LINE
  8
型材断面
  6
CONTINUOUS
 10
14.350052
 20
14.941397
 11
14.350052
 21
17.341397
  0
ARC
  8
型材断面
  6
CONTINUOUS
 10
14.050085
 20
14.941493
 40
0.3
 50
270.0
 51
360.0
  0
LINE
  8
型材断面
  6
CONTINUOUS
 10
14.050052
 20
17.641397
 11
-12.149945
 21
17.641397
  0
LINE
  8
型材断面
  6
CONTINUOUS
 10
-12.449945
 20
17.341397
 11
-12.449945
 21
13.141397
  0
ARC
  8
型材断面
  6
CONTINUOUS
 10
-12.149915
 20
17.341493
 40
0.3
 50
90.0
 51
180.0
  0
LINE
  8
型材断面
  6
CONTINUOUS
 10
-12.449945
 20
11.641397
 11
-12.449945
 21
-2.058597
  0
ARC
  8
型材断面
  6
CONTINUOUS
 10
-12.149915
 20
-2.058507
 40
0.3
 50
180.0
 51
270.0
  0
LINE
  8
型材断面
  6
CONTINUOUS
 10
-8.04995
 20
-2.358597
 11
-12.149945
 21
-2.358597
  0
ARC
  8
型材断面
  6
CONTINUOUS
 10
-8.049915
 20
-2.058507
 40
0.3
 50
270.0
 51
360.0
  0
LINE
  8
型材断面
  6
CONTINUOUS
 10
-7.74995
 20
-0.658602
 11
-7.74995
 21
-2.058597
  0
LINE
  8
型材断面
  6
CONTINUOUS
 10
-8.04995
 20
-0.358602
 11
-10.44995
 21
-0.358602
  0
ARC
  8
型材断面
  6
CONTINUOUS
 10
-8.049915
 20
-0.658507
 40
0.3
 50
0.0
 51
90.0
  0
LINE
  8
型材断面
  6
CONTINUOUS
 10
-13.949945
 20
13.141397
 11
-12.449945
 21
13.141397
  0
ARC
  8
型材断面
  6
CONTINUOUS
 10
-13.949915
 20
12.841493
 40
0.3
 50
90.0
 51
180.0
  0
LINE
  8
型材断面
  6
CONTINUOUS
 10
-14.249945
 20
12.841397
 11
-14.249945
 21
11.941397
  0
LINE
  8
型材断面
  6
CONTINUOUS
 10
-13.949945
 20
11.641397
 11
-12.449945
 21
11.641397
  0
ARC
  8
型材断面
  6
CONTINUOUS
 10
-13.949915
 20
11.941493
 40
0.3
 50
180.0
 51
270.0
  0
ENDBLK
  0
BLOCK
  2
*GRP_0367
 70
    65
 10
0.0
 20
0.0
  0
LINE
  8
型材断面
  6
CONTINUOUS
 10
14.350052
 20
-5.958575
 11
13.150052
 21
-5.958575
  0
LINE
  8
型材断面
  6
CONTINUOUS
 10
-12.449945
 20
15.141423
 11
-12.449945
 21
13.641423
  0
LINE
  8
型材断面
  6
CONTINUOUS
 10
-12.449945
 20
13.641423
 11
-14.64995
 21
13.641423
  0
LINE
  8
型材断面
  6
CONTINUOUS
 10
-12.449945
 20
15.141423
 11
-16.649945
 21
15.141423
  0
LINE
  8
型材断面
  6
CONTINUOUS
 10
-16.649945
 20
15.141423
 11
-16.649945
 21
-4.358577
  0
LINE
  8
型材断面
  6
CONTINUOUS
 10
-14.64995
 20
13.641423
 11
-14.64995
 21
-2.358575
  0
LINE
  8
型材断面
  6
CONTINUOUS
 10
13.150052
 20
-0.358572
 11
14.350052
 21
-0.358572
  0
LINE
  8
型材断面
  6
CONTINUOUS
 10
-16.649945
 20
-4.358577
 11
13.150052
 21
-4.358577
  0
LINE
  8
型材断面
  6
CONTINUOUS
 10
13.150052
 20
-0.358572
 11
13.150052
 21
-2.358575
  0
LINE
  8
型材断面
  6
CONTINUOUS
 10
-7.44995
 20
-2.358575
 11
-7.44995
 21
-0.058572
  0
LINE
  8
型材断面
  6
CONTINUOUS
 10
-5.94995
 20
-2.358575
 11
-5.94995
 21
1.441427
  0
LINE
  8
型材断面
  6
CONTINUOUS
 10
-5.94995
 20
1.441427
 11
-9.949947
 21
1.441427
  0
LINE
  8
型材断面
  6
CONTINUOUS
 10
-9.949947
 20
1.441427
 11
-9.949947
 21
-0.058572
  0
LINE
  8
型材断面
  6
CONTINUOUS
 10
-7.44995
 20
-0.058572
 11
-9.949947
 21
-0.058572
  0
LINE
  8
型材断面
  6
CONTINUOUS
 10
-14.64995
 20
-2.358575
 11
-7.44995
 21
-2.358575
  0
LINE
  8
型材断面
  6
CONTINUOUS
 10
-5.94995
 20
-2.358575
 11
13.150052
 21
-2.358575
  0
LINE
  8
型材断面
  6
CONTINUOUS
 10
14.350052
 20
-0.358572
 11
14.350052
 21
-5.958575
  0
LINE
  8
型材断面
  6
CONTINUOUS
 10
13.150052
 20
-4.358577
 11
13.150052
 21
-5.958575
  0
ENDBLK
  0
BLOCK
  2
*GRP_0368
 70
    65
 10
0.0
 20
0.0
  0
POLYLINE
  8
ガラス
  6
CONTINUOUS
 66
     1
 70
     4
  0
VERTEX
  8
ガラス
 10
15.075
 20
-3.05
 70
     8
  0
VERTEX
  8
ガラス
 10
15.1
 20
-3.0
 70
     8
  0
VERTEX
  8
ガラス
 10
15.125
 20
-2.925
 70
     8
  0
VERTEX
  8
ガラス
 10
15.125
 20
-2.875
 70
     8
  0
VERTEX
  8
ガラス
 10
15.15
 20
-2.8
 70
     8
  0
VERTEX
  8
ガラス
 10
15.175
 20
-2.75
 70
     8
  0
VERTEX
  8
ガラス
 10
15.2
 20
-2.675
 70
     8
  0
VERTEX
  8
ガラス
 10
15.2
 20
-2.625
 70
     8
  0
VERTEX
  8
ガラス
 10
15.225
 20
-2.575
 70
     8
  0
VERTEX
  8
ガラス
 10
15.25
 20
-2.5
 70
     8
  0
VERTEX
  8
ガラス
 10
15.275
 20
-2.45
 70
     8
  0
VERTEX
  8
ガラス
 10
15.3
 20
-2.4
 70
     8
  0
VERTEX
  8
ガラス
 10
15.325
 20
-2.325
 70
     8
  0
VERTEX
  8
ガラス
 10
15.35
 20
-2.275
 70
     8
  0
VERTEX
  8
ガラス
 10
15.375
 20
-2.225
 70
     8
  0
VERTEX
  8
ガラス
 10
15.4
 20
-2.175
 70
     8
  0
VERTEX
  8
ガラス
 10
15.425
 20
-2.125
 70
     8
  0
VERTEX
  8
ガラス
 10
15.475
 20
-2.075
 70
     8
  0
VERTEX
  8
ガラス
 10
15.5
 20
-2.025
 70
     8
  0
VERTEX
  8
ガラス
 10
15.525
 20
-1.975
 70
     8
  0
VERTEX
  8
ガラス
 10
15.575
 20
-1.925
 70
     8
  0
VERTEX
  8
ガラス
 10
15.625
 20
-1.9
 70
     8
  0
VERTEX
  8
ガラス
 10
15.65
 20
-1.85
 70
     8
  0
VERTEX
  8
ガラス
 10
15.7
 20
-1.825
 70
     8
  0
VERTEX
  8
ガラス
 10
15.75
 20
-1.775
 70
     8
  0
VERTEX
  8
ガラス
 10
15.8
 20
-1.75
 70
     8
  0
VERTEX
  8
ガラス
 10
15.85
 20
-1.7
 70
     8
  0
VERTEX
  8
ガラス
 10
15.9
 20
-1.675
 70
     8
  0
VERTEX
  8
ガラス
 10
15.95
 20
-1.65
 70
     8
  0
VERTEX
  8
ガラス
 10
16.0
 20
-1.625
 70
     8
  0
VERTEX
  8
ガラス
 10
16.05
 20
-1.6
 70
     8
  0
VERTEX
  8
ガラス
 10
16.125
 20
-1.575
 70
     8
  0
VERTEX
  8
ガラス
 10
16.175
 20
-1.55
 70
     8
  0
VERTEX
  8
ガラス
 10
16.225
 20
-1.525
 70
     8
  0
VERTEX
  8
ガラス
 10
16.3
 20
-1.5
 70
     8
  0
VERTEX
  8
ガラス
 10
16.35
 20
-1.475
 70
     8
  0
VERTEX
  8
ガラス
 10
16.4
 20
-1.45
 70
     8
  0
VERTEX
  8
ガラス
 10
16.475
 20
-1.425
 70
     8
  0
VERTEX
  8
ガラス
 10
16.525
 20
-1.4
 70
     8
  0
VERTEX
  8
ガラス
 10
16.6
 20
-1.4
 70
     8
  0
VERTEX
  8
ガラス
 10
16.65
 20
-1.375
 70
     8
  0
SEQEND
  0
POLYLINE
  8
ガラス
  6
CONTINUOUS
 66
     1
 70
     4
  0
VERTEX
  8
ガラス
 10
16.65
 20
-1.375
 70
     8
  0
VERTEX
  8
ガラス
 10
16.65
 20
-1.4
 70
     8
  0
VERTEX
  8
ガラス
 10
16.625
 20
-1.45
 70
     8
  0
VERTEX
  8
ガラス
 10
16.625
 20
-1.5
 70
     8
  0
VERTEX
  8
ガラス
 10
16.6
 20
-1.525
 70
     8
  0
VERTEX
  8
ガラス
 10
16.6
 20
-1.575
 70
     8
  0
VERTEX
  8
ガラス
 10
16.575
 20
-1.625
 70
     8
  0
VERTEX
  8
ガラス
 10
16.575
 20
-1.65
 70
     8
  0
VERTEX
  8
ガラス
 10
16.55
 20
-1.7
 70
     8
  0
VERTEX
  8
ガラス
 10
16.55
 20
-1.75
 70
     8
  0
VERTEX
  8
ガラス
 10
16.55
 20
-1.775
 70
     8
  0
VERTEX
  8
ガラス
 10
16.525
 20
-1.825
 70
     8
  0
VERTEX
  8
ガラス
 10
16.525
 20
-1.875
 70
     8
  0
VERTEX
  8
ガラス
 10
16.5
 20
-1.9
 70
     8
  0
VERTEX
  8
ガラス
 10
16.5
 20
-1.95
 70
     8
  0
VERTEX
  8
ガラス
 10
16.5
 20
-2.0
 70
     8
  0
VERTEX
  8
ガラス
 10
16.475
 20
-2.025
 70
     8
  0
VERTEX
  8
ガラス
 10
16.475
 20
-2.075
 70
     8
  0
VERTEX
  8
ガラス
 10
16.475
 20
-2.125
 70
     8
  0
VERTEX
  8
ガラス
 10
16.45
 20
-2.15
 70
     8
  0
VERTEX
  8
ガラス
 10
16.45
 20
-2.2
 70
     8
  0
VERTEX
  8
ガラス
 10
16.45
 20
-2.25
 70
     8
  0
VERTEX
  8
ガラス
 10
16.45
 20
-2.275
 70
     8
  0
VERTEX
  8
ガラス
 10
16.45
 20
-2.325
 70
     8
  0
VERTEX
  8
ガラス
 10
16.425
 20
-2.375
 70
     8
  0
VERTEX
  8
ガラス
 10
16.425
 20
-2.425
 70
     8
  0
VERTEX
  8
ガラス
 10
16.425
 20
-2.45
 70
     8
  0
VERTEX
  8
ガラス
 10
16.425
 20
-2.5
 70
     8
  0
VERTEX
  8
ガラス
 10
16.425
 20
-2.55
 70
     8
  0
VERTEX
  8
ガラス
 10
16.425
 20
-2.575
 70
     8
  0
VERTEX
  8
ガラス
 10
16.425
 20
-2.625
 70
     8
  0
VERTEX
  8
ガラス
 10
16.425
 20
-2.675
 70
     8
  0
VERTEX
  8
ガラス
 10
16.425
 20
-2.725
 70
     8
  0
VERTEX
  8
ガラス
 10
16.425
 20
-2.75
 70
     8
  0
VERTEX
  8
ガラス
 10
16.425
 20
-2.8
 70
     8
  0
VERTEX
  8
ガラス
 10
16.425
 20
-2.85
 70
     8
  0
VERTEX
  8
ガラス
 10
16.425
 20
-2.875
 70
     8
  0
VERTEX
  8
ガラス
 10
16.425
 20
-2.925
 70
     8
  0
VERTEX
  8
ガラス
 10
16.425
 20
-2.975
 70
     8
  0
VERTEX
  8
ガラス
 10
16.425
 20
-3.025
 70
     8
  0
VERTEX
  8
ガラス
 10
16.425
 20
-3.05
 70
     8
  0
SEQEND
  0
ARC
  8
ガラス
  6
CONTINUOUS
 10
15.759675
 20
-3.046963
 40
0.668594
 50
180.0
 51
360.0
  0
ENDBLK
  0
BLOCK
  2
*GRP_0369
 70
    65
 10
0.0
 20
0.0
  0
POLYLINE
  8
ガラス
  6
CONTINUOUS
 66
     1
 70
     4
  0
VERTEX
  8
ガラス
 10
15.075
 20
-18.75
 70
     8
  0
VERTEX
  8
ガラス
 10
15.1
 20
-18.675
 70
     8
  0
VERTEX
  8
ガラス
 10
15.125
 20
-18.625
 70
     8
  0
VERTEX
  8
ガラス
 10
15.125
 20
-18.55
 70
     8
  0
VERTEX
  8
ガラス
 10
15.15
 20
-18.5
 70
     8
  0
VERTEX
  8
ガラス
 10
15.175
 20
-18.425
 70
     8
  0
VERTEX
  8
ガラス
 10
15.2
 20
-18.375
 70
     8
  0
VERTEX
  8
ガラス
 10
15.2
 20
-18.325
 70
     8
  0
VERTEX
  8
ガラス
 10
15.225
 20
-18.25
 70
     8
  0
VERTEX
  8
ガラス
 10
15.25
 20
-18.2
 70
     8
  0
VERTEX
  8
ガラス
 10
15.275
 20
-18.125
 70
     8
  0
VERTEX
  8
ガラス
 10
15.3
 20
-18.075
 70
     8
  0
VERTEX
  8
ガラス
 10
15.325
 20
-18.025
 70
     8
  0
VERTEX
  8
ガラス
 10
15.35
 20
-17.975
 70
     8
  0
VERTEX
  8
ガラス
 10
15.375
 20
-17.925
 70
     8
  0
VERTEX
  8
ガラス
 10
15.4
 20
-17.85
 70
     8
  0
VERTEX
  8
ガラス
 10
15.425
 20
-17.8
 70
     8
  0
VERTEX
  8
ガラス
 10
15.475
 20
-17.75
 70
     8
  0
VERTEX
  8
ガラス
 10
15.5
 20
-17.725
 70
     8
  0
VERTEX
  8
ガラス
 10
15.525
 20
-17.675
 70
     8
  0
VERTEX
  8
ガラス
 10
15.575
 20
-17.625
 70
     8
  0
VERTEX
  8
ガラス
 10
15.625
 20
-17.575
 70
     8
  0
VERTEX
  8
ガラス
 10
15.65
 20
-17.55
 70
     8
  0
VERTEX
  8
ガラス
 10
15.7
 20
-17.5
 70
     8
  0
VERTEX
  8
ガラス
 10
15.75
 20
-17.475
 70
     8
  0
VERTEX
  8
ガラス
 10
15.8
 20
-17.425
 70
     8
  0
VERTEX
  8
ガラス
 10
15.85
 20
-17.4
 70
     8
  0
VERTEX
  8
ガラス
 10
15.9
 20
-17.375
 70
     8
  0
VERTEX
  8
ガラス
 10
15.95
 20
-17.35
 70
     8
  0
VERTEX
  8
ガラス
 10
16.0
 20
-17.325
 70
     8
  0
VERTEX
  8
ガラス
 10
16.05
 20
-17.275
 70
     8
  0
VERTEX
  8
ガラス
 10
16.125
 20
-17.25
 70
     8
  0
VERTEX
  8
ガラス
 10
16.175
 20
-17.225
 70
     8
  0
VERTEX
  8
ガラス
 10
16.225
 20
-17.2
 70
     8
  0
VERTEX
  8
ガラス
 10
16.3
 20
-17.2
 70
     8
  0
VERTEX
  8
ガラス
 10
16.35
 20
-17.175
 70
     8
  0
VERTEX
  8
ガラス
 10
16.4
 20
-17.15
 70
     8
  0
VERTEX
  8
ガラス
 10
16.475
 20
-17.125
 70
     8
  0
VERTEX
  8
ガラス
 10
16.525
 20
-17.1
 70
     8
  0
VERTEX
  8
ガラス
 10
16.6
 20
-17.075
 70
     8
  0
VERTEX
  8
ガラス
 10
16.65
 20
-17.05
 70
     8
  0
SEQEND
  0
POLYLINE
  8
ガラス
  6
CONTINUOUS
 66
     1
 70
     4
  0
VERTEX
  8
ガラス
 10
16.65
 20
-17.05
 70
     8
  0
VERTEX
  8
ガラス
 10
16.65
 20
-17.1
 70
     8
  0
VERTEX
  8
ガラス
 10
16.625
 20
-17.15
 70
     8
  0
VERTEX
  8
ガラス
 10
16.625
 20
-17.175
 70
     8
  0
VERTEX
  8
ガラス
 10
16.6
 20
-17.225
 70
     8
  0
VERTEX
  8
ガラス
 10
16.6
 20
-17.275
 70
     8
  0
VERTEX
  8
ガラス
 10
16.575
 20
-17.3
 70
     8
  0
VERTEX
  8
ガラス
 10
16.575
 20
-17.35
 70
     8
  0
VERTEX
  8
ガラス
 10
16.55
 20
-17.4
 70
     8
  0
VERTEX
  8
ガラス
 10
16.55
 20
-17.425
 70
     8
  0
VERTEX
  8
ガラス
 10
16.55
 20
-17.475
 70
     8
  0
VERTEX
  8
ガラス
 10
16.525
 20
-17.525
 70
     8
  0
VERTEX
  8
ガラス
 10
16.525
 20
-17.55
 70
     8
  0
VERTEX
  8
ガラス
 10
16.5
 20
-17.6
 70
     8
  0
VERTEX
  8
ガラス
 10
16.5
 20
-17.65
 70
     8
  0
VERTEX
  8
ガラス
 10
16.5
 20
-17.675
 70
     8
  0
VERTEX
  8
ガラス
 10
16.475
 20
-17.725
 70
     8
  0
VERTEX
  8
ガラス
 10
16.475
 20
-17.775
 70
     8
  0
VERTEX
  8
ガラス
 10
16.475
 20
-17.8
 70
     8
  0
VERTEX
  8
ガラス
 10
16.45
 20
-17.85
 70
     8
  0
VERTEX
  8
ガラス
 10
16.45
 20
-17.9
 70
     8
  0
VERTEX
  8
ガラス
 10
16.45
 20
-17.925
 70
     8
  0
VERTEX
  8
ガラス
 10
16.45
 20
-17.975
 70
     8
  0
VERTEX
  8
ガラス
 10
16.45
 20
-18.025
 70
     8
  0
VERTEX
  8
ガラス
 10
16.425
 20
-18.075
 70
     8
  0
VERTEX
  8
ガラス
 10
16.425
 20
-18.1
 70
     8
  0
VERTEX
  8
ガラス
 10
16.425
 20
-18.15
 70
     8
  0
VERTEX
  8
ガラス
 10
16.425
 20
-18.2
 70
     8
  0
VERTEX
  8
ガラス
 10
16.425
 20
-18.225
 70
     8
  0
VERTEX
  8
ガラス
 10
16.425
 20
-18.275
 70
     8
  0
VERTEX
  8
ガラス
 10
16.425
 20
-18.325
 70
     8
  0
VERTEX
  8
ガラス
 10
16.425
 20
-18.35
 70
     8
  0
VERTEX
  8
ガラス
 10
16.425
 20
-18.4
 70
     8
  0
VERTEX
  8
ガラス
 10
16.425
 20
-18.45
 70
     8
  0
VERTEX
  8
ガラス
 10
16.425
 20
-18.5
 70
     8
  0
VERTEX
  8
ガラス
 10
16.425
 20
-18.525
 70
     8
  0
VERTEX
  8
ガラス
 10
16.425
 20
-18.575
 70
     8
  0
VERTEX
  8
ガラス
 10
16.425
 20
-18.625
 70
     8
  0
VERTEX
  8
ガラス
 10
16.425
 20
-18.675
 70
     8
  0
VERTEX
  8
ガラス
 10
16.425
 20
-18.7
 70
     8
  0
VERTEX
  8
ガラス
 10
16.425
 20
-18.75
 70
     8
  0
SEQEND
  0
ARC
  8
ガラス
  6
CONTINUOUS
 10
15.759675
 20
-18.737611
 40
0.668594
 50
180.0
 51
360.0
  0
ENDBLK
  0
BLOCK
  2
*GRP_0370
 70
    65
 10
0.0
 20
0.0
  0
POLYLINE
  8
ガラス
  6
CONTINUOUS
 66
     1
 70
     4
  0
VERTEX
  8
ガラス
 10
8.1
 20
-26.2
 70
     8
  0
VERTEX
  8
ガラス
 10
8.175
 20
-26.175
 70
     8
  0
VERTEX
  8
ガラス
 10
8.25
 20
-26.175
 70
     8
  0
VERTEX
  8
ガラス
 10
8.3
 20
-26.175
 70
     8
  0
VERTEX
  8
ガラス
 10
8.375
 20
-26.175
 70
     8
  0
VERTEX
  8
ガラス
 10
8.425
 20
-26.15
 70
     8
  0
VERTEX
  8
ガラス
 10
8.5
 20
-26.15
 70
     8
  0
VERTEX
  8
ガラス
 10
8.575
 20
-26.15
 70
     8
  0
VERTEX
  8
ガラス
 10
8.625
 20
-26.15
 70
     8
  0
VERTEX
  8
ガラス
 10
8.7
 20
-26.15
 70
     8
  0
VERTEX
  8
ガラス
 10
8.75
 20
-26.15
 70
     8
  0
VERTEX
  8
ガラス
 10
8.825
 20
-26.15
 70
     8
  0
VERTEX
  8
ガラス
 10
8.875
 20
-26.15
 70
     8
  0
VERTEX
  8
ガラス
 10
8.95
 20
-26.15
 70
     8
  0
VERTEX
  8
ガラス
 10
9.0
 20
-26.175
 70
     8
  0
VERTEX
  8
ガラス
 10
9.05
 20
-26.175
 70
     8
  0
VERTEX
  8
ガラス
 10
9.125
 20
-26.175
 70
     8
  0
VERTEX
  8
ガラス
 10
9.175
 20
-26.2
 70
     8
  0
VERTEX
  8
ガラス
 10
9.225
 20
-26.2
 70
     8
  0
VERTEX
  8
ガラス
 10
9.275
 20
-26.225
 70
     8
  0
VERTEX
  8
ガラス
 10
9.35
 20
-26.25
 70
     8
  0
VERTEX
  8
ガラス
 10
9.4
 20
-26.275
 70
     8
  0
VERTEX
  8
ガラス
 10
9.45
 20
-26.3
 70
     8
  0
VERTEX
  8
ガラス
 10
9.5
 20
-26.325
 70
     8
  0
VERTEX
  8
ガラス
 10
9.55
 20
-26.35
 70
     8
  0
VERTEX
  8
ガラス
 10
9.6
 20
-26.375
 70
     8
  0
VERTEX
  8
ガラス
 10
9.65
 20
-26.425
 70
     8
  0
VERTEX
  8
ガラス
 10
9.7
 20
-26.45
 70
     8
  0
VERTEX
  8
ガラス
 10
9.75
 20
-26.5
 70
     8
  0
VERTEX
  8
ガラス
 10
9.775
 20
-26.525
 70
     8
  0
VERTEX
  8
ガラス
 10
9.825
 20
-26.575
 70
     8
  0
VERTEX
  8
ガラス
 10
9.875
 20
-26.625
 70
     8
  0
VERTEX
  8
ガラス
 10
9.925
 20
-26.65
 70
     8
  0
VERTEX
  8
ガラス
 10
9.95
 20
-26.7
 70
     8
  0
VERTEX
  8
ガラス
 10
10.0
 20
-26.75
 70
     8
  0
VERTEX
  8
ガラス
 10
10.05
 20
-26.8
 70
     8
  0
VERTEX
  8
ガラス
 10
10.1
 20
-26.85
 70
     8
  0
VERTEX
  8
ガラス
 10
10.125
 20
-26.9
 70
     8
  0
VERTEX
  8
ガラス
 10
10.175
 20
-26.95
 70
     8
  0
VERTEX
  8
ガラス
 10
10.225
 20
-27.0
 70
     8
  0
VERTEX
  8
ガラス
 10
10.25
 20
-27.05
 70
     8
  0
SEQEND
  0
POLYLINE
  8
ガラス
  6
CONTINUOUS
 66
     1
 70
     4
  0
VERTEX
  8
ガラス
 10
10.25
 20
-27.05
 70
     8
  0
VERTEX
  8
ガラス
 10
10.225
 20
-27.05
 70
     8
  0
VERTEX
  8
ガラス
 10
10.175
 20
-27.05
 70
     8
  0
VERTEX
  8
ガラス
 10
10.125
 20
-27.05
 70
     8
  0
VERTEX
  8
ガラス
 10
10.075
 20
-27.075
 70
     8
  0
VERTEX
  8
ガラス
 10
10.05
 20
-27.075
 70
     8
  0
VERTEX
  8
ガラス
 10
10.0
 20
-27.075
 70
     8
  0
VERTEX
  8
ガラス
 10
9.95
 20
-27.075
 70
     8
  0
VERTEX
  8
ガラス
 10
9.925
 20
-27.075
 70
     8
  0
VERTEX
  8
ガラス
 10
9.875
 20
-27.075
 70
     8
  0
VERTEX
  8
ガラス
 10
9.825
 20
-27.1
 70
     8
  0
VERTEX
  8
ガラス
 10
9.775
 20
-27.1
 70
     8
  0
VERTEX
  8
ガラス
 10
9.75
 20
-27.1
 70
     8
  0
VERTEX
  8
ガラス
 10
9.7
 20
-27.1
 70
     8
  0
VERTEX
  8
ガラス
 10
9.65
 20
-27.125
 70
     8
  0
VERTEX
  8
ガラス
 10
9.625
 20
-27.125
 70
     8
  0
VERTEX
  8
ガラス
 10
9.575
 20
-27.125
 70
     8
  0
VERTEX
  8
ガラス
 10
9.525
 20
-27.125
 70
     8
  0
VERTEX
  8
ガラス
 10
9.5
 20
-27.15
 70
     8
  0
VERTEX
  8
ガラス
 10
9.45
 20
-27.15
 70
     8
  0
VERTEX
  8
ガラス
 10
9.4
 20
-27.15
 70
     8
  0
VERTEX
  8
ガラス
 10
9.375
 20
-27.175
 70
     8
  0
VERTEX
  8
ガラス
 10
9.325
 20
-27.175
 70
     8
  0
VERTEX
  8
ガラス
 10
9.275
 20
-27.2
 70
     8
  0
VERTEX
  8
ガラス
 10
9.25
 20
-27.2
 70
     8
  0
VERTEX
  8
ガラス
 10
9.2
 20
-27.225
 70
     8
  0
VERTEX
  8
ガラス
 10
9.15
 20
-27.225
 70
     8
  0
VERTEX
  8
ガラス
 10
9.125
 20
-27.25
 70
     8
  0
VERTEX
  8
ガラス
 10
9.075
 20
-27.25
 70
     8
  0
VERTEX
  8
ガラス
 10
9.025
 20
-27.275
 70
     8
  0
VERTEX
  8
ガラス
 10
9.0
 20
-27.275
 70
     8
  0
VERTEX
  8
ガラス
 10
8.95
 20
-27.3
 70
     8
  0
VERTEX
  8
ガラス
 10
8.925
 20
-27.3
 70
     8
  0
VERTEX
  8
ガラス
 10
8.875
 20
-27.325
 70
     8
  0
VERTEX
  8
ガラス
 10
8.825
 20
-27.35
 70
     8
  0
VERTEX
  8
ガラス
 10
8.8
 20
-27.35
 70
     8
  0
VERTEX
  8
ガラス
 10
8.75
 20
-27.375
 70
     8
  0
VERTEX
  8
ガラス
 10
8.725
 20
-27.4
 70
     8
  0
VERTEX
  8
ガラス
 10
8.675
 20
-27.4
 70
     8
  0
VERTEX
  8
ガラス
 10
8.625
 20
-27.425
 70
     8
  0
VERTEX
  8
ガラス
 10
8.6
 20
-27.425
 70
     8
  0
SEQEND
  0
ARC
  8
ガラス
  6
CONTINUOUS
 10
8.36487
 20
-26.79991
 40
0.668594
 50
111.203091
 51
291.203091
  0
ENDBLK
  0
BLOCK
  2
*GRP_0371
 70
    65
 10
0.0
 20
0.0
  0
POLYLINE
  8
ガラス
  6
CONTINUOUS
 66
     1
 70
     4
  0
VERTEX
  8
ガラス
 10
-6.125
 20
-26.2
 70
     8
  0
VERTEX
  8
ガラス
 10
-6.05
 20
-26.175
 70
     8
  0
VERTEX
  8
ガラス
 10
-6.0
 20
-26.175
 70
     8
  0
VERTEX
  8
ガラス
 10
-5.925
 20
-26.175
 70
     8
  0
VERTEX
  8
ガラス
 10
-5.85
 20
-26.175
 70
     8
  0
VERTEX
  8
ガラス
 10
-5.8
 20
-26.15
 70
     8
  0
VERTEX
  8
ガラス
 10
-5.725
 20
-26.15
 70
     8
  0
VERTEX
  8
ガラス
 10
-5.675
 20
-26.15
 70
     8
  0
VERTEX
  8
ガラス
 10
-5.6
 20
-26.15
 70
     8
  0
VERTEX
  8
ガラス
 10
-5.55
 20
-26.15
 70
     8
  0
VERTEX
  8
ガラス
 10
-5.475
 20
-26.15
 70
     8
  0
VERTEX
  8
ガラス
 10
-5.425
 20
-26.15
 70
     8
  0
VERTEX
  8
ガラス
 10
-5.35
 20
-26.15
 70
     8
  0
VERTEX
  8
ガラス
 10
-5.3
 20
-26.15
 70
     8
  0
VERTEX
  8
ガラス
 10
-5.225
 20
-26.175
 70
     8
  0
VERTEX
  8
ガラス
 10
-5.175
 20
-26.175
 70
     8
  0
VERTEX
  8
ガラス
 10
-5.125
 20
-26.175
 70
     8
  0
VERTEX
  8
ガラス
 10
-5.05
 20
-26.2
 70
     8
  0
VERTEX
  8
ガラス
 10
-5.0
 20
-26.2
 70
     8
  0
VERTEX
  8
ガラス
 10
-4.95
 20
-26.225
 70
     8
  0
VERTEX
  8
ガラス
 10
-4.9
 20
-26.25
 70
     8
  0
VERTEX
  8
ガラス
 10
-4.85
 20
-26.275
 70
     8
  0
VERTEX
  8
ガラス
 10
-4.775
 20
-26.3
 70
     8
  0
VERTEX
  8
ガラス
 10
-4.725
 20
-26.325
 70
     8
  0
VERTEX
  8
ガラス
 10
-4.675
 20
-26.35
 70
     8
  0
VERTEX
  8
ガラス
 10
-4.625
 20
-26.375
 70
     8
  0
VERTEX
  8
ガラス
 10
-4.6
 20
-26.425
 70
     8
  0
VERTEX
  8
ガラス
 10
-4.55
 20
-26.45
 70
     8
  0
VERTEX
  8
ガラス
 10
-4.5
 20
-26.5
 70
     8
  0
VERTEX
  8
ガラス
 10
-4.45
 20
-26.525
 70
     8
  0
VERTEX
  8
ガラス
 10
-4.4
 20
-26.575
 70
     8
  0
VERTEX
  8
ガラス
 10
-4.35
 20
-26.625
 70
     8
  0
VERTEX
  8
ガラス
 10
-4.325
 20
-26.65
 70
     8
  0
VERTEX
  8
ガラス
 10
-4.275
 20
-26.7
 70
     8
  0
VERTEX
  8
ガラス
 10
-4.225
 20
-26.75
 70
     8
  0
VERTEX
  8
ガラス
 10
-4.175
 20
-26.8
 70
     8
  0
VERTEX
  8
ガラス
 10
-4.15
 20
-26.85
 70
     8
  0
VERTEX
  8
ガラス
 10
-4.1
 20
-26.9
 70
     8
  0
VERTEX
  8
ガラス
 10
-4.05
 20
-26.95
 70
     8
  0
VERTEX
  8
ガラス
 10
-4.025
 20
-27.0
 70
     8
  0
VERTEX
  8
ガラス
 10
-3.975
 20
-27.05
 70
     8
  0
SEQEND
  0
POLYLINE
  8
ガラス
  6
CONTINUOUS
 66
     1
 70
     4
  0
VERTEX
  8
ガラス
 10
-3.975
 20
-27.05
 70
     8
  0
VERTEX
  8
ガラス
 10
-4.025
 20
-27.05
 70
     8
  0
VERTEX
  8
ガラス
 10
-4.05
 20
-27.05
 70
     8
  0
VERTEX
  8
ガラス
 10
-4.1
 20
-27.05
 70
     8
  0
VERTEX
  8
ガラス
 10
-4.15
 20
-27.075
 70
     8
  0
VERTEX
  8
ガラス
 10
-4.2
 20
-27.075
 70
     8
  0
VERTEX
  8
ガラス
 10
-4.225
 20
-27.075
 70
     8
  0
VERTEX
  8
ガラス
 10
-4.275
 20
-27.075
 70
     8
  0
VERTEX
  8
ガラス
 10
-4.325
 20
-27.075
 70
     8
  0
VERTEX
  8
ガラス
 10
-4.35
 20
-27.075
 70
     8
  0
VERTEX
  8
ガラス
 10
-4.4
 20
-27.1
 70
     8
  0
VERTEX
  8
ガラス
 10
-4.45
 20
-27.1
 70
     8
  0
VERTEX
  8
ガラス
 10
-4.5
 20
-27.1
 70
     8
  0
VERTEX
  8
ガラス
 10
-4.525
 20
-27.1
 70
     8
  0
VERTEX
  8
ガラス
 10
-4.575
 20
-27.125
 70
     8
  0
VERTEX
  8
ガラス
 10
-4.625
 20
-27.125
 70
     8
  0
VERTEX
  8
ガラス
 10
-4.65
 20
-27.125
 70
     8
  0
VERTEX
  8
ガラス
 10
-4.7
 20
-27.125
 70
     8
  0
VERTEX
  8
ガラス
 10
-4.75
 20
-27.15
 70
     8
  0
VERTEX
  8
ガラス
 10
-4.775
 20
-27.15
 70
     8
  0
VERTEX
  8
ガラス
 10
-4.825
 20
-27.15
 70
     8
  0
VERTEX
  8
ガラス
 10
-4.875
 20
-27.175
 70
     8
  0
VERTEX
  8
ガラス
 10
-4.9
 20
-27.175
 70
     8
  0
VERTEX
  8
ガラス
 10
-4.95
 20
-27.2
 70
     8
  0
VERTEX
  8
ガラス
 10
-5.0
 20
-27.2
 70
     8
  0
VERTEX
  8
ガラス
 10
-5.025
 20
-27.225
 70
     8
  0
VERTEX
  8
ガラス
 10
-5.075
 20
-27.225
 70
     8
  0
VERTEX
  8
ガラス
 10
-5.125
 20
-27.25
 70
     8
  0
VERTEX
  8
ガラス
 10
-5.15
 20
-27.25
 70
     8
  0
VERTEX
  8
ガラス
 10
-5.2
 20
-27.275
 70
     8
  0
VERTEX
  8
ガラス
 10
-5.225
 20
-27.275
 70
     8
  0
VERTEX
  8
ガラス
 10
-5.275
 20
-27.3
 70
     8
  0
VERTEX
  8
ガラス
 10
-5.325
 20
-27.3
 70
     8
  0
VERTEX
  8
ガラス
 10
-5.35
 20
-27.325
 70
     8
  0
VERTEX
  8
ガラス
 10
-5.4
 20
-27.35
 70
     8
  0
VERTEX
  8
ガラス
 10
-5.425
 20
-27.35
 70
     8
  0
VERTEX
  8
ガラス
 10
-5.475
 20
-27.375
 70
     8
  0
VERTEX
  8
ガラス
 10
-5.525
 20
-27.4
 70
     8
  0
VERTEX
  8
ガラス
 10
-5.55
 20
-27.4
 70
     8
  0
VERTEX
  8
ガラス
 10
-5.6
 20
-27.425
 70
     8
  0
VERTEX
  8
ガラス
 10
-5.65
 20
-27.425
 70
     8
  0
SEQEND
  0
ARC
  8
ガラス
  6
CONTINUOUS
 10
-5.867208
 20
-26.79991
 40
0.668594
 50
111.203091
 51
291.203091
  0
ENDBLK
  0
BLOCK
  2
*GRP_0372
 70
    65
 10
0.0
 20
0.0
  0
POLYLINE
  8
ガラス
  6
CONTINUOUS
 66
     1
 70
     4
  0
VERTEX
  8
ガラス
 10
-18.95
 20
-26.2
 70
     8
  0
VERTEX
  8
ガラス
 10
-18.875
 20
-26.175
 70
     8
  0
VERTEX
  8
ガラス
 10
-18.8
 20
-26.175
 70
     8
  0
VERTEX
  8
ガラス
 10
-18.75
 20
-26.175
 70
     8
  0
VERTEX
  8
ガラス
 10
-18.675
 20
-26.175
 70
     8
  0
VERTEX
  8
ガラス
 10
-18.625
 20
-26.15
 70
     8
  0
VERTEX
  8
ガラス
 10
-18.55
 20
-26.15
 70
     8
  0
VERTEX
  8
ガラス
 10
-18.475
 20
-26.15
 70
     8
  0
VERTEX
  8
ガラス
 10
-18.425
 20
-26.15
 70
     8
  0
VERTEX
  8
ガラス
 10
-18.35
 20
-26.15
 70
     8
  0
VERTEX
  8
ガラス
 10
-18.3
 20
-26.15
 70
     8
  0
VERTEX
  8
ガラス
 10
-18.225
 20
-26.15
 70
     8
  0
VERTEX
  8
ガラス
 10
-18.175
 20
-26.15
 70
     8
  0
VERTEX
  8
ガラス
 10
-18.125
 20
-26.15
 70
     8
  0
VERTEX
  8
ガラス
 10
-18.05
 20
-26.175
 70
     8
  0
VERTEX
  8
ガラス
 10
-18.0
 20
-26.175
 70
     8
  0
VERTEX
  8
ガラス
 10
-17.925
 20
-26.175
 70
     8
  0
VERTEX
  8
ガラス
 10
-17.875
 20
-26.2
 70
     8
  0
VERTEX
  8
ガラス
 10
-17.825
 20
-26.2
 70
     8
  0
VERTEX
  8
ガラス
 10
-17.775
 20
-26.225
 70
     8
  0
VERTEX
  8
ガラス
 10
-17.7
 20
-26.25
 70
     8
  0
VERTEX
  8
ガラス
 10
-17.65
 20
-26.275
 70
     8
  0
VERTEX
  8
ガラス
 10
-17.6
 20
-26.3
 70
     8
  0
VERTEX
  8
ガラス
 10
-17.55
 20
-26.325
 70
     8
  0
VERTEX
  8
ガラス
 10
-17.5
 20
-26.35
 70
     8
  0
VERTEX
  8
ガラス
 10
-17.45
 20
-26.375
 70
     8
  0
VERTEX
  8
ガラス
 10
-17.4
 20
-26.425
 70
     8
  0
VERTEX
  8
ガラス
 10
-17.35
 20
-26.45
 70
     8
  0
VERTEX
  8
ガラス
 10
-17.3
 20
-26.5
 70
     8
  0
VERTEX
  8
ガラス
 10
-17.275
 20
-26.525
 70
     8
  0
VERTEX
  8
ガラス
 10
-17.225
 20
-26.575
 70
     8
  0
VERTEX
  8
ガラス
 10
-17.175
 20
-26.625
 70
     8
  0
VERTEX
  8
ガラス
 10
-17.125
 20
-26.65
 70
     8
  0
VERTEX
  8
ガラス
 10
-17.1
 20
-26.7
 70
     8
  0
VERTEX
  8
ガラス
 10
-17.05
 20
-26.75
 70
     8
  0
VERTEX
  8
ガラス
 10
-17.0
 20
-26.8
 70
     8
  0
VERTEX
  8
ガラス
 10
-16.95
 20
-26.85
 70
     8
  0
VERTEX
  8
ガラス
 10
-16.925
 20
-26.9
 70
     8
  0
VERTEX
  8
ガラス
 10
-16.875
 20
-26.95
 70
     8
  0
VERTEX
  8
ガラス
 10
-16.825
 20
-27.0
 70
     8
  0
VERTEX
  8
ガラス
 10
-16.8
 20
-27.05
 70
     8
  0
SEQEND
  0
POLYLINE
  8
ガラス
  6
CONTINUOUS
 66
     1
 70
     4
  0
VERTEX
  8
ガラス
 10
-16.8
 20
-27.05
 70
     8
  0
VERTEX
  8
ガラス
 10
-16.825
 20
-27.05
 70
     8
  0
VERTEX
  8
ガラス
 10
-16.875
 20
-27.05
 70
     8
  0
VERTEX
  8
ガラス
 10
-16.925
 20
-27.05
 70
     8
  0
VERTEX
  8
ガラス
 10
-16.975
 20
-27.075
 70
     8
  0
VERTEX
  8
ガラス
 10
-17.0
 20
-27.075
 70
     8
  0
VERTEX
  8
ガラス
 10
-17.05
 20
-27.075
 70
     8
  0
VERTEX
  8
ガラス
 10
-17.1
 20
-27.075
 70
     8
  0
VERTEX
  8
ガラス
 10
-17.125
 20
-27.075
 70
     8
  0
VERTEX
  8
ガラス
 10
-17.175
 20
-27.075
 70
     8
  0
VERTEX
  8
ガラス
 10
-17.225
 20
-27.1
 70
     8
  0
VERTEX
  8
ガラス
 10
-17.275
 20
-27.1
 70
     8
  0
VERTEX
  8
ガラス
 10
-17.3
 20
-27.1
 70
     8
  0
VERTEX
  8
ガラス
 10
-17.35
 20
-27.1
 70
     8
  0
VERTEX
  8
ガラス
 10
-17.4
 20
-27.125
 70
     8
  0
VERTEX
  8
ガラス
 10
-17.425
 20
-27.125
 70
     8
  0
VERTEX
  8
ガラス
 10
-17.475
 20
-27.125
 70
     8
  0
VERTEX
  8
ガラス
 10
-17.525
 20
-27.125
 70
     8
  0
VERTEX
  8
ガラス
 10
-17.55
 20
-27.15
 70
     8
  0
VERTEX
  8
ガラス
 10
-17.6
 20
-27.15
 70
     8
  0
VERTEX
  8
ガラス
 10
-17.65
 20
-27.15
 70
     8
  0
VERTEX
  8
ガラス
 10
-17.675
 20
-27.175
 70
     8
  0
VERTEX
  8
ガラス
 10
-17.725
 20
-27.175
 70
     8
  0
VERTEX
  8
ガラス
 10
-17.775
 20
-27.2
 70
     8
  0
VERTEX
  8
ガラス
 10
-17.8
 20
-27.2
 70
     8
  0
VERTEX
  8
ガラス
 10
-17.85
 20
-27.225
 70
     8
  0
VERTEX
  8
ガラス
 10
-17.9
 20
-27.225
 70
     8
  0
VERTEX
  8
ガラス
 10
-17.925
 20
-27.25
 70
     8
  0
VERTEX
  8
ガラス
 10
-17.975
 20
-27.25
 70
     8
  0
VERTEX
  8
ガラス
 10
-18.025
 20
-27.275
 70
     8
  0
VERTEX
  8
ガラス
 10
-18.05
 20
-27.275
 70
     8
  0
VERTEX
  8
ガラス
 10
-18.1
 20
-27.3
 70
     8
  0
VERTEX
  8
ガラス
 10
-18.125
 20
-27.3
 70
     8
  0
VERTEX
  8
ガラス
 10
-18.175
 20
-27.325
 70
     8
  0
VERTEX
  8
ガラス
 10
-18.225
 20
-27.35
 70
     8
  0
VERTEX
  8
ガラス
 10
-18.25
 20
-27.35
 70
     8
  0
VERTEX
  8
ガラス
 10
-18.3
 20
-27.375
 70
     8
  0
VERTEX
  8
ガラス
 10
-18.325
 20
-27.4
 70
     8
  0
VERTEX
  8
ガラス
 10
-18.375
 20
-27.4
 70
     8
  0
VERTEX
  8
ガラス
 10
-18.425
 20
-27.425
 70
     8
  0
VERTEX
  8
ガラス
 10
-18.45
 20
-27.425
 70
     8
  0
SEQEND
  0
ARC
  8
ガラス
  6
CONTINUOUS
 10
-18.685264
 20
-26.79991
 40
0.668594
 50
111.203091
 51
291.203091
  0
ENDBLK
  0
BLOCK
  2
*GRP_0373
 70
    65
 10
0.0
 20
0.0
  0
POLYLINE
  8
ガラス
  6
CONTINUOUS
 66
     1
 70
     4
  0
VERTEX
  8
ガラス
 10
-34.475
 20
-26.2
 70
     8
  0
VERTEX
  8
ガラス
 10
-34.4
 20
-26.175
 70
     8
  0
VERTEX
  8
ガラス
 10
-34.325
 20
-26.175
 70
     8
  0
VERTEX
  8
ガラス
 10
-34.275
 20
-26.175
 70
     8
  0
VERTEX
  8
ガラス
 10
-34.2
 20
-26.175
 70
     8
  0
VERTEX
  8
ガラス
 10
-34.15
 20
-26.15
 70
     8
  0
VERTEX
  8
ガラス
 10
-34.075
 20
-26.15
 70
     8
  0
VERTEX
  8
ガラス
 10
-34.025
 20
-26.15
 70
     8
  0
VERTEX
  8
ガラス
 10
-33.95
 20
-26.15
 70
     8
  0
VERTEX
  8
ガラス
 10
-33.875
 20
-26.15
 70
     8
  0
VERTEX
  8
ガラス
 10
-33.825
 20
-26.15
 70
     8
  0
VERTEX
  8
ガラス
 10
-33.775
 20
-26.15
 70
     8
  0
VERTEX
  8
ガラス
 10
-33.7
 20
-26.15
 70
     8
  0
VERTEX
  8
ガラス
 10
-33.65
 20
-26.15
 70
     8
  0
VERTEX
  8
ガラス
 10
-33.575
 20
-26.175
 70
     8
  0
VERTEX
  8
ガラス
 10
-33.525
 20
-26.175
 70
     8
  0
VERTEX
  8
ガラス
 10
-33.45
 20
-26.175
 70
     8
  0
VERTEX
  8
ガラス
 10
-33.4
 20
-26.2
 70
     8
  0
VERTEX
  8
ガラス
 10
-33.35
 20
-26.2
 70
     8
  0
VERTEX
  8
ガラス
 10
-33.3
 20
-26.225
 70
     8
  0
VERTEX
  8
ガラス
 10
-33.25
 20
-26.25
 70
     8
  0
VERTEX
  8
ガラス
 10
-33.175
 20
-26.275
 70
     8
  0
VERTEX
  8
ガラス
 10
-33.125
 20
-26.3
 70
     8
  0
VERTEX
  8
ガラス
 10
-33.075
 20
-26.325
 70
     8
  0
VERTEX
  8
ガラス
 10
-33.025
 20
-26.35
 70
     8
  0
VERTEX
  8
ガラス
 10
-32.975
 20
-26.375
 70
     8
  0
VERTEX
  8
ガラス
 10
-32.925
 20
-26.425
 70
     8
  0
VERTEX
  8
ガラス
 10
-32.875
 20
-26.45
 70
     8
  0
VERTEX
  8
ガラス
 10
-32.85
 20
-26.5
 70
     8
  0
VERTEX
  8
ガラス
 10
-32.8
 20
-26.525
 70
     8
  0
VERTEX
  8
ガラス
 10
-32.75
 20
-26.575
 70
     8
  0
VERTEX
  8
ガラス
 10
-32.7
 20
-26.625
 70
     8
  0
VERTEX
  8
ガラス
 10
-32.65
 20
-26.65
 70
     8
  0
VERTEX
  8
ガラス
 10
-32.625
 20
-26.7
 70
     8
  0
VERTEX
  8
ガラス
 10
-32.575
 20
-26.75
 70
     8
  0
VERTEX
  8
ガラス
 10
-32.525
 20
-26.8
 70
     8
  0
VERTEX
  8
ガラス
 10
-32.5
 20
-26.85
 70
     8
  0
VERTEX
  8
ガラス
 10
-32.45
 20
-26.9
 70
     8
  0
VERTEX
  8
ガラス
 10
-32.4
 20
-26.95
 70
     8
  0
VERTEX
  8
ガラス
 10
-32.35
 20
-27.0
 70
     8
  0
VERTEX
  8
ガラス
 10
-32.325
 20
-27.05
 70
     8
  0
SEQEND
  0
POLYLINE
  8
ガラス
  6
CONTINUOUS
 66
     1
 70
     4
  0
VERTEX
  8
ガラス
 10
-32.325
 20
-27.05
 70
     8
  0
VERTEX
  8
ガラス
 10
-32.375
 20
-27.05
 70
     8
  0
VERTEX
  8
ガラス
 10
-32.4
 20
-27.05
 70
     8
  0
VERTEX
  8
ガラス
 10
-32.45
 20
-27.05
 70
     8
  0
VERTEX
  8
ガラス
 10
-32.5
 20
-27.075
 70
     8
  0
VERTEX
  8
ガラス
 10
-32.525
 20
-27.075
 70
     8
  0
VERTEX
  8
ガラス
 10
-32.575
 20
-27.075
 70
     8
  0
VERTEX
  8
ガラス
 10
-32.625
 20
-27.075
 70
     8
  0
VERTEX
  8
ガラス
 10
-32.675
 20
-27.075
 70
     8
  0
VERTEX
  8
ガラス
 10
-32.7
 20
-27.075
 70
     8
  0
VERTEX
  8
ガラス
 10
-32.75
 20
-27.1
 70
     8
  0
VERTEX
  8
ガラス
 10
-32.8
 20
-27.1
 70
     8
  0
VERTEX
  8
ガラス
 10
-32.825
 20
-27.1
 70
     8
  0
VERTEX
  8
ガラス
 10
-32.875
 20
-27.1
 70
     8
  0
VERTEX
  8
ガラス
 10
-32.925
 20
-27.125
 70
     8
  0
VERTEX
  8
ガラス
 10
-32.95
 20
-27.125
 70
     8
  0
VERTEX
  8
ガラス
 10
-33.0
 20
-27.125
 70
     8
  0
VERTEX
  8
ガラス
 10
-33.05
 20
-27.125
 70
     8
  0
VERTEX
  8
ガラス
 10
-33.1
 20
-27.15
 70
     8
  0
VERTEX
  8
ガラス
 10
-33.125
 20
-27.15
 70
     8
  0
VERTEX
  8
ガラス
 10
-33.175
 20
-27.15
 70
     8
  0
VERTEX
  8
ガラス
 10
-33.225
 20
-27.175
 70
     8
  0
VERTEX
  8
ガラス
 10
-33.25
 20
-27.175
 70
     8
  0
VERTEX
  8
ガラス
 10
-33.3
 20
-27.2
 70
     8
  0
VERTEX
  8
ガラス
 10
-33.325
 20
-27.2
 70
     8
  0
VERTEX
  8
ガラス
 10
-33.375
 20
-27.225
 70
     8
  0
VERTEX
  8
ガラス
 10
-33.425
 20
-27.225
 70
     8
  0
VERTEX
  8
ガラス
 10
-33.45
 20
-27.25
 70
     8
  0
VERTEX
  8
ガラス
 10
-33.5
 20
-27.25
 70
     8
  0
VERTEX
  8
ガラス
 10
-33.55
 20
-27.275
 70
     8
  0
VERTEX
  8
ガラス
 10
-33.575
 20
-27.275
 70
     8
  0
VERTEX
  8
ガラス
 10
-33.625
 20
-27.3
 70
     8
  0
VERTEX
  8
ガラス
 10
-33.65
 20
-27.3
 70
     8
  0
VERTEX
  8
ガラス
 10
-33.7
 20
-27.325
 70
     8
  0
VERTEX
  8
ガラス
 10
-33.75
 20
-27.35
 70
     8
  0
VERTEX
  8
ガラス
 10
-33.775
 20
-27.35
 70
     8
  0
VERTEX
  8
ガラス
 10
-33.825
 20
-27.375
 70
     8
  0
VERTEX
  8
ガラス
 10
-33.875
 20
-27.4
 70
     8
  0
VERTEX
  8
ガラス
 10
-33.9
 20
-27.4
 70
     8
  0
VERTEX
  8
ガラス
 10
-33.95
 20
-27.425
 70
     8
  0
VERTEX
  8
ガラス
 10
-33.975
 20
-27.425
 70
     8
  0
SEQEND
  0
ARC
  8
ガラス
  6
CONTINUOUS
 10
-34.213067
 20
-26.79991
 40
0.668594
 50
111.203091
 51
291.203091
  0
ENDBLK
  0
BLOCK
  2
*GRP_0374
 70
    65
 10
0.0
 20
0.0
  0
POLYLINE
  8
ガラス
  6
CONTINUOUS
 66
     1
 70
     4
  0
VERTEX
  8
ガラス
 10
-39.425
 20
-34.3
 70
     8
  0
VERTEX
  8
ガラス
 10
-39.4
 20
-34.225
 70
     8
  0
VERTEX
  8
ガラス
 10
-39.375
 20
-34.175
 70
     8
  0
VERTEX
  8
ガラス
 10
-39.35
 20
-34.1
 70
     8
  0
VERTEX
  8
ガラス
 10
-39.35
 20
-34.05
 70
     8
  0
VERTEX
  8
ガラス
 10
-39.325
 20
-33.975
 70
     8
  0
VERTEX
  8
ガラス
 10
-39.3
 20
-33.925
 70
     8
  0
VERTEX
  8
ガラス
 10
-39.275
 20
-33.85
 70
     8
  0
VERTEX
  8
ガラス
 10
-39.275
 20
-33.8
 70
     8
  0
VERTEX
  8
ガラス
 10
-39.25
 20
-33.75
 70
     8
  0
VERTEX
  8
ガラス
 10
-39.225
 20
-33.675
 70
     8
  0
VERTEX
  8
ガラス
 10
-39.2
 20
-33.625
 70
     8
  0
VERTEX
  8
ガラス
 10
-39.175
 20
-33.575
 70
     8
  0
VERTEX
  8
ガラス
 10
-39.15
 20
-33.525
 70
     8
  0
VERTEX
  8
ガラス
 10
-39.125
 20
-33.45
 70
     8
  0
VERTEX
  8
ガラス
 10
-39.1
 20
-33.4
 70
     8
  0
VERTEX
  8
ガラス
 10
-39.05
 20
-33.35
 70
     8
  0
VERTEX
  8
ガラス
 10
-39.025
 20
-33.3
 70
     8
  0
VERTEX
  8
ガラス
 10
-39.0
 20
-33.25
 70
     8
  0
VERTEX
  8
ガラス
 10
-38.95
 20
-33.225
 70
     8
  0
VERTEX
  8
ガラス
 10
-38.925
 20
-33.175
 70
     8
  0
VERTEX
  8
ガラス
 10
-38.875
 20
-33.125
 70
     8
  0
VERTEX
  8
ガラス
 10
-38.85
 20
-33.1
 70
     8
  0
VERTEX
  8
ガラス
 10
-38.8
 20
-33.05
 70
     8
  0
VERTEX
  8
ガラス
 10
-38.75
 20
-33.025
 70
     8
  0
VERTEX
  8
ガラス
 10
-38.7
 20
-32.975
 70
     8
  0
VERTEX
  8
ガラス
 10
-38.65
 20
-32.95
 70
     8
  0
VERTEX
  8
ガラス
 10
-38.6
 20
-32.925
 70
     8
  0
VERTEX
  8
ガラス
 10
-38.55
 20
-32.9
 70
     8
  0
VERTEX
  8
ガラス
 10
-38.5
 20
-32.85
 70
     8
  0
VERTEX
  8
ガラス
 10
-38.425
 20
-32.825
 70
     8
  0
VERTEX
  8
ガラス
 10
-38.375
 20
-32.8
 70
     8
  0
VERTEX
  8
ガラス
 10
-38.325
 20
-32.775
 70
     8
  0
VERTEX
  8
ガラス
 10
-38.275
 20
-32.75
 70
     8
  0
VERTEX
  8
ガラス
 10
-38.2
 20
-32.725
 70
     8
  0
VERTEX
  8
ガラス
 10
-38.15
 20
-32.725
 70
     8
  0
VERTEX
  8
ガラス
 10
-38.075
 20
-32.7
 70
     8
  0
VERTEX
  8
ガラス
 10
-38.025
 20
-32.675
 70
     8
  0
VERTEX
  8
ガラス
 10
-37.975
 20
-32.65
 70
     8
  0
VERTEX
  8
ガラス
 10
-37.9
 20
-32.625
 70
     8
  0
VERTEX
  8
ガラス
 10
-37.85
 20
-32.6
 70
     8
  0
SEQEND
  0
POLYLINE
  8
ガラス
  6
CONTINUOUS
 66
     1
 70
     4
  0
VERTEX
  8
ガラス
 10
-37.85
 20
-32.6
 70
     8
  0
VERTEX
  8
ガラス
 10
-37.85
 20
-32.65
 70
     8
  0
VERTEX
  8
ガラス
 10
-37.875
 20
-32.7
 70
     8
  0
VERTEX
  8
ガラス
 10
-37.875
 20
-32.725
 70
     8
  0
VERTEX
  8
ガラス
 10
-37.875
 20
-32.775
 70
     8
  0
VERTEX
  8
ガラス
 10
-37.9
 20
-32.825
 70
     8
  0
VERTEX
  8
ガラス
 10
-37.9
 20
-32.85
 70
     8
  0
VERTEX
  8
ガラス
 10
-37.925
 20
-32.9
 70
     8
  0
VERTEX
  8
ガラス
 10
-37.925
 20
-32.95
 70
     8
  0
VERTEX
  8
ガラス
 10
-37.95
 20
-32.975
 70
     8
  0
VERTEX
  8
ガラス
 10
-37.95
 20
-33.025
 70
     8
  0
VERTEX
  8
ガラス
 10
-37.975
 20
-33.075
 70
     8
  0
VERTEX
  8
ガラス
 10
-37.975
 20
-33.1
 70
     8
  0
VERTEX
  8
ガラス
 10
-37.975
 20
-33.15
 70
     8
  0
VERTEX
  8
ガラス
 10
-38.0
 20
-33.2
 70
     8
  0
VERTEX
  8
ガラス
 10
-38.0
 20
-33.225
 70
     8
  0
VERTEX
  8
ガラス
 10
-38.0
 20
-33.275
 70
     8
  0
VERTEX
  8
ガラス
 10
-38.025
 20
-33.325
 70
     8
  0
VERTEX
  8
ガラス
 10
-38.025
 20
-33.35
 70
     8
  0
VERTEX
  8
ガラス
 10
-38.025
 20
-33.4
 70
     8
  0
VERTEX
  8
ガラス
 10
-38.05
 20
-33.45
 70
     8
  0
VERTEX
  8
ガラス
 10
-38.05
 20
-33.475
 70
     8
  0
VERTEX
  8
ガラス
 10
-38.05
 20
-33.525
 70
     8
  0
VERTEX
  8
ガラス
 10
-38.05
 20
-33.575
 70
     8
  0
VERTEX
  8
ガラス
 10
-38.05
 20
-33.6
 70
     8
  0
VERTEX
  8
ガラス
 10
-38.075
 20
-33.65
 70
     8
  0
VERTEX
  8
ガラス
 10
-38.075
 20
-33.7
 70
     8
  0
VERTEX
  8
ガラス
 10
-38.075
 20
-33.75
 70
     8
  0
VERTEX
  8
ガラス
 10
-38.075
 20
-33.775
 70
     8
  0
VERTEX
  8
ガラス
 10
-38.075
 20
-33.825
 70
     8
  0
VERTEX
  8
ガラス
 10
-38.075
 20
-33.875
 70
     8
  0
VERTEX
  8
ガラス
 10
-38.075
 20
-33.9
 70
     8
  0
VERTEX
  8
ガラス
 10
-38.075
 20
-33.95
 70
     8
  0
VERTEX
  8
ガラス
 10
-38.075
 20
-34.0
 70
     8
  0
VERTEX
  8
ガラス
 10
-38.075
 20
-34.05
 70
     8
  0
VERTEX
  8
ガラス
 10
-38.075
 20
-34.075
 70
     8
  0
VERTEX
  8
ガラス
 10
-38.075
 20
-34.125
 70
     8
  0
VERTEX
  8
ガラス
 10
-38.075
 20
-34.175
 70
     8
  0
VERTEX
  8
ガラス
 10
-38.075
 20
-34.2
 70
     8
  0
VERTEX
  8
ガラス
 10
-38.075
 20
-34.25
 70
     8
  0
VERTEX
  8
ガラス
 10
-38.075
 20
-34.3
 70
     8
  0
SEQEND
  0
ARC
  8
ガラス
  6
CONTINUOUS
 10
-38.735147
 20
-34.285272
 40
0.668594
 50
180.0
 51
360.0
  0
ENDBLK
  0
BLOCK
  2
*GRP_0375
 70
    65
 10
0.0
 20
0.0
  0
POLYLINE
  8
ガラス
  6
CONTINUOUS
 66
     1
 70
     4
  0
VERTEX
  8
ガラス
 10
-39.425
 20
-48.525
 70
     8
  0
VERTEX
  8
ガラス
 10
-39.4
 20
-48.45
 70
     8
  0
VERTEX
  8
ガラス
 10
-39.375
 20
-48.375
 70
     8
  0
VERTEX
  8
ガラス
 10
-39.35
 20
-48.325
 70
     8
  0
VERTEX
  8
ガラス
 10
-39.35
 20
-48.25
 70
     8
  0
VERTEX
  8
ガラス
 10
-39.325
 20
-48.2
 70
     8
  0
VERTEX
  8
ガラス
 10
-39.3
 20
-48.15
 70
     8
  0
VERTEX
  8
ガラス
 10
-39.275
 20
-48.075
 70
     8
  0
VERTEX
  8
ガラス
 10
-39.275
 20
-48.025
 70
     8
  0
VERTEX
  8
ガラス
 10
-39.25
 20
-47.95
 70
     8
  0
VERTEX
  8
ガラス
 10
-39.225
 20
-47.9
 70
     8
  0
VERTEX
  8
ガラス
 10
-39.2
 20
-47.85
 70
     8
  0
VERTEX
  8
ガラス
 10
-39.175
 20
-47.775
 70
     8
  0
VERTEX
  8
ガラス
 10
-39.15
 20
-47.725
 70
     8
  0
VERTEX
  8
ガラス
 10
-39.125
 20
-47.675
 70
     8
  0
VERTEX
  8
ガラス
 10
-39.1
 20
-47.625
 70
     8
  0
VERTEX
  8
ガラス
 10
-39.05
 20
-47.575
 70
     8
  0
VERTEX
  8
ガラス
 10
-39.025
 20
-47.525
 70
     8
  0
VERTEX
  8
ガラス
 10
-39.0
 20
-47.475
 70
     8
  0
VERTEX
  8
ガラス
 10
-38.95
 20
-47.425
 70
     8
  0
VERTEX
  8
ガラス
 10
-38.925
 20
-47.375
 70
     8
  0
VERTEX
  8
ガラス
 10
-38.875
 20
-47.35
 70
     8
  0
VERTEX
  8
ガラス
 10
-38.85
 20
-47.3
 70
     8
  0
VERTEX
  8
ガラス
 10
-38.8
 20
-47.275
 70
     8
  0
VERTEX
  8
ガラス
 10
-38.75
 20
-47.225
 70
     8
  0
VERTEX
  8
ガラス
 10
-38.7
 20
-47.2
 70
     8
  0
VERTEX
  8
ガラス
 10
-38.65
 20
-47.175
 70
     8
  0
VERTEX
  8
ガラス
 10
-38.6
 20
-47.125
 70
     8
  0
VERTEX
  8
ガラス
 10
-38.55
 20
-47.1
 70
     8
  0
VERTEX
  8
ガラス
 10
-38.5
 20
-47.075
 70
     8
  0
VERTEX
  8
ガラス
 10
-38.425
 20
-47.05
 70
     8
  0
VERTEX
  8
ガラス
 10
-38.375
 20
-47.025
 70
     8
  0
VERTEX
  8
ガラス
 10
-38.325
 20
-47.0
 70
     8
  0
VERTEX
  8
ガラス
 10
-38.275
 20
-46.975
 70
     8
  0
VERTEX
  8
ガラス
 10
-38.2
 20
-46.95
 70
     8
  0
VERTEX
  8
ガラス
 10
-38.15
 20
-46.925
 70
     8
  0
VERTEX
  8
ガラス
 10
-38.075
 20
-46.9
 70
     8
  0
VERTEX
  8
ガラス
 10
-38.025
 20
-46.875
 70
     8
  0
VERTEX
  8
ガラス
 10
-37.975
 20
-46.875
 70
     8
  0
VERTEX
  8
ガラス
 10
-37.9
 20
-46.85
 70
     8
  0
VERTEX
  8
ガラス
 10
-37.85
 20
-46.825
 70
     8
  0
SEQEND
  0
POLYLINE
  8
ガラス
  6
CONTINUOUS
 66
     1
 70
     4
  0
VERTEX
  8
ガラス
 10
-37.85
 20
-46.825
 70
     8
  0
VERTEX
  8
ガラス
 10
-37.85
 20
-46.85
 70
     8
  0
VERTEX
  8
ガラス
 10
-37.875
 20
-46.9
 70
     8
  0
VERTEX
  8
ガラス
 10
-37.875
 20
-46.95
 70
     8
  0
VERTEX
  8
ガラス
 10
-37.875
 20
-46.975
 70
     8
  0
VERTEX
  8
ガラス
 10
-37.9
 20
-47.025
 70
     8
  0
VERTEX
  8
ガラス
 10
-37.9
 20
-47.075
 70
     8
  0
VERTEX
  8
ガラス
 10
-37.925
 20
-47.1
 70
     8
  0
VERTEX
  8
ガラス
 10
-37.925
 20
-47.15
 70
     8
  0
VERTEX
  8
ガラス
 10
-37.95
 20
-47.2
 70
     8
  0
VERTEX
  8
ガラス
 10
-37.95
 20
-47.225
 70
     8
  0
VERTEX
  8
ガラス
 10
-37.975
 20
-47.275
 70
     8
  0
VERTEX
  8
ガラス
 10
-37.975
 20
-47.325
 70
     8
  0
VERTEX
  8
ガラス
 10
-37.975
 20
-47.35
 70
     8
  0
VERTEX
  8
ガラス
 10
-38.0
 20
-47.4
 70
     8
  0
VERTEX
  8
ガラス
 10
-38.0
 20
-47.45
 70
     8
  0
VERTEX
  8
ガラス
 10
-38.0
 20
-47.475
 70
     8
  0
VERTEX
  8
ガラス
 10
-38.025
 20
-47.525
 70
     8
  0
VERTEX
  8
ガラス
 10
-38.025
 20
-47.575
 70
     8
  0
VERTEX
  8
ガラス
 10
-38.025
 20
-47.625
 70
     8
  0
VERTEX
  8
ガラス
 10
-38.05
 20
-47.65
 70
     8
  0
VERTEX
  8
ガラス
 10
-38.05
 20
-47.7
 70
     8
  0
VERTEX
  8
ガラス
 10
-38.05
 20
-47.75
 70
     8
  0
VERTEX
  8
ガラス
 10
-38.05
 20
-47.775
 70
     8
  0
VERTEX
  8
ガラス
 10
-38.05
 20
-47.825
 70
     8
  0
VERTEX
  8
ガラス
 10
-38.075
 20
-47.875
 70
     8
  0
VERTEX
  8
ガラス
 10
-38.075
 20
-47.9
 70
     8
  0
VERTEX
  8
ガラス
 10
-38.075
 20
-47.95
 70
     8
  0
VERTEX
  8
ガラス
 10
-38.075
 20
-48.0
 70
     8
  0
VERTEX
  8
ガラス
 10
-38.075
 20
-48.05
 70
     8
  0
VERTEX
  8
ガラス
 10
-38.075
 20
-48.075
 70
     8
  0
VERTEX
  8
ガラス
 10
-38.075
 20
-48.125
 70
     8
  0
VERTEX
  8
ガラス
 10
-38.075
 20
-48.175
 70
     8
  0
VERTEX
  8
ガラス
 10
-38.075
 20
-48.2
 70
     8
  0
VERTEX
  8
ガラス
 10
-38.075
 20
-48.25
 70
     8
  0
VERTEX
  8
ガラス
 10
-38.075
 20
-48.3
 70
     8
  0
VERTEX
  8
ガラス
 10
-38.075
 20
-48.35
 70
     8
  0
VERTEX
  8
ガラス
 10
-38.075
 20
-48.375
 70
     8
  0
VERTEX
  8
ガラス
 10
-38.075
 20
-48.425
 70
     8
  0
VERTEX
  8
ガラス
 10
-38.075
 20
-48.475
 70
     8
  0
VERTEX
  8
ガラス
 10
-38.075
 20
-48.525
 70
     8
  0
SEQEND
  0
ARC
  8
ガラス
  6
CONTINUOUS
 10
-38.735147
 20
-48.500037
 40
0.668594
 50
180.0
 51
360.0
  0
ENDBLK
  0
BLOCK
  2
*GRP_0376
 70
    65
 10
0.0
 20
0.0
  0
POLYLINE
  8
ガラス
  6
CONTINUOUS
 66
     1
 70
     4
  0
VERTEX
  8
ガラス
 10
-57.45
 20
-52.025
 70
     8
  0
VERTEX
  8
ガラス
 10
-57.375
 20
-52.025
 70
     8
  0
VERTEX
  8
ガラス
 10
-57.325
 20
-52.0
 70
     8
  0
VERTEX
  8
ガラス
 10
-57.25
 20
-52.0
 70
     8
  0
VERTEX
  8
ガラス
 10
-57.2
 20
-52.0
 70
     8
  0
VERTEX
  8
ガラス
 10
-57.125
 20
-52.0
 70
     8
  0
VERTEX
  8
ガラス
 10
-57.05
 20
-52.0
 70
     8
  0
VERTEX
  8
ガラス
 10
-57.0
 20
-52.0
 70
     8
  0
VERTEX
  8
ガラス
 10
-56.925
 20
-51.975
 70
     8
  0
VERTEX
  8
ガラス
 10
-56.875
 20
-51.975
 70
     8
  0
VERTEX
  8
ガラス
 10
-56.8
 20
-51.975
 70
     8
  0
VERTEX
  8
ガラス
 10
-56.75
 20
-51.975
 70
     8
  0
VERTEX
  8
ガラス
 10
-56.675
 20
-52.0
 70
     8
  0
VERTEX
  8
ガラス
 10
-56.625
 20
-52.0
 70
     8
  0
VERTEX
  8
ガラス
 10
-56.575
 20
-52.0
 70
     8
  0
VERTEX
  8
ガラス
 10
-56.5
 20
-52.0
 70
     8
  0
VERTEX
  8
ガラス
 10
-56.45
 20
-52.025
 70
     8
  0
VERTEX
  8
ガラス
 10
-56.375
 20
-52.025
 70
     8
  0
VERTEX
  8
ガラス
 10
-56.325
 20
-52.05
 70
     8
  0
VERTEX
  8
ガラス
 10
-56.275
 20
-52.05
 70
     8
  0
VERTEX
  8
ガラス
 10
-56.225
 20
-52.075
 70
     8
  0
VERTEX
  8
ガラス
 10
-56.175
 20
-52.1
 70
     8
  0
VERTEX
  8
ガラス
 10
-56.125
 20
-52.125
 70
     8
  0
VERTEX
  8
ガラス
 10
-56.075
 20
-52.15
 70
     8
  0
VERTEX
  8
ガラス
 10
-56.025
 20
-52.175
 70
     8
  0
VERTEX
  8
ガラス
 10
-55.975
 20
-52.225
 70
     8
  0
VERTEX
  8
ガラス
 10
-55.925
 20
-52.25
 70
     8
  0
VERTEX
  8
ガラス
 10
-55.875
 20
-52.275
 70
     8
  0
VERTEX
  8
ガラス
 10
-55.825
 20
-52.325
 70
     8
  0
VERTEX
  8
ガラス
 10
-55.775
 20
-52.375
 70
     8
  0
VERTEX
  8
ガラス
 10
-55.725
 20
-52.4
 70
     8
  0
VERTEX
  8
ガラス
 10
-55.675
 20
-52.45
 70
     8
  0
VERTEX
  8
ガラス
 10
-55.65
 20
-52.5
 70
     8
  0
VERTEX
  8
ガラス
 10
-55.6
 20
-52.55
 70
     8
  0
VERTEX
  8
ガラス
 10
-55.55
 20
-52.6
 70
     8
  0
VERTEX
  8
ガラス
 10
-55.525
 20
-52.625
 70
     8
  0
VERTEX
  8
ガラス
 10
-55.475
 20
-52.675
 70
     8
  0
VERTEX
  8
ガラス
 10
-55.425
 20
-52.725
 70
     8
  0
VERTEX
  8
ガラス
 10
-55.375
 20
-52.775
 70
     8
  0
VERTEX
  8
ガラス
 10
-55.35
 20
-52.825
 70
     8
  0
VERTEX
  8
ガラス
 10
-55.3
 20
-52.875
 70
     8
  0
SEQEND
  0
POLYLINE
  8
ガラス
  6
CONTINUOUS
 66
     1
 70
     4
  0
VERTEX
  8
ガラス
 10
-55.3
 20
-52.875
 70
     8
  0
VERTEX
  8
ガラス
 10
-55.35
 20
-52.875
 70
     8
  0
VERTEX
  8
ガラス
 10
-55.4
 20
-52.9
 70
     8
  0
VERTEX
  8
ガラス
 10
-55.425
 20
-52.9
 70
     8
  0
VERTEX
  8
ガラス
 10
-55.475
 20
-52.9
 70
     8
  0
VERTEX
  8
ガラス
 10
-55.525
 20
-52.9
 70
     8
  0
VERTEX
  8
ガラス
 10
-55.55
 20
-52.9
 70
     8
  0
VERTEX
  8
ガラス
 10
-55.6
 20
-52.9
 70
     8
  0
VERTEX
  8
ガラス
 10
-55.65
 20
-52.925
 70
     8
  0
VERTEX
  8
ガラス
 10
-55.7
 20
-52.925
 70
     8
  0
VERTEX
  8
ガラス
 10
-55.725
 20
-52.925
 70
     8
  0
VERTEX
  8
ガラス
 10
-55.775
 20
-52.925
 70
     8
  0
VERTEX
  8
ガラス
 10
-55.825
 20
-52.925
 70
     8
  0
VERTEX
  8
ガラス
 10
-55.85
 20
-52.95
 70
     8
  0
VERTEX
  8
ガラス
 10
-55.9
 20
-52.95
 70
     8
  0
VERTEX
  8
ガラス
 10
-55.95
 20
-52.95
 70
     8
  0
VERTEX
  8
ガラス
 10
-55.975
 20
-52.975
 70
     8
  0
VERTEX
  8
ガラス
 10
-56.025
 20
-52.975
 70
     8
  0
VERTEX
  8
ガラス
 10
-56.075
 20
-52.975
 70
     8
  0
VERTEX
  8
ガラス
 10
-56.1
 20
-53.0
 70
     8
  0
VERTEX
  8
ガラス
 10
-56.15
 20
-53.0
 70
     8
  0
VERTEX
  8
ガラス
 10
-56.2
 20
-53.0
 70
     8
  0
VERTEX
  8
ガラス
 10
-56.225
 20
-53.025
 70
     8
  0
VERTEX
  8
ガラス
 10
-56.275
 20
-53.025
 70
     8
  0
VERTEX
  8
ガラス
 10
-56.325
 20
-53.05
 70
     8
  0
VERTEX
  8
ガラス
 10
-56.35
 20
-53.05
 70
     8
  0
VERTEX
  8
ガラス
 10
-56.4
 20
-53.075
 70
     8
  0
VERTEX
  8
ガラス
 10
-56.45
 20
-53.075
 70
     8
  0
VERTEX
  8
ガラス
 10
-56.475
 20
-53.1
 70
     8
  0
VERTEX
  8
ガラス
 10
-56.525
 20
-53.1
 70
     8
  0
VERTEX
  8
ガラス
 10
-56.575
 20
-53.125
 70
     8
  0
VERTEX
  8
ガラス
 10
-56.6
 20
-53.125
 70
     8
  0
VERTEX
  8
ガラス
 10
-56.65
 20
-53.15
 70
     8
  0
VERTEX
  8
ガラス
 10
-56.675
 20
-53.15
 70
     8
  0
VERTEX
  8
ガラス
 10
-56.725
 20
-53.175
 70
     8
  0
VERTEX
  8
ガラス
 10
-56.775
 20
-53.2
 70
     8
  0
VERTEX
  8
ガラス
 10
-56.8
 20
-53.2
 70
     8
  0
VERTEX
  8
ガラス
 10
-56.85
 20
-53.225
 70
     8
  0
VERTEX
  8
ガラス
 10
-56.875
 20
-53.25
 70
     8
  0
VERTEX
  8
ガラス
 10
-56.925
 20
-53.25
 70
     8
  0
VERTEX
  8
ガラス
 10
-56.975
 20
-53.275
 70
     8
  0
SEQEND
  0
ARC
  8
ガラス
  6
CONTINUOUS
 10
-57.195361
 20
-52.634963
 40
0.668594
 50
111.203091
 51
291.203091
  0
ENDBLK
  0
BLOCK
  2
*GRP_0377
 70
    65
 10
0.0
 20
0.0
  0
POLYLINE
  8
ガラス
  6
CONTINUOUS
 66
     1
 70
     4
  0
VERTEX
  8
ガラス
 10
-50.225
 20
-51.025
 70
     8
  0
VERTEX
  8
ガラス
 10
-50.15
 20
-51.0
 70
     8
  0
VERTEX
  8
ガラス
 10
-50.1
 20
-51.0
 70
     8
  0
VERTEX
  8
ガラス
 10
-50.025
 20
-51.0
 70
     8
  0
VERTEX
  8
ガラス
 10
-49.95
 20
-51.0
 70
     8
  0
VERTEX
  8
ガラス
 10
-49.9
 20
-50.975
 70
     8
  0
VERTEX
  8
ガラス
 10
-49.825
 20
-50.975
 70
     8
  0
VERTEX
  8
ガラス
 10
-49.775
 20
-50.975
 70
     8
  0
VERTEX
  8
ガラス
 10
-49.7
 20
-50.975
 70
     8
  0
VERTEX
  8
ガラス
 10
-49.65
 20
-50.975
 70
     8
  0
VERTEX
  8
ガラス
 10
-49.575
 20
-50.975
 70
     8
  0
VERTEX
  8
ガラス
 10
-49.525
 20
-50.975
 70
     8
  0
VERTEX
  8
ガラス
 10
-49.45
 20
-50.975
 70
     8
  0
VERTEX
  8
ガラス
 10
-49.4
 20
-50.975
 70
     8
  0
VERTEX
  8
ガラス
 10
-49.325
 20
-51.0
 70
     8
  0
VERTEX
  8
ガラス
 10
-49.275
 20
-51.0
 70
     8
  0
VERTEX
  8
ガラス
 10
-49.225
 20
-51.0
 70
     8
  0
VERTEX
  8
ガラス
 10
-49.15
 20
-51.025
 70
     8
  0
VERTEX
  8
ガラス
 10
-49.1
 20
-51.025
 70
     8
  0
VERTEX
  8
ガラス
 10
-49.05
 20
-51.05
 70
     8
  0
VERTEX
  8
ガラス
 10
-49.0
 20
-51.075
 70
     8
  0
VERTEX
  8
ガラス
 10
-48.95
 20
-51.1
 70
     8
  0
VERTEX
  8
ガラス
 10
-48.875
 20
-51.125
 70
     8
  0
VERTEX
  8
ガラス
 10
-48.825
 20
-51.15
 70
     8
  0
VERTEX
  8
ガラス
 10
-48.775
 20
-51.175
 70
     8
  0
VERTEX
  8
ガラス
 10
-48.725
 20
-51.2
 70
     8
  0
VERTEX
  8
ガラス
 10
-48.675
 20
-51.25
 70
     8
  0
VERTEX
  8
ガラス
 10
-48.65
 20
-51.275
 70
     8
  0
VERTEX
  8
ガラス
 10
-48.6
 20
-51.325
 70
     8
  0
VERTEX
  8
ガラス
 10
-48.55
 20
-51.35
 70
     8
  0
VERTEX
  8
ガラス
 10
-48.5
 20
-51.4
 70
     8
  0
VERTEX
  8
ガラス
 10
-48.45
 20
-51.45
 70
     8
  0
VERTEX
  8
ガラス
 10
-48.425
 20
-51.475
 70
     8
  0
VERTEX
  8
ガラス
 10
-48.375
 20
-51.525
 70
     8
  0
VERTEX
  8
ガラス
 10
-48.325
 20
-51.575
 70
     8
  0
VERTEX
  8
ガラス
 10
-48.275
 20
-51.625
 70
     8
  0
VERTEX
  8
ガラス
 10
-48.25
 20
-51.675
 70
     8
  0
VERTEX
  8
ガラス
 10
-48.2
 20
-51.725
 70
     8
  0
VERTEX
  8
ガラス
 10
-48.15
 20
-51.775
 70
     8
  0
VERTEX
  8
ガラス
 10
-48.125
 20
-51.825
 70
     8
  0
VERTEX
  8
ガラス
 10
-48.075
 20
-51.875
 70
     8
  0
SEQEND
  0
POLYLINE
  8
ガラス
  6
CONTINUOUS
 66
     1
 70
     4
  0
VERTEX
  8
ガラス
 10
-48.075
 20
-51.875
 70
     8
  0
VERTEX
  8
ガラス
 10
-48.125
 20
-51.875
 70
     8
  0
VERTEX
  8
ガラス
 10
-48.15
 20
-51.875
 70
     8
  0
VERTEX
  8
ガラス
 10
-48.2
 20
-51.875
 70
     8
  0
VERTEX
  8
ガラス
 10
-48.25
 20
-51.9
 70
     8
  0
VERTEX
  8
ガラス
 10
-48.3
 20
-51.9
 70
     8
  0
VERTEX
  8
ガラス
 10
-48.325
 20
-51.9
 70
     8
  0
VERTEX
  8
ガラス
 10
-48.375
 20
-51.9
 70
     8
  0
VERTEX
  8
ガラス
 10
-48.425
 20
-51.9
 70
     8
  0
VERTEX
  8
ガラス
 10
-48.45
 20
-51.9
 70
     8
  0
VERTEX
  8
ガラス
 10
-48.5
 20
-51.925
 70
     8
  0
VERTEX
  8
ガラス
 10
-48.55
 20
-51.925
 70
     8
  0
VERTEX
  8
ガラス
 10
-48.575
 20
-51.925
 70
     8
  0
VERTEX
  8
ガラス
 10
-48.625
 20
-51.925
 70
     8
  0
VERTEX
  8
ガラス
 10
-48.675
 20
-51.95
 70
     8
  0
VERTEX
  8
ガラス
 10
-48.725
 20
-51.95
 70
     8
  0
VERTEX
  8
ガラス
 10
-48.75
 20
-51.95
 70
     8
  0
VERTEX
  8
ガラス
 10
-48.8
 20
-51.95
 70
     8
  0
VERTEX
  8
ガラス
 10
-48.85
 20
-51.975
 70
     8
  0
VERTEX
  8
ガラス
 10
-48.875
 20
-51.975
 70
     8
  0
VERTEX
  8
ガラス
 10
-48.925
 20
-51.975
 70
     8
  0
VERTEX
  8
ガラス
 10
-48.975
 20
-52.0
 70
     8
  0
VERTEX
  8
ガラス
 10
-49.0
 20
-52.0
 70
     8
  0
VERTEX
  8
ガラス
 10
-49.05
 20
-52.025
 70
     8
  0
VERTEX
  8
ガラス
 10
-49.1
 20
-52.025
 70
     8
  0
VERTEX
  8
ガラス
 10
-49.125
 20
-52.05
 70
     8
  0
VERTEX
  8
ガラス
 10
-49.175
 20
-52.05
 70
     8
  0
VERTEX
  8
ガラス
 10
-49.225
 20
-52.075
 70
     8
  0
VERTEX
  8
ガラス
 10
-49.25
 20
-52.075
 70
     8
  0
VERTEX
  8
ガラス
 10
-49.3
 20
-52.1
 70
     8
  0
VERTEX
  8
ガラス
 10
-49.325
 20
-52.1
 70
     8
  0
VERTEX
  8
ガラス
 10
-49.375
 20
-52.125
 70
     8
  0
VERTEX
  8
ガラス
 10
-49.425
 20
-52.125
 70
     8
  0
VERTEX
  8
ガラス
 10
-49.45
 20
-52.15
 70
     8
  0
VERTEX
  8
ガラス
 10
-49.5
 20
-52.175
 70
     8
  0
VERTEX
  8
ガラス
 10
-49.525
 20
-52.175
 70
     8
  0
VERTEX
  8
ガラス
 10
-49.575
 20
-52.2
 70
     8
  0
VERTEX
  8
ガラス
 10
-49.625
 20
-52.225
 70
     8
  0
VERTEX
  8
ガラス
 10
-49.65
 20
-52.225
 70
     8
  0
VERTEX
  8
ガラス
 10
-49.7
 20
-52.25
 70
     8
  0
VERTEX
  8
ガラス
 10
-49.725
 20
-52.25
 70
     8
  0
SEQEND
  0
ARC
  8
ガラス
  6
CONTINUOUS
 10
-49.966143
 20
-51.624671
 40
0.668594
 50
111.203091
 51
291.203091
  0
ENDBLK
  0
BLOCK
  2
*GRP_0378
 70
    65
 10
0.0
 20
0.0
  0
POLYLINE
  8
ガラス
  6
CONTINUOUS
 66
     1
 70
     4
  0
VERTEX
  8
ガラス
 10
-39.4
 20
18.7
 70
     8
  0
VERTEX
  8
ガラス
 10
-39.4
 20
18.775
 70
     8
  0
VERTEX
  8
ガラス
 10
-39.375
 20
18.825
 70
     8
  0
VERTEX
  8
ガラス
 10
-39.35
 20
18.9
 70
     8
  0
VERTEX
  8
ガラス
 10
-39.35
 20
18.95
 70
     8
  0
VERTEX
  8
ガラス
 10
-39.325
 20
19.025
 70
     8
  0
VERTEX
  8
ガラス
 10
-39.3
 20
19.075
 70
     8
  0
VERTEX
  8
ガラス
 10
-39.275
 20
19.15
 70
     8
  0
VERTEX
  8
ガラス
 10
-39.25
 20
19.2
 70
     8
  0
VERTEX
  8
ガラス
 10
-39.25
 20
19.275
 70
     8
  0
VERTEX
  8
ガラス
 10
-39.225
 20
19.325
 70
     8
  0
VERTEX
  8
ガラス
 10
-39.2
 20
19.375
 70
     8
  0
VERTEX
  8
ガラス
 10
-39.175
 20
19.45
 70
     8
  0
VERTEX
  8
ガラス
 10
-39.15
 20
19.5
 70
     8
  0
VERTEX
  8
ガラス
 10
-39.125
 20
19.55
 70
     8
  0
VERTEX
  8
ガラス
 10
-39.075
 20
19.6
 70
     8
  0
VERTEX
  8
ガラス
 10
-39.05
 20
19.65
 70
     8
  0
VERTEX
  8
ガラス
 10
-39.025
 20
19.7
 70
     8
  0
VERTEX
  8
ガラス
 10
-39.0
 20
19.75
 70
     8
  0
VERTEX
  8
ガラス
 10
-38.95
 20
19.8
 70
     8
  0
VERTEX
  8
ガラス
 10
-38.925
 20
19.825
 70
     8
  0
VERTEX
  8
ガラス
 10
-38.875
 20
19.875
 70
     8
  0
VERTEX
  8
ガラス
 10
-38.825
 20
19.925
 70
     8
  0
VERTEX
  8
ガラス
 10
-38.8
 20
19.95
 70
     8
  0
VERTEX
  8
ガラス
 10
-38.75
 20
20.0
 70
     8
  0
VERTEX
  8
ガラス
 10
-38.7
 20
20.025
 70
     8
  0
VERTEX
  8
ガラス
 10
-38.65
 20
20.05
 70
     8
  0
VERTEX
  8
ガラス
 10
-38.6
 20
20.1
 70
     8
  0
VERTEX
  8
ガラス
 10
-38.55
 20
20.125
 70
     8
  0
VERTEX
  8
ガラス
 10
-38.475
 20
20.15
 70
     8
  0
VERTEX
  8
ガラス
 10
-38.425
 20
20.175
 70
     8
  0
VERTEX
  8
ガラス
 10
-38.375
 20
20.2
 70
     8
  0
VERTEX
  8
ガラス
 10
-38.325
 20
20.225
 70
     8
  0
VERTEX
  8
ガラス
 10
-38.25
 20
20.25
 70
     8
  0
VERTEX
  8
ガラス
 10
-38.2
 20
20.275
 70
     8
  0
VERTEX
  8
ガラス
 10
-38.15
 20
20.3
 70
     8
  0
VERTEX
  8
ガラス
 10
-38.075
 20
20.325
 70
     8
  0
VERTEX
  8
ガラス
 10
-38.025
 20
20.35
 70
     8
  0
VERTEX
  8
ガラス
 10
-37.95
 20
20.35
 70
     8
  0
VERTEX
  8
ガラス
 10
-37.9
 20
20.375
 70
     8
  0
VERTEX
  8
ガラス
 10
-37.825
 20
20.4
 70
     8
  0
SEQEND
  0
POLYLINE
  8
ガラス
  6
CONTINUOUS
 66
     1
 70
     4
  0
VERTEX
  8
ガラス
 10
-37.825
 20
20.4
 70
     8
  0
VERTEX
  8
ガラス
 10
-37.85
 20
20.35
 70
     8
  0
VERTEX
  8
ガラス
 10
-37.85
 20
20.325
 70
     8
  0
VERTEX
  8
ガラス
 10
-37.875
 20
20.275
 70
     8
  0
VERTEX
  8
ガラス
 10
-37.875
 20
20.225
 70
     8
  0
VERTEX
  8
ガラス
 10
-37.9
 20
20.2
 70
     8
  0
VERTEX
  8
ガラス
 10
-37.9
 20
20.15
 70
     8
  0
VERTEX
  8
ガラス
 10
-37.925
 20
20.1
 70
     8
  0
VERTEX
  8
ガラス
 10
-37.925
 20
20.075
 70
     8
  0
VERTEX
  8
ガラス
 10
-37.95
 20
20.025
 70
     8
  0
VERTEX
  8
ガラス
 10
-37.95
 20
19.975
 70
     8
  0
VERTEX
  8
ガラス
 10
-37.95
 20
19.95
 70
     8
  0
VERTEX
  8
ガラス
 10
-37.975
 20
19.9
 70
     8
  0
VERTEX
  8
ガラス
 10
-37.975
 20
19.85
 70
     8
  0
VERTEX
  8
ガラス
 10
-38.0
 20
19.825
 70
     8
  0
VERTEX
  8
ガラス
 10
-38.0
 20
19.775
 70
     8
  0
VERTEX
  8
ガラス
 10
-38.0
 20
19.725
 70
     8
  0
VERTEX
  8
ガラス
 10
-38.025
 20
19.7
 70
     8
  0
VERTEX
  8
ガラス
 10
-38.025
 20
19.65
 70
     8
  0
VERTEX
  8
ガラス
 10
-38.025
 20
19.6
 70
     8
  0
VERTEX
  8
ガラス
 10
-38.025
 20
19.575
 70
     8
  0
VERTEX
  8
ガラス
 10
-38.05
 20
19.525
 70
     8
  0
VERTEX
  8
ガラス
 10
-38.05
 20
19.475
 70
     8
  0
VERTEX
  8
ガラス
 10
-38.05
 20
19.45
 70
     8
  0
VERTEX
  8
ガラス
 10
-38.05
 20
19.4
 70
     8
  0
VERTEX
  8
ガラス
 10
-38.05
 20
19.35
 70
     8
  0
VERTEX
  8
ガラス
 10
-38.05
 20
19.3
 70
     8
  0
VERTEX
  8
ガラス
 10
-38.075
 20
19.275
 70
     8
  0
VERTEX
  8
ガラス
 10
-38.075
 20
19.225
 70
     8
  0
VERTEX
  8
ガラス
 10
-38.075
 20
19.175
 70
     8
  0
VERTEX
  8
ガラス
 10
-38.075
 20
19.15
 70
     8
  0
VERTEX
  8
ガラス
 10
-38.075
 20
19.1
 70
     8
  0
VERTEX
  8
ガラス
 10
-38.075
 20
19.05
 70
     8
  0
VERTEX
  8
ガラス
 10
-38.075
 20
19.0
 70
     8
  0
VERTEX
  8
ガラス
 10
-38.075
 20
18.975
 70
     8
  0
VERTEX
  8
ガラス
 10
-38.075
 20
18.925
 70
     8
  0
VERTEX
  8
ガラス
 10
-38.075
 20
18.875
 70
     8
  0
VERTEX
  8
ガラス
 10
-38.075
 20
18.85
 70
     8
  0
VERTEX
  8
ガラス
 10
-38.075
 20
18.8
 70
     8
  0
VERTEX
  8
ガラス
 10
-38.075
 20
18.75
 70
     8
  0
VERTEX
  8
ガラス
 10
-38.075
 20
18.7
 70
     8
  0
SEQEND
  0
ARC
  8
ガラス
  6
CONTINUOUS
 10
-38.729338
 20
18.723173
 40
0.668594
 50
180.0
 51
360.0
  0
ENDBLK
  0
BLOCK
  2
*GRP_0379
 70
    65
 10
0.0
 20
0.0
  0
POLYLINE
  8
ガラス
  6
CONTINUOUS
 66
     1
 70
     4
  0
VERTEX
  8
ガラス
 10
-39.4
 20
-0.1
 70
     8
  0
VERTEX
  8
ガラス
 10
-39.4
 20
-0.025
 70
     8
  0
VERTEX
  8
ガラス
 10
-39.375
 20
0.025
 70
     8
  0
VERTEX
  8
ガラス
 10
-39.35
 20
0.1
 70
     8
  0
VERTEX
  8
ガラス
 10
-39.35
 20
0.15
 70
     8
  0
VERTEX
  8
ガラス
 10
-39.325
 20
0.225
 70
     8
  0
VERTEX
  8
ガラス
 10
-39.3
 20
0.275
 70
     8
  0
VERTEX
  8
ガラス
 10
-39.275
 20
0.35
 70
     8
  0
VERTEX
  8
ガラス
 10
-39.25
 20
0.4
 70
     8
  0
VERTEX
  8
ガラス
 10
-39.25
 20
0.45
 70
     8
  0
VERTEX
  8
ガラス
 10
-39.225
 20
0.525
 70
     8
  0
VERTEX
  8
ガラス
 10
-39.2
 20
0.575
 70
     8
  0
VERTEX
  8
ガラス
 10
-39.175
 20
0.625
 70
     8
  0
VERTEX
  8
ガラス
 10
-39.15
 20
0.7
 70
     8
  0
VERTEX
  8
ガラス
 10
-39.125
 20
0.75
 70
     8
  0
VERTEX
  8
ガラス
 10
-39.075
 20
0.8
 70
     8
  0
VERTEX
  8
ガラス
 10
-39.05
 20
0.85
 70
     8
  0
VERTEX
  8
ガラス
 10
-39.025
 20
0.9
 70
     8
  0
VERTEX
  8
ガラス
 10
-39.0
 20
0.95
 70
     8
  0
VERTEX
  8
ガラス
 10
-38.95
 20
1.0
 70
     8
  0
VERTEX
  8
ガラス
 10
-38.925
 20
1.025
 70
     8
  0
VERTEX
  8
ガラス
 10
-38.875
 20
1.075
 70
     8
  0
VERTEX
  8
ガラス
 10
-38.825
 20
1.125
 70
     8
  0
VERTEX
  8
ガラス
 10
-38.8
 20
1.15
 70
     8
  0
VERTEX
  8
ガラス
 10
-38.75
 20
1.175
 70
     8
  0
VERTEX
  8
ガラス
 10
-38.7
 20
1.225
 70
     8
  0
VERTEX
  8
ガラス
 10
-38.65
 20
1.25
 70
     8
  0
VERTEX
  8
ガラス
 10
-38.6
 20
1.275
 70
     8
  0
VERTEX
  8
ガラス
 10
-38.55
 20
1.325
 70
     8
  0
VERTEX
  8
ガラス
 10
-38.475
 20
1.35
 70
     8
  0
VERTEX
  8
ガラス
 10
-38.425
 20
1.375
 70
     8
  0
VERTEX
  8
ガラス
 10
-38.375
 20
1.4
 70
     8
  0
VERTEX
  8
ガラス
 10
-38.325
 20
1.425
 70
     8
  0
VERTEX
  8
ガラス
 10
-38.25
 20
1.45
 70
     8
  0
VERTEX
  8
ガラス
 10
-38.2
 20
1.475
 70
     8
  0
VERTEX
  8
ガラス
 10
-38.15
 20
1.5
 70
     8
  0
VERTEX
  8
ガラス
 10
-38.075
 20
1.5
 70
     8
  0
VERTEX
  8
ガラス
 10
-38.025
 20
1.525
 70
     8
  0
VERTEX
  8
ガラス
 10
-37.95
 20
1.55
 70
     8
  0
VERTEX
  8
ガラス
 10
-37.9
 20
1.575
 70
     8
  0
VERTEX
  8
ガラス
 10
-37.825
 20
1.6
 70
     8
  0
SEQEND
  0
POLYLINE
  8
ガラス
  6
CONTINUOUS
 66
     1
 70
     4
  0
VERTEX
  8
ガラス
 10
-37.825
 20
1.6
 70
     8
  0
VERTEX
  8
ガラス
 10
-37.85
 20
1.55
 70
     8
  0
VERTEX
  8
ガラス
 10
-37.85
 20
1.525
 70
     8
  0
VERTEX
  8
ガラス
 10
-37.875
 20
1.475
 70
     8
  0
VERTEX
  8
ガラス
 10
-37.875
 20
1.425
 70
     8
  0
VERTEX
  8
ガラス
 10
-37.9
 20
1.4
 70
     8
  0
VERTEX
  8
ガラス
 10
-37.9
 20
1.35
 70
     8
  0
VERTEX
  8
ガラス
 10
-37.925
 20
1.3
 70
     8
  0
VERTEX
  8
ガラス
 10
-37.925
 20
1.275
 70
     8
  0
VERTEX
  8
ガラス
 10
-37.95
 20
1.225
 70
     8
  0
VERTEX
  8
ガラス
 10
-37.95
 20
1.175
 70
     8
  0
VERTEX
  8
ガラス
 10
-37.95
 20
1.15
 70
     8
  0
VERTEX
  8
ガラス
 10
-37.975
 20
1.1
 70
     8
  0
VERTEX
  8
ガラス
 10
-37.975
 20
1.05
 70
     8
  0
VERTEX
  8
ガラス
 10
-38.0
 20
1.025
 70
     8
  0
VERTEX
  8
ガラス
 10
-38.0
 20
0.975
 70
     8
  0
VERTEX
  8
ガラス
 10
-38.0
 20
0.925
 70
     8
  0
VERTEX
  8
ガラス
 10
-38.025
 20
0.9
 70
     8
  0
VERTEX
  8
ガラス
 10
-38.025
 20
0.85
 70
     8
  0
VERTEX
  8
ガラス
 10
-38.025
 20
0.8
 70
     8
  0
VERTEX
  8
ガラス
 10
-38.025
 20
0.75
 70
     8
  0
VERTEX
  8
ガラス
 10
-38.05
 20
0.725
 70
     8
  0
VERTEX
  8
ガラス
 10
-38.05
 20
0.675
 70
     8
  0
VERTEX
  8
ガラス
 10
-38.05
 20
0.625
 70
     8
  0
VERTEX
  8
ガラス
 10
-38.05
 20
0.6
 70
     8
  0
VERTEX
  8
ガラス
 10
-38.05
 20
0.55
 70
     8
  0
VERTEX
  8
ガラス
 10
-38.05
 20
0.5
 70
     8
  0
VERTEX
  8
ガラス
 10
-38.075
 20
0.475
 70
     8
  0
VERTEX
  8
ガラス
 10
-38.075
 20
0.425
 70
     8
  0
VERTEX
  8
ガラス
 10
-38.075
 20
0.375
 70
     8
  0
VERTEX
  8
ガラス
 10
-38.075
 20
0.325
 70
     8
  0
VERTEX
  8
ガラス
 10
-38.075
 20
0.3
 70
     8
  0
VERTEX
  8
ガラス
 10
-38.075
 20
0.25
 70
     8
  0
VERTEX
  8
ガラス
 10
-38.075
 20
0.2
 70
     8
  0
VERTEX
  8
ガラス
 10
-38.075
 20
0.175
 70
     8
  0
VERTEX
  8
ガラス
 10
-38.075
 20
0.125
 70
     8
  0
VERTEX
  8
ガラス
 10
-38.075
 20
0.075
 70
     8
  0
VERTEX
  8
ガラス
 10
-38.075
 20
0.025
 70
     8
  0
VERTEX
  8
ガラス
 10
-38.075
 20
0.0
 70
     8
  0
VERTEX
  8
ガラス
 10
-38.075
 20
-0.05
 70
     8
  0
VERTEX
  8
ガラス
 10
-38.075
 20
-0.1
 70
     8
  0
SEQEND
  0
ARC
  8
ガラス
  6
CONTINUOUS
 10
-38.729338
 20
-0.081973
 40
0.668594
 50
180.0
 51
360.0
  0
ENDBLK
  0
BLOCK
  2
*GRP_0380
 70
    65
 10
0.0
 20
0.0
  0
POLYLINE
  8
ガラス
  6
CONTINUOUS
 66
     1
 70
     4
  0
VERTEX
  8
ガラス
 10
-39.4
 20
-17.475
 70
     8
  0
VERTEX
  8
ガラス
 10
-39.4
 20
-17.425
 70
     8
  0
VERTEX
  8
ガラス
 10
-39.375
 20
-17.35
 70
     8
  0
VERTEX
  8
ガラス
 10
-39.35
 20
-17.3
 70
     8
  0
VERTEX
  8
ガラス
 10
-39.35
 20
-17.225
 70
     8
  0
VERTEX
  8
ガラス
 10
-39.325
 20
-17.175
 70
     8
  0
VERTEX
  8
ガラス
 10
-39.3
 20
-17.1
 70
     8
  0
VERTEX
  8
ガラス
 10
-39.275
 20
-17.05
 70
     8
  0
VERTEX
  8
ガラス
 10
-39.25
 20
-16.975
 70
     8
  0
VERTEX
  8
ガラス
 10
-39.25
 20
-16.925
 70
     8
  0
VERTEX
  8
ガラス
 10
-39.225
 20
-16.875
 70
     8
  0
VERTEX
  8
ガラス
 10
-39.2
 20
-16.8
 70
     8
  0
VERTEX
  8
ガラス
 10
-39.175
 20
-16.75
 70
     8
  0
VERTEX
  8
ガラス
 10
-39.15
 20
-16.7
 70
     8
  0
VERTEX
  8
ガラス
 10
-39.125
 20
-16.65
 70
     8
  0
VERTEX
  8
ガラス
 10
-39.075
 20
-16.6
 70
     8
  0
VERTEX
  8
ガラス
 10
-39.05
 20
-16.55
 70
     8
  0
VERTEX
  8
ガラス
 10
-39.025
 20
-16.5
 70
     8
  0
VERTEX
  8
ガラス
 10
-39.0
 20
-16.45
 70
     8
  0
VERTEX
  8
ガラス
 10
-38.95
 20
-16.4
 70
     8
  0
VERTEX
  8
ガラス
 10
-38.925
 20
-16.35
 70
     8
  0
VERTEX
  8
ガラス
 10
-38.875
 20
-16.3
 70
     8
  0
VERTEX
  8
ガラス
 10
-38.825
 20
-16.275
 70
     8
  0
VERTEX
  8
ガラス
 10
-38.8
 20
-16.225
 70
     8
  0
VERTEX
  8
ガラス
 10
-38.75
 20
-16.2
 70
     8
  0
VERTEX
  8
ガラス
 10
-38.7
 20
-16.175
 70
     8
  0
VERTEX
  8
ガラス
 10
-38.65
 20
-16.125
 70
     8
  0
VERTEX
  8
ガラス
 10
-38.6
 20
-16.1
 70
     8
  0
VERTEX
  8
ガラス
 10
-38.55
 20
-16.075
 70
     8
  0
VERTEX
  8
ガラス
 10
-38.475
 20
-16.05
 70
     8
  0
VERTEX
  8
ガラス
 10
-38.425
 20
-16.025
 70
     8
  0
VERTEX
  8
ガラス
 10
-38.375
 20
-16.0
 70
     8
  0
VERTEX
  8
ガラス
 10
-38.325
 20
-15.975
 70
     8
  0
VERTEX
  8
ガラス
 10
-38.25
 20
-15.95
 70
     8
  0
VERTEX
  8
ガラス
 10
-38.2
 20
-15.925
 70
     8
  0
VERTEX
  8
ガラス
 10
-38.15
 20
-15.9
 70
     8
  0
VERTEX
  8
ガラス
 10
-38.075
 20
-15.875
 70
     8
  0
VERTEX
  8
ガラス
 10
-38.025
 20
-15.85
 70
     8
  0
VERTEX
  8
ガラス
 10
-37.95
 20
-15.825
 70
     8
  0
VERTEX
  8
ガラス
 10
-37.9
 20
-15.8
 70
     8
  0
VERTEX
  8
ガラス
 10
-37.825
 20
-15.775
 70
     8
  0
SEQEND
  0
POLYLINE
  8
ガラス
  6
CONTINUOUS
 66
     1
 70
     4
  0
VERTEX
  8
ガラス
 10
-37.825
 20
-15.775
 70
     8
  0
VERTEX
  8
ガラス
 10
-37.85
 20
-15.825
 70
     8
  0
VERTEX
  8
ガラス
 10
-37.85
 20
-15.875
 70
     8
  0
VERTEX
  8
ガラス
 10
-37.875
 20
-15.9
 70
     8
  0
VERTEX
  8
ガラス
 10
-37.875
 20
-15.95
 70
     8
  0
VERTEX
  8
ガラス
 10
-37.9
 20
-16.0
 70
     8
  0
VERTEX
  8
ガラス
 10
-37.9
 20
-16.025
 70
     8
  0
VERTEX
  8
ガラス
 10
-37.925
 20
-16.075
 70
     8
  0
VERTEX
  8
ガラス
 10
-37.925
 20
-16.125
 70
     8
  0
VERTEX
  8
ガラス
 10
-37.95
 20
-16.15
 70
     8
  0
VERTEX
  8
ガラス
 10
-37.95
 20
-16.2
 70
     8
  0
VERTEX
  8
ガラス
 10
-37.95
 20
-16.25
 70
     8
  0
VERTEX
  8
ガラス
 10
-37.975
 20
-16.275
 70
     8
  0
VERTEX
  8
ガラス
 10
-37.975
 20
-16.325
 70
     8
  0
VERTEX
  8
ガラス
 10
-38.0
 20
-16.375
 70
     8
  0
VERTEX
  8
ガラス
 10
-38.0
 20
-16.4
 70
     8
  0
VERTEX
  8
ガラス
 10
-38.0
 20
-16.45
 70
     8
  0
VERTEX
  8
ガラス
 10
-38.025
 20
-16.5
 70
     8
  0
VERTEX
  8
ガラス
 10
-38.025
 20
-16.525
 70
     8
  0
VERTEX
  8
ガラス
 10
-38.025
 20
-16.575
 70
     8
  0
VERTEX
  8
ガラス
 10
-38.025
 20
-16.625
 70
     8
  0
VERTEX
  8
ガラス
 10
-38.05
 20
-16.675
 70
     8
  0
VERTEX
  8
ガラス
 10
-38.05
 20
-16.7
 70
     8
  0
VERTEX
  8
ガラス
 10
-38.05
 20
-16.75
 70
     8
  0
VERTEX
  8
ガラス
 10
-38.05
 20
-16.8
 70
     8
  0
VERTEX
  8
ガラス
 10
-38.05
 20
-16.825
 70
     8
  0
VERTEX
  8
ガラス
 10
-38.05
 20
-16.875
 70
     8
  0
VERTEX
  8
ガラス
 10
-38.075
 20
-16.925
 70
     8
  0
VERTEX
  8
ガラス
 10
-38.075
 20
-16.95
 70
     8
  0
VERTEX
  8
ガラス
 10
-38.075
 20
-17.0
 70
     8
  0
VERTEX
  8
ガラス
 10
-38.075
 20
-17.05
 70
     8
  0
VERTEX
  8
ガラス
 10
-38.075
 20
-17.1
 70
     8
  0
VERTEX
  8
ガラス
 10
-38.075
 20
-17.125
 70
     8
  0
VERTEX
  8
ガラス
 10
-38.075
 20
-17.175
 70
     8
  0
VERTEX
  8
ガラス
 10
-38.075
 20
-17.225
 70
     8
  0
VERTEX
  8
ガラス
 10
-38.075
 20
-17.25
 70
     8
  0
VERTEX
  8
ガラス
 10
-38.075
 20
-17.3
 70
     8
  0
VERTEX
  8
ガラス
 10
-38.075
 20
-17.35
 70
     8
  0
VERTEX
  8
ガラス
 10
-38.075
 20
-17.4
 70
     8
  0
VERTEX
  8
ガラス
 10
-38.075
 20
-17.425
 70
     8
  0
VERTEX
  8
ガラス
 10
-38.075
 20
-17.475
 70
     8
  0
SEQEND
  0
ARC
  8
ガラス
  6
CONTINUOUS
 10
-38.729338
 20
-17.465415
 40
0.668594
 50
180.0
 51
360.0
  0
ENDBLK
  0
BLOCK
  2
*GRP_0381
 70
    65
 10
0.0
 20
0.0
  0
POLYLINE
  8
ガラス
  6
CONTINUOUS
 66
     1
 70
     4
  0
VERTEX
  8
ガラス
 10
-28.025
 20
14.975
 70
     8
  0
VERTEX
  8
ガラス
 10
-28.025
 20
15.05
 70
     8
  0
VERTEX
  8
ガラス
 10
-28.0
 20
15.1
 70
     8
  0
VERTEX
  8
ガラス
 10
-27.975
 20
15.175
 70
     8
  0
VERTEX
  8
ガラス
 10
-27.975
 20
15.225
 70
     8
  0
VERTEX
  8
ガラス
 10
-27.95
 20
15.3
 70
     8
  0
VERTEX
  8
ガラス
 10
-27.925
 20
15.35
 70
     8
  0
VERTEX
  8
ガラス
 10
-27.9
 20
15.425
 70
     8
  0
VERTEX
  8
ガラス
 10
-27.875
 20
15.475
 70
     8
  0
VERTEX
  8
ガラス
 10
-27.875
 20
15.525
 70
     8
  0
VERTEX
  8
ガラス
 10
-27.85
 20
15.6
 70
     8
  0
VERTEX
  8
ガラス
 10
-27.825
 20
15.65
 70
     8
  0
VERTEX
  8
ガラス
 10
-27.8
 20
15.7
 70
     8
  0
VERTEX
  8
ガラス
 10
-27.775
 20
15.775
 70
     8
  0
VERTEX
  8
ガラス
 10
-27.75
 20
15.825
 70
     8
  0
VERTEX
  8
ガラス
 10
-27.7
 20
15.875
 70
     8
  0
VERTEX
  8
ガラス
 10
-27.675
 20
15.925
 70
     8
  0
VERTEX
  8
ガラス
 10
-27.65
 20
15.975
 70
     8
  0
VERTEX
  8
ガラス
 10
-27.625
 20
16.025
 70
     8
  0
VERTEX
  8
ガラス
 10
-27.575
 20
16.075
 70
     8
  0
VERTEX
  8
ガラス
 10
-27.55
 20
16.1
 70
     8
  0
VERTEX
  8
ガラス
 10
-27.5
 20
16.15
 70
     8
  0
VERTEX
  8
ガラス
 10
-27.45
 20
16.2
 70
     8
  0
VERTEX
  8
ガラス
 10
-27.425
 20
16.225
 70
     8
  0
VERTEX
  8
ガラス
 10
-27.375
 20
16.25
 70
     8
  0
VERTEX
  8
ガラス
 10
-27.325
 20
16.3
 70
     8
  0
VERTEX
  8
ガラス
 10
-27.275
 20
16.325
 70
     8
  0
VERTEX
  8
ガラス
 10
-27.225
 20
16.35
 70
     8
  0
VERTEX
  8
ガラス
 10
-27.175
 20
16.4
 70
     8
  0
VERTEX
  8
ガラス
 10
-27.125
 20
16.425
 70
     8
  0
VERTEX
  8
ガラス
 10
-27.05
 20
16.45
 70
     8
  0
VERTEX
  8
ガラス
 10
-27.0
 20
16.475
 70
     8
  0
VERTEX
  8
ガラス
 10
-26.95
 20
16.5
 70
     8
  0
VERTEX
  8
ガラス
 10
-26.875
 20
16.525
 70
     8
  0
VERTEX
  8
ガラス
 10
-26.825
 20
16.55
 70
     8
  0
VERTEX
  8
ガラス
 10
-26.775
 20
16.575
 70
     8
  0
VERTEX
  8
ガラス
 10
-26.7
 20
16.575
 70
     8
  0
VERTEX
  8
ガラス
 10
-26.65
 20
16.6
 70
     8
  0
VERTEX
  8
ガラス
 10
-26.575
 20
16.625
 70
     8
  0
VERTEX
  8
ガラス
 10
-26.525
 20
16.65
 70
     8
  0
VERTEX
  8
ガラス
 10
-26.45
 20
16.675
 70
     8
  0
SEQEND
  0
POLYLINE
  8
ガラス
  6
CONTINUOUS
 66
     1
 70
     4
  0
VERTEX
  8
ガラス
 10
-26.45
 20
16.675
 70
     8
  0
VERTEX
  8
ガラス
 10
-26.475
 20
16.625
 70
     8
  0
VERTEX
  8
ガラス
 10
-26.475
 20
16.6
 70
     8
  0
VERTEX
  8
ガラス
 10
-26.5
 20
16.55
 70
     8
  0
VERTEX
  8
ガラス
 10
-26.5
 20
16.5
 70
     8
  0
VERTEX
  8
ガラス
 10
-26.525
 20
16.475
 70
     8
  0
VERTEX
  8
ガラス
 10
-26.525
 20
16.425
 70
     8
  0
VERTEX
  8
ガラス
 10
-26.55
 20
16.375
 70
     8
  0
VERTEX
  8
ガラス
 10
-26.55
 20
16.35
 70
     8
  0
VERTEX
  8
ガラス
 10
-26.575
 20
16.3
 70
     8
  0
VERTEX
  8
ガラス
 10
-26.575
 20
16.25
 70
     8
  0
VERTEX
  8
ガラス
 10
-26.575
 20
16.225
 70
     8
  0
VERTEX
  8
ガラス
 10
-26.6
 20
16.175
 70
     8
  0
VERTEX
  8
ガラス
 10
-26.6
 20
16.125
 70
     8
  0
VERTEX
  8
ガラス
 10
-26.625
 20
16.1
 70
     8
  0
VERTEX
  8
ガラス
 10
-26.625
 20
16.05
 70
     8
  0
VERTEX
  8
ガラス
 10
-26.625
 20
16.0
 70
     8
  0
VERTEX
  8
ガラス
 10
-26.65
 20
15.975
 70
     8
  0
VERTEX
  8
ガラス
 10
-26.65
 20
15.925
 70
     8
  0
VERTEX
  8
ガラス
 10
-26.65
 20
15.875
 70
     8
  0
VERTEX
  8
ガラス
 10
-26.65
 20
15.825
 70
     8
  0
VERTEX
  8
ガラス
 10
-26.675
 20
15.8
 70
     8
  0
VERTEX
  8
ガラス
 10
-26.675
 20
15.75
 70
     8
  0
VERTEX
  8
ガラス
 10
-26.675
 20
15.7
 70
     8
  0
VERTEX
  8
ガラス
 10
-26.675
 20
15.675
 70
     8
  0
VERTEX
  8
ガラス
 10
-26.675
 20
15.625
 70
     8
  0
VERTEX
  8
ガラス
 10
-26.7
 20
15.575
 70
     8
  0
VERTEX
  8
ガラス
 10
-26.7
 20
15.55
 70
     8
  0
VERTEX
  8
ガラス
 10
-26.7
 20
15.5
 70
     8
  0
VERTEX
  8
ガラス
 10
-26.7
 20
15.45
 70
     8
  0
VERTEX
  8
ガラス
 10
-26.7
 20
15.4
 70
     8
  0
VERTEX
  8
ガラス
 10
-26.7
 20
15.375
 70
     8
  0
VERTEX
  8
ガラス
 10
-26.7
 20
15.325
 70
     8
  0
VERTEX
  8
ガラス
 10
-26.7
 20
15.275
 70
     8
  0
VERTEX
  8
ガラス
 10
-26.7
 20
15.25
 70
     8
  0
VERTEX
  8
ガラス
 10
-26.7
 20
15.2
 70
     8
  0
VERTEX
  8
ガラス
 10
-26.7
 20
15.15
 70
     8
  0
VERTEX
  8
ガラス
 10
-26.7
 20
15.1
 70
     8
  0
VERTEX
  8
ガラス
 10
-26.7
 20
15.075
 70
     8
  0
VERTEX
  8
ガラス
 10
-26.7
 20
15.025
 70
     8
  0
VERTEX
  8
ガラス
 10
-26.7
 20
14.975
 70
     8
  0
SEQEND
  0
ARC
  8
ガラス
  6
CONTINUOUS
 10
-27.35593
 20
14.993026
 40
0.668594
 50
180.0
 51
360.0
  0
ENDBLK
  0
BLOCK
  2
*GRP_0382
 70
    65
 10
0.0
 20
0.0
  0
POLYLINE
  8
ガラス
  6
CONTINUOUS
 66
     1
 70
     4
  0
VERTEX
  8
ガラス
 10
-28.025
 20
0.675
 70
     8
  0
VERTEX
  8
ガラス
 10
-28.025
 20
0.75
 70
     8
  0
VERTEX
  8
ガラス
 10
-28.0
 20
0.8
 70
     8
  0
VERTEX
  8
ガラス
 10
-27.975
 20
0.875
 70
     8
  0
VERTEX
  8
ガラス
 10
-27.975
 20
0.95
 70
     8
  0
VERTEX
  8
ガラス
 10
-27.95
 20
1.0
 70
     8
  0
VERTEX
  8
ガラス
 10
-27.925
 20
1.05
 70
     8
  0
VERTEX
  8
ガラス
 10
-27.9
 20
1.125
 70
     8
  0
VERTEX
  8
ガラス
 10
-27.875
 20
1.175
 70
     8
  0
VERTEX
  8
ガラス
 10
-27.875
 20
1.25
 70
     8
  0
VERTEX
  8
ガラス
 10
-27.85
 20
1.3
 70
     8
  0
VERTEX
  8
ガラス
 10
-27.825
 20
1.35
 70
     8
  0
VERTEX
  8
ガラス
 10
-27.8
 20
1.425
 70
     8
  0
VERTEX
  8
ガラス
 10
-27.775
 20
1.475
 70
     8
  0
VERTEX
  8
ガラス
 10
-27.75
 20
1.525
 70
     8
  0
VERTEX
  8
ガラス
 10
-27.7
 20
1.575
 70
     8
  0
VERTEX
  8
ガラス
 10
-27.675
 20
1.625
 70
     8
  0
VERTEX
  8
ガラス
 10
-27.65
 20
1.675
 70
     8
  0
VERTEX
  8
ガラス
 10
-27.625
 20
1.725
 70
     8
  0
VERTEX
  8
ガラス
 10
-27.575
 20
1.775
 70
     8
  0
VERTEX
  8
ガラス
 10
-27.55
 20
1.825
 70
     8
  0
VERTEX
  8
ガラス
 10
-27.5
 20
1.85
 70
     8
  0
VERTEX
  8
ガラス
 10
-27.45
 20
1.9
 70
     8
  0
VERTEX
  8
ガラス
 10
-27.425
 20
1.925
 70
     8
  0
VERTEX
  8
ガラス
 10
-27.375
 20
1.975
 70
     8
  0
VERTEX
  8
ガラス
 10
-27.325
 20
2.0
 70
     8
  0
VERTEX
  8
ガラス
 10
-27.275
 20
2.025
 70
     8
  0
VERTEX
  8
ガラス
 10
-27.225
 20
2.075
 70
     8
  0
VERTEX
  8
ガラス
 10
-27.175
 20
2.1
 70
     8
  0
VERTEX
  8
ガラス
 10
-27.125
 20
2.125
 70
     8
  0
VERTEX
  8
ガラス
 10
-27.05
 20
2.15
 70
     8
  0
VERTEX
  8
ガラス
 10
-27.0
 20
2.175
 70
     8
  0
VERTEX
  8
ガラス
 10
-26.95
 20
2.2
 70
     8
  0
VERTEX
  8
ガラス
 10
-26.875
 20
2.225
 70
     8
  0
VERTEX
  8
ガラス
 10
-26.825
 20
2.25
 70
     8
  0
VERTEX
  8
ガラス
 10
-26.775
 20
2.275
 70
     8
  0
VERTEX
  8
ガラス
 10
-26.7
 20
2.3
 70
     8
  0
VERTEX
  8
ガラス
 10
-26.65
 20
2.325
 70
     8
  0
VERTEX
  8
ガラス
 10
-26.575
 20
2.325
 70
     8
  0
VERTEX
  8
ガラス
 10
-26.525
 20
2.35
 70
     8
  0
VERTEX
  8
ガラス
 10
-26.45
 20
2.375
 70
     8
  0
SEQEND
  0
POLYLINE
  8
ガラス
  6
CONTINUOUS
 66
     1
 70
     4
  0
VERTEX
  8
ガラス
 10
-26.45
 20
2.375
 70
     8
  0
VERTEX
  8
ガラス
 10
-26.475
 20
2.325
 70
     8
  0
VERTEX
  8
ガラス
 10
-26.475
 20
2.3
 70
     8
  0
VERTEX
  8
ガラス
 10
-26.5
 20
2.25
 70
     8
  0
VERTEX
  8
ガラス
 10
-26.5
 20
2.2
 70
     8
  0
VERTEX
  8
ガラス
 10
-26.525
 20
2.175
 70
     8
  0
VERTEX
  8
ガラス
 10
-26.525
 20
2.125
 70
     8
  0
VERTEX
  8
ガラス
 10
-26.55
 20
2.075
 70
     8
  0
VERTEX
  8
ガラス
 10
-26.55
 20
2.05
 70
     8
  0
VERTEX
  8
ガラス
 10
-26.575
 20
2.0
 70
     8
  0
VERTEX
  8
ガラス
 10
-26.575
 20
1.975
 70
     8
  0
VERTEX
  8
ガラス
 10
-26.575
 20
1.925
 70
     8
  0
VERTEX
  8
ガラス
 10
-26.6
 20
1.875
 70
     8
  0
VERTEX
  8
ガラス
 10
-26.6
 20
1.825
 70
     8
  0
VERTEX
  8
ガラス
 10
-26.625
 20
1.8
 70
     8
  0
VERTEX
  8
ガラス
 10
-26.625
 20
1.75
 70
     8
  0
VERTEX
  8
ガラス
 10
-26.625
 20
1.7
 70
     8
  0
VERTEX
  8
ガラス
 10
-26.65
 20
1.675
 70
     8
  0
VERTEX
  8
ガラス
 10
-26.65
 20
1.625
 70
     8
  0
VERTEX
  8
ガラス
 10
-26.65
 20
1.575
 70
     8
  0
VERTEX
  8
ガラス
 10
-26.65
 20
1.55
 70
     8
  0
VERTEX
  8
ガラス
 10
-26.675
 20
1.5
 70
     8
  0
VERTEX
  8
ガラス
 10
-26.675
 20
1.45
 70
     8
  0
VERTEX
  8
ガラス
 10
-26.675
 20
1.425
 70
     8
  0
VERTEX
  8
ガラス
 10
-26.675
 20
1.375
 70
     8
  0
VERTEX
  8
ガラス
 10
-26.675
 20
1.325
 70
     8
  0
VERTEX
  8
ガラス
 10
-26.7
 20
1.3
 70
     8
  0
VERTEX
  8
ガラス
 10
-26.7
 20
1.25
 70
     8
  0
VERTEX
  8
ガラス
 10
-26.7
 20
1.2
 70
     8
  0
VERTEX
  8
ガラス
 10
-26.7
 20
1.15
 70
     8
  0
VERTEX
  8
ガラス
 10
-26.7
 20
1.125
 70
     8
  0
VERTEX
  8
ガラス
 10
-26.7
 20
1.075
 70
     8
  0
VERTEX
  8
ガラス
 10
-26.7
 20
1.025
 70
     8
  0
VERTEX
  8
ガラス
 10
-26.7
 20
1.0
 70
     8
  0
VERTEX
  8
ガラス
 10
-26.7
 20
0.95
 70
     8
  0
VERTEX
  8
ガラス
 10
-26.7
 20
0.9
 70
     8
  0
VERTEX
  8
ガラス
 10
-26.7
 20
0.85
 70
     8
  0
VERTEX
  8
ガラス
 10
-26.7
 20
0.825
 70
     8
  0
VERTEX
  8
ガラス
 10
-26.7
 20
0.775
 70
     8
  0
VERTEX
  8
ガラス
 10
-26.7
 20
0.725
 70
     8
  0
VERTEX
  8
ガラス
 10
-26.7
 20
0.675
 70
     8
  0
SEQEND
  0
ARC
  8
ガラス
  6
CONTINUOUS
 10
-27.35593
 20
0.698965
 40
0.668594
 50
180.0
 51
360.0
  0
ENDBLK
  0
BLOCK
  2
*GRP_0383
 70
    65
 10
0.0
 20
0.0
  0
POLYLINE
  8
ガラス
  6
CONTINUOUS
 66
     1
 70
     4
  0
VERTEX
  8
ガラス
 10
-28.025
 20
-15.8
 70
     8
  0
VERTEX
  8
ガラス
 10
-28.025
 20
-15.725
 70
     8
  0
VERTEX
  8
ガラス
 10
-28.0
 20
-15.675
 70
     8
  0
VERTEX
  8
ガラス
 10
-27.975
 20
-15.6
 70
     8
  0
VERTEX
  8
ガラス
 10
-27.975
 20
-15.55
 70
     8
  0
VERTEX
  8
ガラス
 10
-27.95
 20
-15.475
 70
     8
  0
VERTEX
  8
ガラス
 10
-27.925
 20
-15.425
 70
     8
  0
VERTEX
  8
ガラス
 10
-27.9
 20
-15.35
 70
     8
  0
VERTEX
  8
ガラス
 10
-27.875
 20
-15.3
 70
     8
  0
VERTEX
  8
ガラス
 10
-27.875
 20
-15.25
 70
     8
  0
VERTEX
  8
ガラス
 10
-27.85
 20
-15.175
 70
     8
  0
VERTEX
  8
ガラス
 10
-27.825
 20
-15.125
 70
     8
  0
VERTEX
  8
ガラス
 10
-27.8
 20
-15.075
 70
     8
  0
VERTEX
  8
ガラス
 10
-27.775
 20
-15.0
 70
     8
  0
VERTEX
  8
ガラス
 10
-27.75
 20
-14.95
 70
     8
  0
VERTEX
  8
ガラス
 10
-27.7
 20
-14.9
 70
     8
  0
VERTEX
  8
ガラス
 10
-27.675
 20
-14.85
 70
     8
  0
VERTEX
  8
ガラス
 10
-27.65
 20
-14.8
 70
     8
  0
VERTEX
  8
ガラス
 10
-27.625
 20
-14.75
 70
     8
  0
VERTEX
  8
ガラス
 10
-27.575
 20
-14.7
 70
     8
  0
VERTEX
  8
ガラス
 10
-27.55
 20
-14.675
 70
     8
  0
VERTEX
  8
ガラス
 10
-27.5
 20
-14.625
 70
     8
  0
VERTEX
  8
ガラス
 10
-27.45
 20
-14.575
 70
     8
  0
VERTEX
  8
ガラス
 10
-27.425
 20
-14.55
 70
     8
  0
VERTEX
  8
ガラス
 10
-27.375
 20
-14.525
 70
     8
  0
VERTEX
  8
ガラス
 10
-27.325
 20
-14.475
 70
     8
  0
VERTEX
  8
ガラス
 10
-27.275
 20
-14.45
 70
     8
  0
VERTEX
  8
ガラス
 10
-27.225
 20
-14.425
 70
     8
  0
VERTEX
  8
ガラス
 10
-27.175
 20
-14.375
 70
     8
  0
VERTEX
  8
ガラス
 10
-27.125
 20
-14.35
 70
     8
  0
VERTEX
  8
ガラス
 10
-27.05
 20
-14.325
 70
     8
  0
VERTEX
  8
ガラス
 10
-27.0
 20
-14.3
 70
     8
  0
VERTEX
  8
ガラス
 10
-26.95
 20
-14.275
 70
     8
  0
VERTEX
  8
ガラス
 10
-26.875
 20
-14.25
 70
     8
  0
VERTEX
  8
ガラス
 10
-26.825
 20
-14.225
 70
     8
  0
VERTEX
  8
ガラス
 10
-26.775
 20
-14.2
 70
     8
  0
VERTEX
  8
ガラス
 10
-26.7
 20
-14.175
 70
     8
  0
VERTEX
  8
ガラス
 10
-26.65
 20
-14.175
 70
     8
  0
VERTEX
  8
ガラス
 10
-26.575
 20
-14.15
 70
     8
  0
VERTEX
  8
ガラス
 10
-26.525
 20
-14.125
 70
     8
  0
VERTEX
  8
ガラス
 10
-26.45
 20
-14.1
 70
     8
  0
SEQEND
  0
POLYLINE
  8
ガラス
  6
CONTINUOUS
 66
     1
 70
     4
  0
VERTEX
  8
ガラス
 10
-26.45
 20
-14.1
 70
     8
  0
VERTEX
  8
ガラス
 10
-26.475
 20
-14.15
 70
     8
  0
VERTEX
  8
ガラス
 10
-26.475
 20
-14.175
 70
     8
  0
VERTEX
  8
ガラス
 10
-26.5
 20
-14.225
 70
     8
  0
VERTEX
  8
ガラス
 10
-26.5
 20
-14.275
 70
     8
  0
VERTEX
  8
ガラス
 10
-26.525
 20
-14.3
 70
     8
  0
VERTEX
  8
ガラス
 10
-26.525
 20
-14.35
 70
     8
  0
VERTEX
  8
ガラス
 10
-26.55
 20
-14.4
 70
     8
  0
VERTEX
  8
ガラス
 10
-26.55
 20
-14.425
 70
     8
  0
VERTEX
  8
ガラス
 10
-26.575
 20
-14.475
 70
     8
  0
VERTEX
  8
ガラス
 10
-26.575
 20
-14.525
 70
     8
  0
VERTEX
  8
ガラス
 10
-26.575
 20
-14.55
 70
     8
  0
VERTEX
  8
ガラス
 10
-26.6
 20
-14.6
 70
     8
  0
VERTEX
  8
ガラス
 10
-26.6
 20
-14.65
 70
     8
  0
VERTEX
  8
ガラス
 10
-26.625
 20
-14.675
 70
     8
  0
VERTEX
  8
ガラス
 10
-26.625
 20
-14.725
 70
     8
  0
VERTEX
  8
ガラス
 10
-26.625
 20
-14.775
 70
     8
  0
VERTEX
  8
ガラス
 10
-26.65
 20
-14.8
 70
     8
  0
VERTEX
  8
ガラス
 10
-26.65
 20
-14.85
 70
     8
  0
VERTEX
  8
ガラス
 10
-26.65
 20
-14.9
 70
     8
  0
VERTEX
  8
ガラス
 10
-26.65
 20
-14.925
 70
     8
  0
VERTEX
  8
ガラス
 10
-26.675
 20
-14.975
 70
     8
  0
VERTEX
  8
ガラス
 10
-26.675
 20
-15.025
 70
     8
  0
VERTEX
  8
ガラス
 10
-26.675
 20
-15.075
 70
     8
  0
VERTEX
  8
ガラス
 10
-26.675
 20
-15.1
 70
     8
  0
VERTEX
  8
ガラス
 10
-26.675
 20
-15.15
 70
     8
  0
VERTEX
  8
ガラス
 10
-26.7
 20
-15.2
 70
     8
  0
VERTEX
  8
ガラス
 10
-26.7
 20
-15.225
 70
     8
  0
VERTEX
  8
ガラス
 10
-26.7
 20
-15.275
 70
     8
  0
VERTEX
  8
ガラス
 10
-26.7
 20
-15.325
 70
     8
  0
VERTEX
  8
ガラス
 10
-26.7
 20
-15.375
 70
     8
  0
VERTEX
  8
ガラス
 10
-26.7
 20
-15.4
 70
     8
  0
VERTEX
  8
ガラス
 10
-26.7
 20
-15.45
 70
     8
  0
VERTEX
  8
ガラス
 10
-26.7
 20
-15.5
 70
     8
  0
VERTEX
  8
ガラス
 10
-26.7
 20
-15.525
 70
     8
  0
VERTEX
  8
ガラス
 10
-26.7
 20
-15.575
 70
     8
  0
VERTEX
  8
ガラス
 10
-26.7
 20
-15.625
 70
     8
  0
VERTEX
  8
ガラス
 10
-26.7
 20
-15.675
 70
     8
  0
VERTEX
  8
ガラス
 10
-26.7
 20
-15.7
 70
     8
  0
VERTEX
  8
ガラス
 10
-26.7
 20
-15.75
 70
     8
  0
VERTEX
  8
ガラス
 10
-26.7
 20
-15.8
 70
     8
  0
SEQEND
  0
ARC
  8
ガラス
  6
CONTINUOUS
 10
-27.35593
 20
-15.781394
 40
0.668594
 50
180.0
 51
360.0
  0
ENDBLK
  0
BLOCK
  2
*GRP_0384
 70
    65
 10
0.0
 20
0.0
  0
LINE
  8
ゴム等
  6
CONTINUOUS
 10
-39.949947
 20
32.145197
 11
-34.949945
 21
32.145197
  0
LINE
  8
ゴム等
  6
CONTINUOUS
 10
-39.949947
 20
32.145197
 11
-39.949947
 21
22.1452
  0
LINE
  8
ゴム等
  6
CONTINUOUS
 10
-39.949947
 20
22.1452
 11
-34.949945
 21
22.1452
  0
LINE
  8
ゴム等
  6
CONTINUOUS
 10
-34.949945
 20
32.145197
 11
-34.949945
 21
22.1452
  0
LINE
  8
ゴム等
  6
CONTINUOUS
 10
-36.28007
 20
22.1452
 11
-34.949945
 21
23.475325
  0
LINE
  8
ゴム等
  6
CONTINUOUS
 10
-37.694293
 20
22.1452
 11
-34.949945
 21
24.889547
  0
LINE
  8
ゴム等
  6
CONTINUOUS
 10
-39.108493
 20
22.1452
 11
-34.949945
 21
26.303747
  0
LINE
  8
ゴム等
  6
CONTINUOUS
 10
-39.949947
 20
25.546398
 11
-34.949945
 21
30.5464
  0
LINE
  8
ゴム等
  6
CONTINUOUS
 10
-39.949947
 20
24.132175
 11
-34.949945
 21
29.13217
  0
LINE
  8
ゴム等
  6
CONTINUOUS
 10
-39.949947
 20
22.717975
 11
-34.949945
 21
27.71797
  0
LINE
  8
ゴム等
  6
CONTINUOUS
 10
-39.949947
 20
26.96062
 11
-34.949945
 21
31.9606
  0
LINE
  8
ゴム等
  6
CONTINUOUS
 10
-39.949947
 20
28.37482
 11
-36.17957
 21
32.145197
  0
LINE
  8
ゴム等
  6
CONTINUOUS
 10
-39.949947
 20
29.78902
 11
-37.59377
 21
32.145197
  0
LINE
  8
ゴム等
  6
CONTINUOUS
 10
-39.949947
 20
31.20325
 11
-39.007993
 21
32.145197
  0
ENDBLK
  0
BLOCK
  2
*GRP_0385
 70
    65
 10
0.0
 20
0.0
  0
LINE
  8
ゴム等
  6
CONTINUOUS
 10
-9.54995
 20
-43.8548
 11
-10.049953
 21
-41.354803
  0
LINE
  8
ゴム等
  6
CONTINUOUS
 10
-4.249947
 20
-41.354803
 11
-4.74995
 21
-43.8548
  0
LINE
  8
ゴム等
  6
CONTINUOUS
 10
-2.149947
 20
-36.3548
 11
-2.149947
 21
-41.354803
  0
LINE
  8
ゴム等
  6
CONTINUOUS
 10
-12.149953
 20
-36.3548
 11
-12.149953
 21
-41.354803
  0
LINE
  8
ゴム等
  6
CONTINUOUS
 10
-9.54995
 20
-43.8548
 11
-4.74995
 21
-43.8548
  0
LINE
  8
ゴム等
  6
CONTINUOUS
 10
-2.149947
 20
-41.354803
 11
-4.249947
 21
-41.354803
  0
LINE
  8
ゴム等
  6
CONTINUOUS
 10
-10.049953
 20
-41.354803
 11
-12.149953
 21
-41.354803
  0
LINE
  8
ゴム等
  6
CONTINUOUS
 10
-7.14995
 20
-36.854803
 11
-6.649947
 21
-36.3548
  0
LINE
  8
ゴム等
  6
CONTINUOUS
 10
-7.14995
 20
-36.854803
 11
-7.649953
 21
-36.3548
  0
LINE
  8
ゴム等
  6
CONTINUOUS
 10
-12.149953
 20
-36.3548
 11
-7.649953
 21
-36.3548
  0
LINE
  8
ゴム等
  6
CONTINUOUS
 10
-6.649947
 20
-36.3548
 11
-2.149947
 21
-36.3548
  0
LINE
  8
ゴム等
  6
CONTINUOUS
 10
-12.149953
 20
-38.132488
 11
-6.42764
 21
-43.8548
  0
LINE
  8
ゴム等
  6
CONTINUOUS
 10
-11.806318
 20
-36.3548
 11
-4.676008
 21
-43.485102
  0
LINE
  8
ゴム等
  6
CONTINUOUS
 10
-9.684995
 20
-36.3548
 11
-4.322458
 21
-41.717338
  0
LINE
  8
ゴム等
  6
CONTINUOUS
 10
-7.10681
 20
-36.811662
 11
-2.56367
 21
-41.354803
  0
LINE
  8
ゴム等
  6
CONTINUOUS
 10
-3.321035
 20
-36.3548
 11
-2.149947
 21
-37.525888
  0
LINE
  8
ゴム等
  6
CONTINUOUS
 10
-5.44235
 20
-36.3548
 11
-2.149947
 21
-39.647203
  0
LINE
  8
ゴム等
  6
CONTINUOUS
 10
-12.149953
 20
-40.253802
 11
-11.048952
 21
-41.354803
  0
LINE
  8
ゴム等
  6
CONTINUOUS
 10
-9.800202
 20
-42.603553
 11
-8.548955
 21
-43.8548
  0
ENDBLK
  0
BLOCK
  2
*GRP_0386
 70
    65
 10
0.0
 20
0.0
  0
ARC
  8
ゴム等
  6
CONTINUOUS
 10
-15.149953
 20
33.145192
 40
1.0
 50
270.0
 51
360.0
  0
LINE
  8
ゴム等
  6
CONTINUOUS
 10
-14.14994
 20
34.1452
 11
-14.14994
 21
33.145195
  0
ARC
  8
ゴム等
  6
CONTINUOUS
 10
-15.149953
 20
34.145192
 40
1.0
 50
0.0
 51
90.0
  0
LINE
  8
ゴム等
  6
CONTINUOUS
 10
-14.14994
 20
33.865855
 11
-15.870597
 21
32.145197
  0
LINE
  8
ゴム等
  6
CONTINUOUS
 10
-14.513495
 20
34.916515
 11
-17.284813
 21
32.145197
  0
LINE
  8
ゴム等
  6
CONTINUOUS
 10
-21.355872
 20
35.145197
 11
-24.355872
 21
32.145197
  0
LINE
  8
ゴム等
  6
CONTINUOUS
 10
-19.941658
 20
35.145197
 11
-22.941658
 21
32.145197
  0
LINE
  8
ゴム等
  6
CONTINUOUS
 10
-18.527442
 20
35.145197
 11
-21.527442
 21
32.145197
  0
LINE
  8
ゴム等
  6
CONTINUOUS
 10
-17.113227
 20
35.145197
 11
-20.113227
 21
32.145197
  0
LINE
  8
ゴム等
  6
CONTINUOUS
 10
-15.699013
 20
35.145197
 11
-18.699013
 21
32.145197
  0
LINE
  8
ゴム等
  6
CONTINUOUS
 10
-31.255362
 20
35.145197
 11
-34.255362
 21
32.145197
  0
LINE
  8
ゴム等
  6
CONTINUOUS
 10
-29.841162
 20
35.145197
 11
-32.841162
 21
32.145197
  0
LINE
  8
ゴム等
  6
CONTINUOUS
 10
-28.426948
 20
35.145197
 11
-31.426948
 21
32.145197
  0
LINE
  8
ゴム等
  6
CONTINUOUS
 10
-27.012733
 20
35.145197
 11
-30.012733
 21
32.145197
  0
LINE
  8
ゴム等
  6
CONTINUOUS
 10
-25.598517
 20
35.145197
 11
-28.598517
 21
32.145197
  0
LINE
  8
ゴム等
  6
CONTINUOUS
 10
-24.184303
 20
35.145197
 11
-27.184303
 21
32.145197
  0
LINE
  8
ゴム等
  6
CONTINUOUS
 10
-22.770088
 20
35.145197
 11
-25.770088
 21
32.145197
  0
ARC
  8
ゴム等
  6
CONTINUOUS
 10
-43.14995
 20
34.145192
 40
1.0
 50
90.0
 51
180.0
  0
LINE
  8
ゴム等
  6
CONTINUOUS
 10
-44.14994
 20
33.145195
 11
-44.14994
 21
34.1452
  0
ARC
  8
ゴム等
  6
CONTINUOUS
 10
-43.14995
 20
33.145192
 40
1.0
 50
180.0
 51
270.0
  0
LINE
  8
ゴム等
  6
CONTINUOUS
 10
-15.149938
 20
32.145197
 11
-43.149942
 21
32.145197
  0
LINE
  8
ゴム等
  6
CONTINUOUS
 10
-15.149938
 20
35.145197
 11
-43.149942
 21
35.145197
  0
LINE
  8
ゴム等
  6
CONTINUOUS
 10
-32.669578
 20
35.145197
 11
-35.669578
 21
32.145197
  0
LINE
  8
ゴム等
  6
CONTINUOUS
 10
-39.740653
 20
35.145197
 11
-42.740653
 21
32.145197
  0
LINE
  8
ゴム等
  6
CONTINUOUS
 10
-38.326437
 20
35.145197
 11
-41.326437
 21
32.145197
  0
LINE
  8
ゴム等
  6
CONTINUOUS
 10
-36.912223
 20
35.145197
 11
-39.912223
 21
32.145197
  0
LINE
  8
ゴム等
  6
CONTINUOUS
 10
-35.498008
 20
35.145197
 11
-38.498008
 21
32.145197
  0
LINE
  8
ゴム等
  6
CONTINUOUS
 10
-34.083792
 20
35.145197
 11
-37.083792
 21
32.145197
  0
LINE
  8
ゴム等
  6
CONTINUOUS
 10
-42.569067
 20
35.145197
 11
-44.14994
 21
33.564325
  0
LINE
  8
ゴム等
  6
CONTINUOUS
 10
-41.154868
 20
35.145197
 11
-43.85951
 21
32.440555
  0
ENDBLK
  0
BLOCK
  2
*GRP_0387
 70
    65
 10
0.0
 20
0.0
  0
ARC
  8
ゴム等
  6
CONTINUOUS
 10
-15.149953
 20
37.648777
 40
1.0
 50
270.0
 51
360.0
  0
LINE
  8
ゴム等
  6
CONTINUOUS
 10
-14.14994
 20
38.648785
 11
-14.14994
 21
37.64878
  0
ARC
  8
ゴム等
  6
CONTINUOUS
 10
-15.149953
 20
38.648777
 40
1.0
 50
0.0
 51
90.0
  0
LINE
  8
ゴム等
  6
CONTINUOUS
 10
-14.14994
 20
38.36944
 11
-15.870597
 21
36.648783
  0
LINE
  8
ゴム等
  6
CONTINUOUS
 10
-14.513495
 20
39.4201
 11
-17.284813
 21
36.648783
  0
LINE
  8
ゴム等
  6
CONTINUOUS
 10
-21.355872
 20
39.648783
 11
-24.355872
 21
36.648783
  0
LINE
  8
ゴム等
  6
CONTINUOUS
 10
-19.941658
 20
39.648783
 11
-22.941658
 21
36.648783
  0
LINE
  8
ゴム等
  6
CONTINUOUS
 10
-18.527442
 20
39.648783
 11
-21.527442
 21
36.648783
  0
LINE
  8
ゴム等
  6
CONTINUOUS
 10
-17.113227
 20
39.648783
 11
-20.113227
 21
36.648783
  0
LINE
  8
ゴム等
  6
CONTINUOUS
 10
-15.699013
 20
39.648783
 11
-18.699013
 21
36.648783
  0
LINE
  8
ゴム等
  6
CONTINUOUS
 10
-31.255362
 20
39.648783
 11
-34.255362
 21
36.648783
  0
LINE
  8
ゴム等
  6
CONTINUOUS
 10
-29.841162
 20
39.648783
 11
-32.841162
 21
36.648783
  0
LINE
  8
ゴム等
  6
CONTINUOUS
 10
-28.426948
 20
39.648783
 11
-31.426948
 21
36.648783
  0
LINE
  8
ゴム等
  6
CONTINUOUS
 10
-27.012733
 20
39.648783
 11
-30.012733
 21
36.648783
  0
LINE
  8
ゴム等
  6
CONTINUOUS
 10
-25.598517
 20
39.648783
 11
-28.598517
 21
36.648783
  0
LINE
  8
ゴム等
  6
CONTINUOUS
 10
-24.184303
 20
39.648783
 11
-27.184303
 21
36.648783
  0
LINE
  8
ゴム等
  6
CONTINUOUS
 10
-22.770088
 20
39.648783
 11
-25.770088
 21
36.648783
  0
ARC
  8
ゴム等
  6
CONTINUOUS
 10
-43.14995
 20
38.648777
 40
1.0
 50
90.0
 51
180.0
  0
LINE
  8
ゴム等
  6
CONTINUOUS
 10
-44.14994
 20
37.64878
 11
-44.14994
 21
38.648785
  0
ARC
  8
ゴム等
  6
CONTINUOUS
 10
-43.14995
 20
37.648777
 40
1.0
 50
180.0
 51
270.0
  0
LINE
  8
ゴム等
  6
CONTINUOUS
 10
-15.149938
 20
36.648783
 11
-43.149942
 21
36.648783
  0
LINE
  8
ゴム等
  6
CONTINUOUS
 10
-15.149938
 20
39.648783
 11
-43.149942
 21
39.648783
  0
LINE
  8
ゴム等
  6
CONTINUOUS
 10
-32.669578
 20
39.648783
 11
-35.669578
 21
36.648783
  0
LINE
  8
ゴム等
  6
CONTINUOUS
 10
-39.740653
 20
39.648783
 11
-42.740653
 21
36.648783
  0
LINE
  8
ゴム等
  6
CONTINUOUS
 10
-38.326437
 20
39.648783
 11
-41.326437
 21
36.648783
  0
LINE
  8
ゴム等
  6
CONTINUOUS
 10
-36.912223
 20
39.648783
 11
-39.912223
 21
36.648783
  0
LINE
  8
ゴム等
  6
CONTINUOUS
 10
-35.498008
 20
39.648783
 11
-38.498008
 21
36.648783
  0
LINE
  8
ゴム等
  6
CONTINUOUS
 10
-34.083792
 20
39.648783
 11
-37.083792
 21
36.648783
  0
LINE
  8
ゴム等
  6
CONTINUOUS
 10
-42.569067
 20
39.648783
 11
-44.14994
 21
38.06791
  0
LINE
  8
ゴム等
  6
CONTINUOUS
 10
-41.154868
 20
39.648783
 11
-43.85951
 21
36.94414
  0
ENDBLK
  0
BLOCK
  2
*GRP_0388
 70
    65
 10
0.0
 20
0.0
  0
POLYLINE
  8
ゴム等
  6
DOT
 66
     1
 70
     1
  0
VERTEX
  8
ゴム等
 10
-33.949955
 20
-42.354807
  0
VERTEX
  8
ゴム等
 10
-43.949953
 20
-42.354807
  0
VERTEX
  8
ゴム等
 10
-43.949953
 20
-52.354805
  0
VERTEX
  8
ゴム等
 10
-33.949955
 20
-52.354805
  0
SEQEND
  0
LINE
  8
ゴム等
  6
DOT
 10
-43.949953
 20
-52.354805
 11
-33.949955
 21
-42.354807
  0
LINE
  8
ゴム等
  6
DOT
 10
-42.43523
 20
-42.354807
 11
-43.949953
 21
-43.86953
  0
LINE
  8
ゴム等
  6
DOT
 10
-40.313915
 20
-42.354807
 11
-43.949953
 21
-45.990845
  0
LINE
  8
ゴム等
  6
DOT
 10
-38.1926
 20
-42.354807
 11
-43.949953
 21
-48.11216
  0
LINE
  8
ゴム等
  6
DOT
 10
-36.07127
 20
-42.354807
 11
-43.949953
 21
-50.23349
  0
LINE
  8
ゴム等
  6
DOT
 10
-33.949955
 20
-50.840082
 11
-35.464678
 21
-52.354805
  0
LINE
  8
ゴム等
  6
DOT
 10
-33.949955
 20
-48.718768
 11
-37.585992
 21
-52.354805
  0
LINE
  8
ゴム等
  6
DOT
 10
-33.949955
 20
-46.597452
 11
-39.707308
 21
-52.354805
  0
LINE
  8
ゴム等
  6
DOT
 10
-33.949955
 20
-44.476123
 11
-41.828637
 21
-52.354805
  0
ENDBLK
  0
BLOCK
  2
*GRP_0389
 70
    65
 10
0.0
 20
0.0
  0
LINE
  8
ゴム等
  6
CONTINUOUS
 10
13.150052
 20
2.641427
 11
13.150052
 21
-2.358575
  0
LINE
  8
ゴム等
  6
CONTINUOUS
 10
13.150052
 20
2.641427
 11
3.150055
 21
2.641427
  0
LINE
  8
ゴム等
  6
CONTINUOUS
 10
3.150055
 20
2.641427
 11
3.150055
 21
-2.358575
  0
LINE
  8
ゴム等
  6
CONTINUOUS
 10
13.150052
 20
-2.358575
 11
3.150055
 21
-2.358575
  0
LINE
  8
ゴム等
  6
CONTINUOUS
 10
3.150055
 20
-1.02845
 11
4.48018
 21
-2.358575
  0
LINE
  8
ゴム等
  6
CONTINUOUS
 10
3.150055
 20
0.385772
 11
5.894403
 21
-2.358575
  0
LINE
  8
ゴム等
  6
CONTINUOUS
 10
3.150055
 20
1.799972
 11
7.308603
 21
-2.358575
  0
LINE
  8
ゴム等
  6
CONTINUOUS
 10
6.551253
 20
2.641427
 11
11.551255
 21
-2.358575
  0
LINE
  8
ゴム等
  6
CONTINUOUS
 10
5.13703
 20
2.641427
 11
10.137025
 21
-2.358575
  0
LINE
  8
ゴム等
  6
CONTINUOUS
 10
3.72283
 20
2.641427
 11
8.722825
 21
-2.358575
  0
LINE
  8
ゴム等
  6
CONTINUOUS
 10
7.965475
 20
2.641427
 11
12.965455
 21
-2.358575
  0
LINE
  8
ゴム等
  6
CONTINUOUS
 10
9.379675
 20
2.641427
 11
13.150052
 21
-1.12895
  0
LINE
  8
ゴム等
  6
CONTINUOUS
 10
10.793875
 20
2.641427
 11
13.150052
 21
0.28525
  0
LINE
  8
ゴム等
  6
CONTINUOUS
 10
12.208105
 20
2.641427
 11
13.150052
 21
1.699473
  0
ENDBLK
  0
BLOCK
  2
*GRP_0390
 70
    65
 10
0.0
 20
0.0
  0
LINE
  8
ボルト／ビス
  6
CONTINUOUS
 10
-36.649955
 20
42.652368
 11
-36.649955
 21
44.652377
  0
LINE
  8
ボルト／ビス
  6
CONTINUOUS
 10
-36.649955
 20
44.652377
 11
-14.64995
 21
44.652377
  0
LINE
  8
ボルト／ビス
  6
CONTINUOUS
 10
-14.64995
 20
44.652377
 11
-14.64995
 21
42.652368
  0
LINE
  8
ボルト／ビス
  6
CONTINUOUS
 10
-36.649955
 20
42.652368
 11
-14.64995
 21
42.652368
  0
LINE
  8
ボルト／ビス
  6
CONTINUOUS
 10
-34.649953
 20
45.652368
 11
-34.649953
 21
44.652377
  0
LINE
  8
ボルト／ビス
  6
CONTINUOUS
 10
-34.649953
 20
45.652368
 11
-16.649953
 21
45.652368
  0
LINE
  8
ボルト／ビス
  6
CONTINUOUS
 10
-16.649953
 20
45.652368
 11
-16.649953
 21
44.652377
  0
LINE
  8
ボルト／ビス
  6
CONTINUOUS
 62
    64
 10
-30.46121
 20
51.652368
 11
-31.42346
 21
51.30214
  0
ARC
  8
ボルト／ビス
  6
CONTINUOUS
 62
    64
 10
-29.980078
 20
48.503015
 40
3.149352
 50
62.721967
 51
90.0
  0
ARC
  8
ボルト／ビス
  6
CONTINUOUS
 62
    64
 10
-25.649951
 20
39.5803
 40
12.072067
 50
76.165002
 51
103.834985
  0
LINE
  8
ボルト／ビス
  6
CONTINUOUS
 62
    64
 10
-20.838703
 20
51.652368
 11
-19.876452
 21
51.30214
  0
ARC
  8
ボルト／ビス
  6
CONTINUOUS
 62
    64
 10
-21.319823
 20
48.503015
 40
3.149352
 50
90.0
 51
117.278033
  0
LINE
  8
ボルト／ビス
  6
CONTINUOUS
 62
    64
 10
-30.46121
 20
51.652368
 11
-20.838703
 21
51.652368
  0
LINE
  8
ボルト／ビス
  6
CONTINUOUS
 62
    64
 10
-19.876452
 20
51.30214
 11
-19.876452
 21
47.652377
  0
LINE
  8
ボルト／ビス
  6
CONTINUOUS
 62
    64
 10
-22.763202
 20
51.30214
 11
-22.763202
 21
47.652377
  0
LINE
  8
ボルト／ビス
  6
CONTINUOUS
 62
    64
 10
-31.42346
 20
51.30214
 11
-31.42346
 21
47.652377
  0
LINE
  8
ボルト／ビス
  6
CONTINUOUS
 62
    64
 10
-28.536702
 20
51.30214
 11
-28.536702
 21
47.652377
  0
LINE
  8
ボルト／ビス
  6
CONTINUOUS
 62
    64
 10
-27.949955
 20
17.652377
 11
-23.34995
 21
17.652377
  0
LINE
  8
ボルト／ビス
  6
CONTINUOUS
 62
    64
 10
-22.649953
 20
18.652368
 11
-23.34995
 21
17.652377
  0
LINE
  8
ボルト／ビス
  6
CONTINUOUS
 62
    64
 10
-28.649953
 20
18.652368
 11
-27.949955
 21
17.652377
  0
LINE
  8
ボルト／ビス
  6
CONTINUOUS
 62
    64
 10
-28.649953
 20
18.652368
 11
-22.649953
 21
18.652368
  0
LINE
  8
ボルト／ビス
  6
CONTINUOUS
 62
    64
 10
-27.949955
 20
17.652377
 11
-23.34995
 21
17.652377
  0
LINE
  8
ボルト／ビス
  6
CONTINUOUS
 10
-31.42346
 20
47.652377
 11
-19.876452
 21
47.652377
  0
LINE
  8
ボルト／ビス
  6
CONTINUOUS
 10
-31.649953
 20
47.652377
 11
-31.649953
 21
45.652368
  0
LINE
  8
ボルト／ビス
  6
CONTINUOUS
 10
-31.649953
 20
47.652377
 11
-19.649953
 21
47.652377
  0
LINE
  8
ボルト／ビス
  6
CONTINUOUS
 10
-19.649953
 20
47.652377
 11
-19.649953
 21
45.652368
  0
LINE
  8
ボルト／ビス
  6
CONTINUOUS
 62
    64
 10
-23.34995
 20
42.652368
 11
-23.34995
 21
17.652377
  0
LINE
  8
ボルト／ビス
  6
CONTINUOUS
 62
    64
 10
-27.949955
 20
42.652368
 11
-27.949955
 21
17.652377
  0
LINE
  8
ボルト／ビス
  6
CONTINUOUS
 62
    64
 10
-28.649953
 20
42.652368
 11
-28.649953
 21
18.652368
  0
LINE
  8
ボルト／ビス
  6
CONTINUOUS
 62
    64
 10
-22.649953
 20
42.652368
 11
-22.649953
 21
18.652368
  0
ENDBLK
  0
BLOCK
  2
*GRP_0391
 70
    65
 10
0.0
 20
0.0
  0
LINE
  8
ボルト／ビス
  6
CONTINUOUS
 62
    64
 10
-41.649942
 20
30.645183
 11
-42.698105
 21
30.55348
  0
ARC
  8
ボルト／ビス
  6
CONTINUOUS
 62
    64
 10
-42.549939
 20
28.859954
 40
1.7
 50
94.999989
 51
180.0
  0
LINE
  8
ボルト／ビス
  6
CONTINUOUS
 62
    64
 10
-44.249938
 20
28.85995
 11
-44.249938
 21
27.145188
  0
LINE
  8
ボルト／ビス
  6
CONTINUOUS
 62
    64
 10
-41.649942
 20
23.645185
 11
-42.698105
 21
23.736888
  0
ARC
  8
ボルト／ビス
  6
CONTINUOUS
 62
    64
 10
-42.549939
 20
25.430421
 40
1.7
 50
180.0
 51
265.000011
  0
LINE
  8
ボルト／ビス
  6
CONTINUOUS
 62
    64
 10
-44.249938
 20
25.430417
 11
-44.249938
 21
27.145188
  0
LINE
  8
ボルト／ビス
  6
CONTINUOUS
 62
    64
 10
-43.865038
 20
29.541828
 11
-44.107197
 21
29.541828
  0
LINE
  8
ボルト／ビス
  6
CONTINUOUS
 62
    64
 10
-43.214952
 20
27.845185
 11
-43.214952
 21
27.145188
  0
LINE
  8
ボルト／ビス
  6
CONTINUOUS
 62
    64
 10
-43.865038
 20
28.245183
 11
-43.865038
 21
29.541828
  0
LINE
  8
ボルト／ビス
  6
CONTINUOUS
 62
    64
 10
-43.214952
 20
27.845185
 11
-43.465032
 21
27.845185
  0
ARC
  8
ボルト／ビス
  6
CONTINUOUS
 62
    64
 10
-43.465034
 20
28.245187
 40
0.4
 50
180.0
 51
270.0
  0
LINE
  8
ボルト／ビス
  6
CONTINUOUS
 62
    64
 10
-43.865038
 20
24.748547
 11
-44.107197
 21
24.748547
  0
LINE
  8
ボルト／ビス
  6
CONTINUOUS
 62
    64
 10
-43.214952
 20
26.445183
 11
-43.214952
 21
27.145188
  0
LINE
  8
ボルト／ビス
  6
CONTINUOUS
 62
    64
 10
-43.865038
 20
26.045185
 11
-43.865038
 21
24.748547
  0
LINE
  8
ボルト／ビス
  6
CONTINUOUS
 62
    64
 10
-43.214952
 20
26.445183
 11
-43.465032
 21
26.445183
  0
ARC
  8
ボルト／ビス
  6
CONTINUOUS
 62
    64
 10
-43.465034
 20
26.045187
 40
0.4
 50
90.0
 51
180.0
  0
LINE
  8
ボルト／ビス
  6
CONTINUOUS
 62
    64
 10
-41.649942
 20
30.645183
 11
-41.649942
 21
23.645185
  0
LINE
  8
ボルト／ビス
  6
CONTINUOUS
 62
    64
 10
-30.149938
 20
29.145183
 11
-29.649942
 21
28.645188
  0
LINE
  8
ボルト／ビス
  6
CONTINUOUS
 62
    64
 10
-30.149938
 20
25.145185
 11
-29.649942
 21
25.645188
  0
LINE
  8
ボルト／ビス
  6
CONTINUOUS
 62
    64
 10
-30.149938
 20
29.145183
 11
-30.149938
 21
25.145185
  0
LINE
  8
ボルト／ビス
  6
CONTINUOUS
 62
    64
 10
-29.649942
 20
28.645188
 11
-29.649942
 21
25.645188
  0
LINE
  8
ボルト／ビス
  6
CONTINUOUS
 62
    64
 10
-41.649942
 20
28.645188
 11
-29.649942
 21
28.645188
  0
LINE
  8
ボルト／ビス
  6
CONTINUOUS
 62
    64
 10
-41.649942
 20
25.645188
 11
-29.649942
 21
25.645188
  0
LINE
  8
ボルト／ビス
  6
CONTINUOUS
 62
    64
 10
-41.649942
 20
25.145185
 11
-30.149938
 21
25.145185
  0
LINE
  8
ボルト／ビス
  6
CONTINUOUS
 62
    64
 10
-41.649942
 20
29.145183
 11
-30.149938
 21
29.145183
  0
LINE
  8
ボルト／ビス
  6
DASHDOT
 62
    64
 10
-47.249938
 20
27.145188
 11
-26.649942
 21
27.145188
  0
ENDBLK
  0
BLOCK
  2
*GRP_0392
 70
    65
 10
0.0
 20
0.0
  0
LINE
  8
ボルト／ビス
  6
CONTINUOUS
 62
    64
 10
-3.649947
 20
-45.85481
 11
-3.74165
 21
-46.90298
  0
ARC
  8
ボルト／ビス
  6
CONTINUOUS
 62
    64
 10
-5.435189
 20
-46.754805
 40
1.7
 50
270.0
 51
355.000011
  0
LINE
  8
ボルト／ビス
  6
CONTINUOUS
 62
    64
 10
-5.43518
 20
-48.454813
 11
-7.14995
 21
-48.454813
  0
LINE
  8
ボルト／ビス
  6
CONTINUOUS
 62
    64
 10
-10.649945
 20
-45.85481
 11
-10.558242
 21
-46.90298
  0
ARC
  8
ボルト／ビス
  6
CONTINUOUS
 62
    64
 10
-8.864722
 20
-46.754805
 40
1.7
 50
184.999989
 51
270.0
  0
LINE
  8
ボルト／ビス
  6
CONTINUOUS
 62
    64
 10
-8.864713
 20
-48.454813
 11
-7.14995
 21
-48.454813
  0
LINE
  8
ボルト／ビス
  6
CONTINUOUS
 62
    64
 10
-4.75331
 20
-48.069905
 11
-4.75331
 21
-48.312072
  0
LINE
  8
ボルト／ビス
  6
CONTINUOUS
 62
    64
 10
-6.449945
 20
-47.419827
 11
-7.14995
 21
-47.419827
  0
LINE
  8
ボルト／ビス
  6
CONTINUOUS
 62
    64
 10
-6.049947
 20
-48.069905
 11
-4.75331
 21
-48.069905
  0
LINE
  8
ボルト／ビス
  6
CONTINUOUS
 62
    64
 10
-6.449945
 20
-47.419827
 11
-6.449945
 21
-47.669908
  0
ARC
  8
ボルト／ビス
  6
CONTINUOUS
 62
    64
 10
-6.049955
 20
-47.6699
 40
0.4
 50
180.0
 51
270.0
  0
LINE
  8
ボルト／ビス
  6
CONTINUOUS
 62
    64
 10
-9.54659
 20
-48.069905
 11
-9.54659
 21
-48.312072
  0
LINE
  8
ボルト／ビス
  6
CONTINUOUS
 62
    64
 10
-7.849947
 20
-47.419827
 11
-7.14995
 21
-47.419827
  0
LINE
  8
ボルト／ビス
  6
CONTINUOUS
 62
    64
 10
-8.249945
 20
-48.069905
 11
-9.54659
 21
-48.069905
  0
LINE
  8
ボルト／ビス
  6
CONTINUOUS
 62
    64
 10
-7.849947
 20
-47.419827
 11
-7.849947
 21
-47.669908
  0
ARC
  8
ボルト／ビス
  6
CONTINUOUS
 62
    64
 10
-8.249955
 20
-47.6699
 40
0.4
 50
270.0
 51
360.0
  0
LINE
  8
ボルト／ビス
  6
CONTINUOUS
 62
    64
 10
-3.649947
 20
-45.85481
 11
-10.649945
 21
-45.85481
  0
LINE
  8
ボルト／ビス
  6
CONTINUOUS
 62
    64
 10
-7.14995
 20
-50.426203
 11
-7.14995
 21
-30.211542
  0
LINE
  8
ボルト／ビス
  6
CONTINUOUS
 62
    64
 10
-5.149947
 20
-32.35481
 11
-5.64995
 21
-31.854815
  0
LINE
  8
ボルト／ビス
  6
CONTINUOUS
 62
    64
 10
-9.149945
 20
-32.35481
 11
-8.64995
 21
-31.854815
  0
LINE
  8
ボルト／ビス
  6
CONTINUOUS
 62
    64
 10
-5.149947
 20
-32.35481
 11
-9.149945
 21
-32.35481
  0
LINE
  8
ボルト／ビス
  6
CONTINUOUS
 62
    64
 10
-5.64995
 20
-31.854815
 11
-8.64995
 21
-31.854815
  0
LINE
  8
ボルト／ビス
  6
CONTINUOUS
 62
    64
 10
-9.149945
 20
-45.85481
 11
-9.149945
 21
-32.35481
  0
LINE
  8
ボルト／ビス
  6
CONTINUOUS
 62
    64
 10
-5.149947
 20
-45.85481
 11
-5.149947
 21
-32.35481
  0
LINE
  8
ボルト／ビス
  6
CONTINUOUS
 62
    64
 10
-5.64995
 20
-45.85481
 11
-5.64995
 21
-31.854815
  0
LINE
  8
ボルト／ビス
  6
CONTINUOUS
 62
    64
 10
-8.64995
 20
-45.85481
 11
-8.64995
 21
-31.854815
  0
ENDBLK
  0
BLOCK
  2
*GRP_0393
 70
    65
 10
0.0
 20
0.0
  0
LINE
  8
ボルト／ビス
  6
CONTINUOUS
 62
    64
 10
-21.149953
 20
-77.454688
 11
-21.05825
 21
-78.50285
  0
ARC
  8
ボルト／ビス
  6
CONTINUOUS
 62
    64
 10
-19.364721
 20
-78.354681
 40
1.7
 50
184.999989
 51
270.0
  0
LINE
  8
ボルト／ビス
  6
CONTINUOUS
 62
    64
 10
-19.36472
 20
-80.05469
 11
-17.64995
 21
-80.05469
  0
LINE
  8
ボルト／ビス
  6
CONTINUOUS
 62
    64
 10
-14.149947
 20
-77.454688
 11
-14.24165
 21
-78.50285
  0
ARC
  8
ボルト／ビス
  6
CONTINUOUS
 62
    64
 10
-15.935188
 20
-78.354681
 40
1.7
 50
270.0
 51
355.000011
  0
LINE
  8
ボルト／ビス
  6
CONTINUOUS
 62
    64
 10
-15.93518
 20
-80.05469
 11
-17.64995
 21
-80.05469
  0
LINE
  8
ボルト／ビス
  6
CONTINUOUS
 62
    64
 10
-20.04659
 20
-79.669783
 11
-20.04659
 21
-79.911942
  0
LINE
  8
ボルト／ビス
  6
CONTINUOUS
 62
    64
 10
-18.349947
 20
-79.019697
 11
-17.64995
 21
-79.019697
  0
LINE
  8
ボルト／ビス
  6
CONTINUOUS
 62
    64
 10
-18.749953
 20
-79.669783
 11
-20.04659
 21
-79.669783
  0
LINE
  8
ボルト／ビス
  6
CONTINUOUS
 62
    64
 10
-18.349947
 20
-79.019697
 11
-18.349947
 21
-79.269785
  0
ARC
  8
ボルト／ビス
  6
CONTINUOUS
 62
    64
 10
-18.749955
 20
-79.269776
 40
0.4
 50
270.0
 51
360.0
  0
LINE
  8
ボルト／ビス
  6
CONTINUOUS
 62
    64
 10
-15.25331
 20
-79.669783
 11
-15.25331
 21
-79.911942
  0
LINE
  8
ボルト／ビス
  6
CONTINUOUS
 62
    64
 10
-16.949953
 20
-79.019697
 11
-17.64995
 21
-79.019697
  0
LINE
  8
ボルト／ビス
  6
CONTINUOUS
 62
    64
 10
-16.549947
 20
-79.669783
 11
-15.25331
 21
-79.669783
  0
LINE
  8
ボルト／ビス
  6
CONTINUOUS
 62
    64
 10
-16.949953
 20
-79.019697
 11
-16.949953
 21
-79.269785
  0
ARC
  8
ボルト／ビス
  6
CONTINUOUS
 62
    64
 10
-16.549955
 20
-79.269776
 40
0.4
 50
180.0
 51
270.0
  0
LINE
  8
ボルト／ビス
  6
CONTINUOUS
 62
    64
 10
-21.149953
 20
-77.454688
 11
-14.149947
 21
-77.454688
  0
LINE
  8
ボルト／ビス
  6
CONTINUOUS
 62
    64
 10
-19.649953
 20
-67.954685
 11
-19.14995
 21
-67.45469
  0
LINE
  8
ボルト／ビス
  6
CONTINUOUS
 62
    64
 10
-15.649947
 20
-67.954685
 11
-16.14995
 21
-67.45469
  0
LINE
  8
ボルト／ビス
  6
CONTINUOUS
 62
    64
 10
-19.649953
 20
-67.954685
 11
-15.649947
 21
-67.954685
  0
LINE
  8
ボルト／ビス
  6
CONTINUOUS
 62
    64
 10
-19.14995
 20
-67.45469
 11
-16.14995
 21
-67.45469
  0
LINE
  8
ボルト／ビス
  6
CONTINUOUS
 62
    64
 10
-17.64995
 20
-82.026073
 11
-17.64995
 21
-65.879817
  0
LINE
  8
ボルト／ビス
  6
CONTINUOUS
 62
    64
 10
-19.649953
 20
-77.454688
 11
-19.649953
 21
-67.954685
  0
LINE
  8
ボルト／ビス
  6
CONTINUOUS
 62
    64
 10
-15.649947
 20
-77.454688
 11
-15.649947
 21
-67.954685
  0
LINE
  8
ボルト／ビス
  6
CONTINUOUS
 62
    64
 10
-16.14995
 20
-77.454688
 11
-16.14995
 21
-67.45469
  0
LINE
  8
ボルト／ビス
  6
CONTINUOUS
 62
    64
 10
-19.14995
 20
-77.454688
 11
-19.14995
 21
-67.45469
  0
ENDBLK
  0
BLOCK
  2
*GRP_0394
 70
    65
 10
0.0
 20
0.0
  0
LINE
  8
ボルト／ビス
  6
CONTINUOUS
 62
    64
 10
-72.649925
 20
-75.55481
 11
-72.558223
 21
-76.602973
  0
ARC
  8
ボルト／ビス
  6
CONTINUOUS
 62
    64
 10
-70.864691
 20
-76.454802
 40
1.7
 50
184.999989
 51
270.0
  0
LINE
  8
ボルト／ビス
  6
CONTINUOUS
 62
    64
 10
-70.864693
 20
-78.154813
 11
-69.149922
 21
-78.154813
  0
LINE
  8
ボルト／ビス
  6
CONTINUOUS
 62
    64
 10
-65.64992
 20
-75.55481
 11
-65.741622
 21
-76.602973
  0
ARC
  8
ボルト／ビス
  6
CONTINUOUS
 62
    64
 10
-67.435158
 20
-76.454802
 40
1.7
 50
270.0
 51
355.000011
  0
LINE
  8
ボルト／ビス
  6
CONTINUOUS
 62
    64
 10
-67.435153
 20
-78.154813
 11
-69.149922
 21
-78.154813
  0
LINE
  8
ボルト／ビス
  6
CONTINUOUS
 62
    64
 10
-71.546562
 20
-77.769905
 11
-71.546562
 21
-78.012065
  0
LINE
  8
ボルト／ビス
  6
CONTINUOUS
 62
    64
 10
-69.84992
 20
-77.11982
 11
-69.149922
 21
-77.11982
  0
LINE
  8
ボルト／ビス
  6
CONTINUOUS
 62
    64
 10
-70.249925
 20
-77.769905
 11
-71.546562
 21
-77.769905
  0
LINE
  8
ボルト／ビス
  6
CONTINUOUS
 62
    64
 10
-69.84992
 20
-77.11982
 11
-69.84992
 21
-77.369908
  0
ARC
  8
ボルト／ビス
  6
CONTINUOUS
 62
    64
 10
-70.249925
 20
-77.369897
 40
0.4
 50
270.0
 51
360.0
  0
LINE
  8
ボルト／ビス
  6
CONTINUOUS
 62
    64
 10
-66.753283
 20
-77.769905
 11
-66.753283
 21
-78.012065
  0
LINE
  8
ボルト／ビス
  6
CONTINUOUS
 62
    64
 10
-68.449925
 20
-77.11982
 11
-69.149922
 21
-77.11982
  0
LINE
  8
ボルト／ビス
  6
CONTINUOUS
 62
    64
 10
-68.04992
 20
-77.769905
 11
-66.753283
 21
-77.769905
  0
LINE
  8
ボルト／ビス
  6
CONTINUOUS
 62
    64
 10
-68.449925
 20
-77.11982
 11
-68.449925
 21
-77.369908
  0
ARC
  8
ボルト／ビス
  6
CONTINUOUS
 62
    64
 10
-68.049925
 20
-77.369897
 40
0.4
 50
180.0
 51
270.0
  0
LINE
  8
ボルト／ビス
  6
CONTINUOUS
 62
    64
 10
-72.649925
 20
-75.55481
 11
-65.64992
 21
-75.55481
  0
LINE
  8
ボルト／ビス
  6
CONTINUOUS
 62
    64
 10
-71.149925
 20
-66.054807
 11
-70.649922
 21
-65.554813
  0
LINE
  8
ボルト／ビス
  6
CONTINUOUS
 62
    64
 10
-67.14992
 20
-66.054807
 11
-67.649922
 21
-65.554813
  0
LINE
  8
ボルト／ビス
  6
CONTINUOUS
 62
    64
 10
-71.149925
 20
-66.054807
 11
-67.14992
 21
-66.054807
  0
LINE
  8
ボルト／ビス
  6
CONTINUOUS
 62
    64
 10
-70.649922
 20
-65.554813
 11
-67.649922
 21
-65.554813
  0
LINE
  8
ボルト／ビス
  6
CONTINUOUS
 62
    64
 10
-69.149922
 20
-80.126195
 11
-69.149922
 21
-63.97994
  0
LINE
  8
ボルト／ビス
  6
CONTINUOUS
 62
    64
 10
-71.149925
 20
-75.55481
 11
-71.149925
 21
-66.054807
  0
LINE
  8
ボルト／ビス
  6
CONTINUOUS
 62
    64
 10
-67.14992
 20
-75.55481
 11
-67.14992
 21
-66.054807
  0
LINE
  8
ボルト／ビス
  6
CONTINUOUS
 62
    64
 10
-67.649922
 20
-75.55481
 11
-67.649922
 21
-65.554813
  0
LINE
  8
ボルト／ビス
  6
CONTINUOUS
 62
    64
 10
-70.649922
 20
-75.55481
 11
-70.649922
 21
-65.554813
  0
ENDBLK
  0
BLOCK
  2
*GRP_0395
 70
    65
 10
0.0
 20
0.0
  0
LINE
  8
ボルト／ビス
  6
CONTINUOUS
 62
    64
 10
-20.549945
 20
-9.854795
 11
-21.049947
 21
-10.354798
  0
LINE
  8
ボルト／ビス
  6
CONTINUOUS
 62
    64
 10
-20.549945
 20
-13.8548
 11
-21.049947
 21
-13.354798
  0
LINE
  8
ボルト／ビス
  6
CONTINUOUS
 62
    64
 10
-21.049947
 20
-10.354798
 11
-21.049947
 21
-13.354798
  0
LINE
  8
ボルト／ビス
  6
CONTINUOUS
 62
    64
 10
-20.549945
 20
-9.854795
 11
-20.549945
 21
-13.8548
  0
LINE
  8
ボルト／ビス
  6
CONTINUOUS
 62
    64
 10
-20.549945
 20
-9.854795
 11
-16.849947
 21
-9.854795
  0
LINE
  8
ボルト／ビス
  6
CONTINUOUS
 62
    64
 10
-21.049947
 20
-10.354798
 11
-16.849947
 21
-10.354798
  0
LINE
  8
ボルト／ビス
  6
CONTINUOUS
 62
    64
 10
-21.049947
 20
-13.354798
 11
-16.849947
 21
-13.354798
  0
LINE
  8
ボルト／ビス
  6
CONTINUOUS
 62
    64
 10
-20.549945
 20
-13.8548
 11
-16.849947
 21
-13.8548
  0
LINE
  8
ボルト／ビス
  6
CONTINUOUS
 62
    64
 10
-16.849947
 20
-9.854795
 11
-16.849947
 21
-13.8548
  0
LINE
  8
ボルト／ビス
  6
CONTINUOUS
 62
    64
 10
-15.049947
 20
-8.854798
 11
-16.849947
 21
-9.854795
  0
LINE
  8
ボルト／ビス
  6
CONTINUOUS
 62
    64
 10
-15.049947
 20
-8.854798
 11
-15.049947
 21
-14.854798
  0
LINE
  8
ボルト／ビス
  6
CONTINUOUS
 62
    64
 10
-15.049947
 20
-14.854798
 11
-16.849947
 21
-13.8548
  0
LINE
  8
ボルト／ビス
  6
CONTINUOUS
 62
    64
 10
-22.630422
 20
-11.854798
 11
-13.566417
 21
-11.854798
  0
ENDBLK
  0
BLOCK
  2
*GRP_0396
 70
    65
 10
0.0
 20
0.0
  0
LINE
  8
ボルト／ビス
  6
CONTINUOUS
 62
    64
 10
-14.64995
 20
9.141423
 11
-13.601787
 21
9.04972
  0
ARC
  8
ボルト／ビス
  6
CONTINUOUS
 62
    64
 10
-13.749952
 20
7.356194
 40
1.7
 50
0.0
 51
85.000011
  0
LINE
  8
ボルト／ビス
  6
CONTINUOUS
 62
    64
 10
-12.049955
 20
7.35619
 11
-12.049955
 21
5.64142
  0
LINE
  8
ボルト／ビス
  6
CONTINUOUS
 62
    64
 10
-14.64995
 20
2.141417
 11
-13.601787
 21
2.23312
  0
ARC
  8
ボルト／ビス
  6
CONTINUOUS
 62
    64
 10
-13.749952
 20
3.92666
 40
1.7
 50
274.999989
 51
360.0
  0
LINE
  8
ボルト／ビス
  6
CONTINUOUS
 62
    64
 10
-12.049955
 20
3.92665
 11
-12.049955
 21
5.64142
  0
LINE
  8
ボルト／ビス
  6
CONTINUOUS
 62
    64
 10
-12.434855
 20
8.03806
 11
-12.192695
 21
8.03806
  0
LINE
  8
ボルト／ビス
  6
CONTINUOUS
 62
    64
 10
-13.08494
 20
6.341417
 11
-13.08494
 21
5.64142
  0
LINE
  8
ボルト／ビス
  6
CONTINUOUS
 62
    64
 10
-12.434855
 20
6.741423
 11
-12.434855
 21
8.03806
  0
LINE
  8
ボルト／ビス
  6
CONTINUOUS
 62
    64
 10
-13.08494
 20
6.341417
 11
-12.83486
 21
6.341417
  0
ARC
  8
ボルト／ビス
  6
CONTINUOUS
 62
    64
 10
-12.834857
 20
6.741427
 40
0.4
 50
270.0
 51
360.0
  0
LINE
  8
ボルト／ビス
  6
CONTINUOUS
 62
    64
 10
-12.434855
 20
3.24478
 11
-12.192695
 21
3.24478
  0
LINE
  8
ボルト／ビス
  6
CONTINUOUS
 62
    64
 10
-13.08494
 20
4.941423
 11
-13.08494
 21
5.64142
  0
LINE
  8
ボルト／ビス
  6
CONTINUOUS
 62
    64
 10
-12.434855
 20
4.541417
 11
-12.434855
 21
3.24478
  0
LINE
  8
ボルト／ビス
  6
CONTINUOUS
 62
    64
 10
-13.08494
 20
4.941423
 11
-12.83486
 21
4.941423
  0
ARC
  8
ボルト／ビス
  6
CONTINUOUS
 62
    64
 10
-12.834857
 20
4.541427
 40
0.4
 50
0.0
 51
90.0
  0
LINE
  8
ボルト／ビス
  6
CONTINUOUS
 62
    64
 10
-14.64995
 20
9.141423
 11
-14.64995
 21
2.141417
  0
LINE
  8
ボルト／ビス
  6
CONTINUOUS
 62
    64
 10
-22.14995
 20
7.641423
 11
-22.649953
 21
7.14142
  0
LINE
  8
ボルト／ビス
  6
CONTINUOUS
 62
    64
 10
-22.14995
 20
3.641417
 11
-22.649953
 21
4.14142
  0
LINE
  8
ボルト／ビス
  6
CONTINUOUS
 62
    64
 10
-14.64995
 20
7.14142
 11
-22.649953
 21
7.14142
  0
LINE
  8
ボルト／ビス
  6
CONTINUOUS
 62
    64
 10
-14.64995
 20
7.641423
 11
-22.14995
 21
7.641423
  0
LINE
  8
ボルト／ビス
  6
CONTINUOUS
 62
    64
 10
-14.64995
 20
4.14142
 11
-22.649953
 21
4.14142
  0
LINE
  8
ボルト／ビス
  6
CONTINUOUS
 62
    64
 10
-14.64995
 20
3.641417
 11
-22.14995
 21
3.641417
  0
LINE
  8
ボルト／ビス
  6
CONTINUOUS
 62
    64
 10
-22.14995
 20
7.641423
 11
-22.14995
 21
3.641417
  0
LINE
  8
ボルト／ビス
  6
CONTINUOUS
 62
    64
 10
-22.649953
 20
7.14142
 11
-22.649953
 21
4.14142
  0
LINE
  8
ボルト／ビス
  6
DASHDOT
 62
    64
 10
-9.049955
 20
5.64142
 11
-25.649953
 21
5.64142
  0
ENDBLK
  0
BLOCK
  2
*GRP_0397
 70
    65
 10
0.0
 20
0.0
  0
LINE
  8
St
  6
CONTINUOUS
 10
-55.455537
 20
-112.65479
 11
-58.65554
 21
-112.65479
  0
LINE
  8
St
  6
CONTINUOUS
 10
-55.455537
 20
-102.654785
 11
-58.65554
 21
-102.654785
  0
LINE
  8
St
  6
CONTINUOUS
 10
-33.732628
 20
-72.654687
 11
-36.932622
 21
-75.85469
  0
LINE
  8
St
  6
CONTINUOUS
 10
-34.439735
 20
-72.654687
 11
-37.63973
 21
-75.85469
  0
LINE
  8
St
  6
CONTINUOUS
 10
-62.3741
 20
-72.654687
 11
-65.574095
 21
-75.85469
  0
LINE
  8
St
  6
CONTINUOUS
 10
-63.081207
 20
-72.654687
 11
-66.281203
 21
-75.85469
  0
LINE
  8
St
  6
CONTINUOUS
 10
-12.649947
 20
-72.654815
 11
-12.649947
 21
-75.85469
  0
ARC
  8
St
  6
CONTINUOUS
 62
   127
 10
-55.455545
 20
-75.85479
 40
3.2
 50
90.0
 51
180.0
  0
LINE
  8
St
  6
CONTINUOUS
 10
-19.899905
 20
-72.654687
 11
-19.899905
 21
-75.85469
  0
LINE
  8
St
  6
CONTINUOUS
 10
-15.399905
 20
-72.654687
 11
-15.399905
 21
-75.85469
  0
LINE
  8
St
  6
CONTINUOUS
 10
-15.399905
 20
-73.45469
 11
-19.899905
 21
-73.45469
  0
LINE
  8
St
  6
CONTINUOUS
 10
-15.399905
 20
-74.254685
 11
-19.899905
 21
-74.254685
  0
LINE
  8
St
  6
CONTINUOUS
 10
-15.399905
 20
-75.054688
 11
-19.899905
 21
-75.054688
  0
LINE
  8
St
  6
CONTINUOUS
 10
-17.649905
 20
-78.905563
 11
-17.649905
 21
-69.432928
  0
LINE
  8
St
  6
CONTINUOUS
 10
-71.399878
 20
-72.654807
 11
-71.399878
 21
-75.85481
  0
LINE
  8
St
  6
CONTINUOUS
 10
-66.899878
 20
-72.654807
 11
-66.899878
 21
-75.85481
  0
LINE
  8
St
  6
CONTINUOUS
 10
-66.899878
 20
-73.45481
 11
-71.399878
 21
-73.45481
  0
LINE
  8
St
  6
CONTINUOUS
 10
-66.899878
 20
-74.254805
 11
-71.399878
 21
-74.254805
  0
LINE
  8
St
  6
CONTINUOUS
 10
-66.899878
 20
-75.054807
 11
-71.399878
 21
-75.054807
  0
LINE
  8
St
  6
CONTINUOUS
 10
-69.149878
 20
-78.905682
 11
-69.149878
 21
-69.433047
  0
LINE
  8
St
  6
CONTINUOUS
 10
-50.283875
 20
-107.654788
 11
-64.121053
 21
-107.654788
  0
LINE
  8
St
  6
CONTINUOUS
 10
-55.455537
 20
-122.65469
 11
-58.65554
 21
-122.65469
  0
LINE
  8
St
  6
CONTINUOUS
 62
   127
 10
-55.455537
 20
-75.854803
 11
-55.455537
 21
-122.65469
  0
LINE
  8
St
  6
CONTINUOUS
 62
   127
 10
-58.65554
 20
-75.854803
 11
-58.65554
 21
-122.65469
  0
LINE
  8
St
  6
CONTINUOUS
 62
   127
 10
-56.25554
 20
-102.654785
 11
-56.25554
 21
-112.65479
  0
LINE
  8
St
  6
CONTINUOUS
 62
   127
 10
-57.055535
 20
-102.654785
 11
-57.055535
 21
-112.65479
  0
LINE
  8
St
  6
CONTINUOUS
 62
   127
 10
-57.855537
 20
-102.654785
 11
-57.855537
 21
-112.65479
  0
LINE
  8
St
  6
CONTINUOUS
 62
   127
 10
-12.649947
 20
-75.85469
 11
-74.149955
 21
-75.85481
  0
LINE
  8
St
  6
CONTINUOUS
 62
   127
 10
-74.149955
 20
-75.85481
 11
-74.149947
 21
-72.654807
  0
LINE
  8
St
  6
CONTINUOUS
 62
   127
 10
-12.649947
 20
-72.654687
 11
-74.149947
 21
-72.654807
  0
ENDBLK
  0
BLOCK
  2
*DIM_0398
 70
    65
 10
0.0
 20
0.0
  0
LINE
  8
寸法
  6
CONTINUOUS
 10
-5.64995
 20
43.652368
 11
-5.64995
 21
115.95727
  0
LINE
  8
寸法
  6
CONTINUOUS
 10
-100.649945
 20
-56.354807
 11
-100.649945
 21
115.95727
  0
LINE
  8
寸法
  6
CONTINUOUS
 10
-5.64995
 20
115.95727
 11
-100.649945
 21
115.95727
  0
POINT
  8
寸法
 10
-5.64995
 20
115.95727
  0
POINT
  8
寸法
 10
-100.649945
 20
115.95727
  0
TEXT
  7
TextStyle03
  8
寸法
  6
CONTINUOUS
 10
-55.275
 20
116.35
  1
95
 40
4.0
 72
     5
 11
-51.025
 21
116.35
  0
ENDBLK
  0
BLOCK
  2
*DIM_0399
 70
    65
 10
0.0
 20
0.0
  0
LINE
  8
寸法
  6
CONTINUOUS
 10
-5.64995
 20
44.652368
 11
-5.64995
 21
107.594062
  0
LINE
  8
寸法
  6
CONTINUOUS
 10
-55.649945
 20
43.652368
 11
-55.649945
 21
107.594062
  0
LINE
  8
寸法
  6
CONTINUOUS
 10
-5.64995
 20
107.594062
 11
-55.649945
 21
107.594062
  0
POINT
  8
寸法
 10
-5.64995
 20
107.594062
  0
POINT
  8
寸法
 10
-55.649945
 20
107.594062
  0
TEXT
  7
TextStyle03
  8
寸法
  6
CONTINUOUS
 10
-32.775
 20
107.975
  1
50
 40
4.0
 72
     5
 11
-28.525
 21
107.975
  0
ENDBLK
  0
BLOCK
  2
*DIM_0400
 70
    65
 10
0.0
 20
0.0
  0
LINE
  8
寸法
  6
CONTINUOUS
 10
-100.649945
 20
-56.354807
 11
-100.649945
 21
107.594062
  0
LINE
  8
寸法
  6
CONTINUOUS
 10
-55.649945
 20
107.594062
 11
-100.649945
 21
107.594062
  0
POINT
  8
寸法
 10
-100.649945
 20
107.594062
  0
TEXT
  7
TextStyle03
  8
寸法
  6
CONTINUOUS
 10
-80.275
 20
107.975
  1
45
 40
4.0
 72
     5
 11
-76.025
 21
107.975
  0
ENDBLK
  0
BLOCK
  2
*DIM_0401
 70
    65
 10
0.0
 20
0.0
  0
LINE
  8
寸法
  6
CONTINUOUS
 10
29.350052
 20
-18.354805
 11
29.350052
 21
107.594062
  0
LINE
  8
寸法
  6
CONTINUOUS
 10
-5.64995
 20
107.594062
 11
29.350052
 21
107.594062
  0
POINT
  8
寸法
 10
-5.64995
 20
107.594062
  0
POINT
  8
寸法
 10
29.350052
 20
107.594062
  0
TEXT
  7
TextStyle03
  8
寸法
  6
CONTINUOUS
 10
9.725
 20
107.975
  1
35
 40
4.0
 72
     5
 11
13.975
 21
107.975
  0
ENDBLK
  0
BLOCK
  2
*DIM_0402
 70
    65
 10
0.0
 20
0.0
  0
LINE
  8
寸法
  6
CONTINUOUS
 10
-5.64995
 20
43.652368
 11
-5.64995
 21
99.219533
  0
LINE
  8
寸法
  6
CONTINUOUS
 10
-25.649955
 20
48.652377
 11
-25.649955
 21
99.219533
  0
LINE
  8
寸法
  6
CONTINUOUS
 10
-5.64995
 20
99.219533
 11
-25.649955
 21
99.219533
  0
POINT
  8
寸法
 10
-5.64995
 20
99.219533
  0
POINT
  8
寸法
 10
-25.649955
 20
99.219533
  0
TEXT
  7
TextStyle03
  8
寸法
  6
CONTINUOUS
 10
-17.775
 20
99.6
  1
20
 40
4.0
 72
     5
 11
-13.525
 21
99.6
  0
ENDBLK
  0
BLOCK
  2
*DIM_0403
 70
    65
 10
0.0
 20
0.0
  0
LINE
  8
寸法
  6
CONTINUOUS
 10
-55.649945
 20
43.652368
 11
-55.649945
 21
99.219533
  0
LINE
  8
寸法
  6
CONTINUOUS
 10
-25.649955
 20
99.219533
 11
-55.649945
 21
99.219533
  0
POINT
  8
寸法
 10
-55.649945
 20
99.219533
  0
TEXT
  7
TextStyle03
  8
寸法
  6
CONTINUOUS
 10
-42.775
 20
99.6
  1
30
 40
4.0
 72
     5
 11
-38.525
 21
99.6
  0
ENDBLK
  0
BLOCK
  2
*DIM_0404
 70
    65
 10
0.0
 20
0.0
  0
LINE
  8
寸法
  6
CONTINUOUS
 10
-76.649947
 20
-82.354805
 11
-160.459923
 21
-82.354805
  0
LINE
  8
寸法
  6
CONTINUOUS
 10
-101.649945
 20
-72.354807
 11
-160.459923
 21
-72.354807
  0
LINE
  8
寸法
  6
CONTINUOUS
 10
-160.459923
 20
-82.354805
 11
-160.459923
 21
-72.354807
  0
POINT
  8
寸法
 10
-160.459923
 20
-82.354805
  0
POINT
  8
寸法
 10
-160.459923
 20
-72.354807
  0
TEXT
  7
TextStyle03
  8
寸法
  6
CONTINUOUS
 10
-160.825
 20
-79.475
  1
10
 40
4.0
 50
90.0
 72
     5
 11
-160.825
 21
-75.225
  0
ENDBLK
  0
BLOCK
  2
*DIM_0405
 70
    65
 10
0.0
 20
0.0
  0
LINE
  8
寸法
  6
CONTINUOUS
 10
-56.649945
 20
42.652368
 11
-160.459923
 21
42.652368
  0
LINE
  8
寸法
  6
CONTINUOUS
 10
-160.459923
 20
-72.354807
 11
-160.459923
 21
42.652368
  0
POINT
  8
寸法
 10
-160.459923
 20
42.652368
  0
TEXT
  7
TextStyle03
  8
寸法
  6
CONTINUOUS
 10
-160.825
 20
-18.1
  1
115
 40
4.0
 50
90.0
 72
     5
 11
-160.825
 21
-11.6
  0
ENDBLK
  0
BLOCK
  2
*DIM_0406
 70
    65
 10
0.0
 20
0.0
  0
LINE
  8
寸法
  6
CONTINUOUS
 10
-56.649945
 20
42.652368
 11
-152.224475
 21
42.652368
  0
LINE
  8
寸法
  6
CONTINUOUS
 10
-68.649922
 20
12.652368
 11
-152.224475
 21
12.652368
  0
LINE
  8
寸法
  6
CONTINUOUS
 10
-152.224475
 20
42.652368
 11
-152.224475
 21
12.652368
  0
POINT
  8
寸法
 10
-152.224475
 20
42.652368
  0
POINT
  8
寸法
 10
-152.224475
 20
12.652368
  0
TEXT
  7
TextStyle03
  8
寸法
  6
CONTINUOUS
 10
-152.6
 20
25.525
  1
30
 40
4.0
 50
90.0
 72
     5
 11
-152.6
 21
29.775
  0
ENDBLK
  0
BLOCK
  2
*DIM_0407
 70
    65
 10
0.0
 20
0.0
  0
LINE
  8
寸法
  6
CONTINUOUS
 10
-101.649945
 20
-57.354807
 11
-152.224475
 21
-57.354807
  0
LINE
  8
寸法
  6
CONTINUOUS
 10
-152.224475
 20
12.652368
 11
-152.224475
 21
-57.354807
  0
POINT
  8
寸法
 10
-152.224475
 20
-57.354807
  0
TEXT
  7
TextStyle03
  8
寸法
  6
CONTINUOUS
 10
-152.6
 20
-24.475
  1
70
 40
4.0
 50
90.0
 72
     5
 11
-152.6
 21
-20.225
  0
ENDBLK
  0
BLOCK
  2
*DIM_0408
 70
    65
 10
0.0
 20
0.0
  0
LINE
  8
寸法
  6
CONTINUOUS
 10
-101.649945
 20
-72.354807
 11
-152.224475
 21
-72.354807
  0
LINE
  8
寸法
  6
CONTINUOUS
 10
-152.224475
 20
-57.354807
 11
-152.224475
 21
-72.354807
  0
POINT
  8
寸法
 10
-152.224475
 20
-72.354807
  0
TEXT
  7
TextStyle03
  8
寸法
  6
CONTINUOUS
 10
-152.6
 20
-66.975
  1
15
 40
4.0
 50
90.0
 72
     5
 11
-152.6
 21
-62.725
  0
ENDBLK
  0
BLOCK
  2
*DIM_0409
 70
    65
 10
0.0
 20
0.0
  0
LINE
  8
寸法
  6
CONTINUOUS
 10
-101.649945
 20
-57.354807
 11
-144.871755
 21
-57.354807
  0
LINE
  8
寸法
  6
CONTINUOUS
 10
-46.649947
 20
-52.354805
 11
-144.871755
 21
-52.354805
  0
LINE
  8
寸法
  6
CONTINUOUS
 10
-144.871755
 20
-57.354807
 11
-144.871755
 21
-52.354805
  0
POINT
  8
寸法
 10
-144.871755
 20
-57.354807
  0
POINT
  8
寸法
 10
-144.871755
 20
-52.354805
  0
TEXT
  7
TextStyle03
  8
寸法
  6
CONTINUOUS
 10
-145.225
 20
-55.85
  1
5
 40
4.0
 50
90.0
 72
     5
 11
-145.225
 21
-53.85
  0
ENDBLK
  0
BLOCK
  2
*DIM_0410
 70
    65
 10
0.0
 20
0.0
  0
LINE
  8
寸法
  6
CONTINUOUS
 10
-11.649947
 20
-72.654815
 11
90.986967
 21
-72.654815
  0
LINE
  8
寸法
  6
CONTINUOUS
 10
30.350052
 20
-29.854805
 11
90.986967
 21
-29.854805
  0
LINE
  8
寸法
  6
CONTINUOUS
 10
90.986967
 20
-72.654815
 11
90.986967
 21
-29.854805
  0
POINT
  8
寸法
 10
90.986967
 20
-72.654815
  0
POINT
  8
寸法
 10
90.986967
 20
-29.854805
  0
TEXT
  7
TextStyle03
  8
寸法
  6
CONTINUOUS
 10
90.625
 20
-55.625
  1
42.8
 40
4.0
 50
90.0
 72
     5
 11
90.625
 21
-46.875
  0
ENDBLK
  0
BLOCK
  2
*DIM_0411
 70
    65
 10
0.0
 20
0.0
  0
LINE
  8
寸法
  6
CONTINUOUS
 10
30.350052
 20
-19.354805
 11
90.986967
 21
-19.354805
  0
LINE
  8
寸法
  6
CONTINUOUS
 10
90.986967
 20
-29.854805
 11
90.986967
 21
-19.354805
  0
POINT
  8
寸法
 10
90.986967
 20
-19.354805
  0
TEXT
  7
TextStyle03
  8
寸法
  6
CONTINUOUS
 10
90.625
 20
-28.975
  1
10.5
 40
4.0
 50
90.0
 72
     5
 11
90.625
 21
-20.225
  0
ENDBLK
  0
BLOCK
  2
*GRP_0412
 70
    65
 10
0.0
 20
0.0
  0
POLYLINE
  8
寸法
  6
BYBLOCK
 62
     0
 66
     1
  0
VERTEX
  8
寸法
 10
3.916083
 20
56.178485
  0
VERTEX
  8
寸法
 10
13.684705
 20
46.409863
  0
VERTEX
  8
寸法
 10
25.363532
 20
46.409863
  0
SEQEND
  0
ENDBLK
  0
BLOCK
  2
*GRP_0413
 70
    65
 10
0.0
 20
0.0
  0
LINE
  8
寸法
  6
CONTINUOUS
 10
13.684705
 20
46.409863
 11
5.198773
 21
48.526395
  0
ENDBLK
  0
BLOCK
  2
*GRP_0414
 70
    65
 10
0.0
 20
0.0
  0
POLYLINE
  8
寸法
  6
BYBLOCK
 62
     0
 66
     1
  0
VERTEX
  8
寸法
 10
-33.980303
 20
39.123385
  0
VERTEX
  8
寸法
 10
-42.871645
 20
60.74705
  0
VERTEX
  8
寸法
 10
-58.594285
 20
60.74705
  0
SEQEND
  0
ENDBLK
  0
BLOCK
  2
*GRP_0415
 70
    65
 10
0.0
 20
0.0
  0
LINE
  8
寸法
  6
BYBLOCK
 62
     0
 10
-36.36912
 20
33.645197
 11
-42.871645
 21
60.74705
  0
ENDBLK
  0
BLOCK
  2
*GRP_0416
 70
    65
 10
0.0
 20
0.0
  0
POLYLINE
  8
寸法
  6
BYBLOCK
 62
     0
 66
     1
  0
VERTEX
  8
寸法
 10
-26.42346
 20
47.652377
  0
VERTEX
  8
寸法
 10
-35.26678
 20
68.419032
  0
VERTEX
  8
寸法
 10
-58.945457
 20
68.419032
  0
SEQEND
  0
ENDBLK
  0
BLOCK
  2
*GRP_0417
 70
    65
 10
0.0
 20
0.0
  0
POLYLINE
  8
寸法
  6
BYBLOCK
 62
     0
 66
     1
  0
VERTEX
  8
寸法
 10
-45.649947
 20
-48.054807
  0
VERTEX
  8
寸法
 10
-48.725575
 20
-44.97918
  0
VERTEX
  8
寸法
 10
-58.275015
 20
-44.97918
  0
SEQEND
  0
ENDBLK
  0
BLOCK
  2
*GRP_0418
 70
    65
 10
0.0
 20
0.0
  0
POLYLINE
  8
寸法
  6
BYBLOCK
 62
     0
 66
     1
  0
VERTEX
  8
寸法
 10
-37.851545
 20
23.456585
  0
VERTEX
  8
寸法
 10
-52.771953
 20
5.937708
  0
VERTEX
  8
寸法
 10
-56.476035
 20
5.937708
  0
SEQEND
  0
ENDBLK
  0
BLOCK
  2
*GRP_0419
 70
    65
 10
0.0
 20
0.0
  0
POLYLINE
  8
寸法
  6
BYBLOCK
 62
     0
 66
     1
  0
VERTEX
  8
寸法
 10
-3.679432
 20
-39.434785
  0
VERTEX
  8
寸法
 10
14.5368
 20
-57.651018
  0
VERTEX
  8
寸法
 10
28.937318
 20
-57.651018
  0
SEQEND
  0
ENDBLK
  0
BLOCK
  2
*GRP_0421
 70
    65
 10
0.0
 20
0.0
  0
POLYLINE
  8
寸法
  6
BYBLOCK
 62
     0
 66
     1
  0
VERTEX
  8
寸法
 10
34.554035
 20
7.22956
  0
VERTEX
  8
寸法
 10
40.302865
 20
12.97839
  0
VERTEX
  8
寸法
 10
42.570873
 20
12.97839
  0
SEQEND
  0
ENDBLK
  0
BLOCK
  2
*GRP_0422
 70
    65
 10
0.0
 20
0.0
  0
LINE
  8
ゴム等
  6
CONTINUOUS
 10
3.150078
 20
15.641403
 11
13.150052
 21
15.641403
  0
LINE
  8
ゴム等
  6
CONTINUOUS
 10
3.150078
 20
9.443748
 11
13.150052
 21
9.443748
  0
LINE
  8
ゴム等
  6
CONTINUOUS
 10
3.150078
 20
15.641403
 11
3.150078
 21
9.443748
  0
LINE
  8
ゴム等
  6
CONTINUOUS
 10
13.150052
 20
15.641403
 11
13.150052
 21
9.443748
  0
LINE
  8
ゴム等
  6
CONTINUOUS
 10
4.236828
 20
9.443748
 11
3.150078
 21
10.530528
  0
LINE
  8
ゴム等
  6
CONTINUOUS
 10
5.65105
 20
9.443748
 11
3.150078
 21
11.944728
  0
LINE
  8
ゴム等
  6
CONTINUOUS
 10
7.06525
 20
9.443748
 11
3.150078
 21
13.35895
  0
LINE
  8
ゴム等
  6
CONTINUOUS
 10
8.47948
 20
9.443748
 11
3.150078
 21
14.77315
  0
LINE
  8
ゴム等
  6
CONTINUOUS
 10
9.893702
 20
9.443748
 11
3.696055
 21
15.641403
  0
LINE
  8
ゴム等
  6
CONTINUOUS
 10
11.307902
 20
9.443748
 11
5.110255
 21
15.641403
  0
LINE
  8
ゴム等
  6
CONTINUOUS
 10
12.722103
 20
9.443748
 11
6.524477
 21
15.641403
  0
LINE
  8
ゴム等
  6
CONTINUOUS
 10
13.150052
 20
10.430027
 11
7.938678
 21
15.641403
  0
LINE
  8
ゴム等
  6
CONTINUOUS
 10
13.150052
 20
11.844227
 11
9.3529
 21
15.641403
  0
LINE
  8
ゴム等
  6
CONTINUOUS
 10
13.150052
 20
13.25845
 11
10.7671
 21
15.641403
  0
LINE
  8
ゴム等
  6
CONTINUOUS
 10
12.18133
 20
15.641403
 11
13.150052
 21
14.67265
  0
ENDBLK
  0
BLOCK
  2
*DIM_0423
 70
    65
 10
0.0
 20
0.0
  0
LINE
  8
寸法
  6
CONTINUOUS
 10
-100.649945
 20
-73.354807
 11
-100.649945
 21
-95.018288
  0
LINE
  8
寸法
  6
CONTINUOUS
 10
-75.649947
 20
-83.354805
 11
-75.649947
 21
-95.018288
  0
LINE
  8
寸法
  6
CONTINUOUS
 10
-100.649945
 20
-95.018288
 11
-75.649947
 21
-95.018288
  0
POINT
  8
寸法
 10
-100.649945
 20
-95.018288
  0
POINT
  8
寸法
 10
-75.649947
 20
-95.018288
  0
TEXT
  7
TextStyle03
  8
寸法
  6
CONTINUOUS
 10
-90.275
 20
-94.65
  1
25
 40
4.0
 72
     5
 11
-86.025
 21
-94.65
  0
ENDBLK
  0
BLOCK
  2
*GRP_0424
 70
    65
 10
0.0
 20
0.0
  0
POLYLINE
  8
寸法
  6
CONTINUOUS
 66
     1
  0
VERTEX
  8
寸法
 10
3.125665
 20
-5.958583
  0
VERTEX
  8
寸法
 10
8.679322
 20
-11.51224
  0
VERTEX
  8
寸法
 10
38.122365
 20
-11.51224
  0
SEQEND
  0
ENDBLK
  0
BLOCK
  2
*GRP_0425
 70
    65
 10
0.0
 20
0.0
  0
POLYLINE
  8
寸法
  6
CONTINUOUS
 66
     1
  0
VERTEX
  8
寸法
 10
-0.54995
 20
-61.687622
  0
VERTEX
  8
寸法
 10
17.909238
 20
-80.146813
  0
VERTEX
  8
寸法
 10
28.133907
 20
-80.146813
  0
SEQEND
  0
ENDBLK
  0
BLOCK
  2
*GRP_0428
 70
    65
 10
0.0
 20
0.0
  0
LINE
  8
型材断面
  6
CONTINUOUS
 10
-3.649947
 20
-42.354807
 11
-4.399947
 21
-42.354807
  0
LINE
  8
型材断面
  6
CONTINUOUS
 10
-4.399947
 20
-42.354807
 11
-4.199945
 21
-41.35481
  0
LINE
  8
型材断面
  6
CONTINUOUS
 10
-4.199945
 20
-41.35481
 11
0.850052
 21
-41.35481
  0
LINE
  8
型材断面
  6
CONTINUOUS
 10
0.850052
 20
-41.35481
 11
0.850052
 21
-45.85481
  0
LINE
  8
型材断面
  6
CONTINUOUS
 10
0.850052
 20
-45.85481
 11
-0.349947
 21
-45.85481
  0
LINE
  8
型材断面
  6
CONTINUOUS
 10
-0.349947
 20
-45.85481
 11
-0.349947
 21
-42.854803
  0
LINE
  8
型材断面
  6
CONTINUOUS
 10
-0.349947
 20
-42.854803
 11
-2.149947
 21
-42.854803
  0
LINE
  8
型材断面
  6
CONTINUOUS
 10
-2.149947
 20
-42.854803
 11
-2.149947
 21
-45.85481
  0
LINE
  8
型材断面
  6
CONTINUOUS
 10
-2.149947
 20
-45.85481
 11
-6.84995
 21
-45.85481
  0
LINE
  8
型材断面
  6
CONTINUOUS
 10
-6.84995
 20
-45.85481
 11
-7.14995
 21
-45.554803
  0
LINE
  8
型材断面
  6
CONTINUOUS
 10
-7.14995
 20
-45.554803
 11
-7.449942
 21
-45.85481
  0
LINE
  8
型材断面
  6
CONTINUOUS
 10
-7.449942
 20
-45.85481
 11
-12.649947
 21
-45.85481
  0
LINE
  8
型材断面
  6
CONTINUOUS
 10
-12.649947
 20
-45.85481
 11
-12.649947
 21
-72.654815
  0
LINE
  8
型材断面
  6
CONTINUOUS
 10
-12.649947
 20
-72.654815
 11
-17.349942
 21
-72.654815
  0
LINE
  8
型材断面
  6
CONTINUOUS
 10
-17.349942
 20
-72.654815
 11
-17.64995
 21
-72.354807
  0
LINE
  8
型材断面
  6
CONTINUOUS
 10
-17.64995
 20
-72.354807
 11
-17.94995
 21
-72.654815
  0
LINE
  8
型材断面
  6
CONTINUOUS
 10
-17.94995
 20
-72.654815
 11
-22.649945
 21
-72.654815
  0
LINE
  8
型材断面
  6
CONTINUOUS
 10
-22.649945
 20
-72.654815
 11
-22.649945
 21
-70.654805
  0
LINE
  8
型材断面
  6
CONTINUOUS
 10
-22.649945
 20
-70.654805
 11
-14.34995
 21
-70.654805
  0
LINE
  8
型材断面
  6
CONTINUOUS
 10
-14.34995
 20
-70.654805
 11
-14.34995
 21
-54.054807
  0
LINE
  8
型材断面
  6
CONTINUOUS
 10
-14.34995
 20
-54.054807
 11
-45.57284
 21
-54.054807
  0
LINE
  8
型材断面
  6
CONTINUOUS
 10
-45.57284
 20
-54.054807
 11
-98.94995
 21
-58.90727
  0
LINE
  8
型材断面
  6
CONTINUOUS
 10
-98.94995
 20
-58.90727
 11
-98.94995
 21
-70.654805
  0
LINE
  8
型材断面
  6
CONTINUOUS
 10
-98.94995
 20
-70.654805
 11
-64.14995
 21
-70.654805
  0
LINE
  8
型材断面
  6
CONTINUOUS
 10
-64.14995
 20
-70.654805
 11
-64.14995
 21
-72.654815
  0
LINE
  8
型材断面
  6
CONTINUOUS
 10
-64.14995
 20
-72.654815
 11
-68.849945
 21
-72.654815
  0
LINE
  8
型材断面
  6
CONTINUOUS
 10
-68.849945
 20
-72.654815
 11
-69.149945
 21
-72.354807
  0
LINE
  8
型材断面
  6
CONTINUOUS
 10
-69.149945
 20
-72.354807
 11
-69.449953
 21
-72.654815
  0
LINE
  8
型材断面
  6
CONTINUOUS
 10
-69.449953
 20
-72.654815
 11
-74.149947
 21
-72.654815
  0
LINE
  8
型材断面
  6
CONTINUOUS
 10
-74.149947
 20
-72.654815
 11
-74.149947
 21
-82.354805
  0
LINE
  8
型材断面
  6
CONTINUOUS
 10
-74.149947
 20
-82.354805
 11
-75.649947
 21
-82.354805
  0
LINE
  8
型材断面
  6
CONTINUOUS
 10
-75.649947
 20
-82.354805
 11
-75.649947
 21
-72.354807
  0
LINE
  8
型材断面
  6
CONTINUOUS
 10
-75.649947
 20
-72.354807
 11
-100.649945
 21
-72.354807
  0
LINE
  8
型材断面
  6
CONTINUOUS
 10
-100.649945
 20
-72.354807
 11
-100.649945
 21
-57.354807
  0
LINE
  8
型材断面
  6
CONTINUOUS
 10
-100.649945
 20
-57.354807
 11
-45.649947
 21
-52.354805
  0
LINE
  8
型材断面
  6
CONTINUOUS
 10
-45.649947
 20
-52.354805
 11
-45.649947
 21
-48.654807
  0
LINE
  8
型材断面
  6
CONTINUOUS
 10
-45.649947
 20
-48.654807
 11
-45.349947
 21
-48.354815
  0
LINE
  8
型材断面
  6
CONTINUOUS
 10
-45.349947
 20
-48.354815
 11
-45.649947
 21
-48.054807
  0
LINE
  8
型材断面
  6
CONTINUOUS
 10
-45.649947
 20
-48.054807
 11
-45.649947
 21
-1.854792
  0
LINE
  8
型材断面
  6
CONTINUOUS
 10
-45.649947
 20
-1.854792
 11
-41.649942
 21
2.145197
  0
LINE
  8
型材断面
  6
CONTINUOUS
 10
-41.649942
 20
2.145197
 11
-41.649942
 21
26.845195
  0
LINE
  8
型材断面
  6
CONTINUOUS
 10
-41.649942
 20
26.845195
 11
-41.34995
 21
27.145195
  0
LINE
  8
型材断面
  6
CONTINUOUS
 10
-41.34995
 20
27.145195
 11
-41.649942
 21
27.445195
  0
LINE
  8
型材断面
  6
CONTINUOUS
 10
-41.649942
 20
27.445195
 11
-41.649942
 21
32.145197
  0
LINE
  8
型材断面
  6
CONTINUOUS
 10
-41.649942
 20
32.145197
 11
-39.949947
 21
32.145197
  0
LINE
  8
型材断面
  6
CONTINUOUS
 10
-39.949947
 20
32.145197
 11
-39.949947
 21
1.441045
  0
LINE
  8
型材断面
  6
CONTINUOUS
 10
-39.949947
 20
1.441045
 11
-43.949953
 21
-2.55896
  0
LINE
  8
型材断面
  6
CONTINUOUS
 10
-43.949953
 20
-2.55896
 11
-43.949953
 21
-52.354805
  0
LINE
  8
型材断面
  6
CONTINUOUS
 10
-43.949953
 20
-52.354805
 11
-14.34995
 21
-52.354805
  0
LINE
  8
型材断面
  6
CONTINUOUS
 10
-14.34995
 20
-52.354805
 11
-14.34995
 21
-41.35481
  0
LINE
  8
型材断面
  6
CONTINUOUS
 10
-14.34995
 20
-41.35481
 11
-10.099947
 21
-41.35481
  0
LINE
  8
型材断面
  6
CONTINUOUS
 10
-10.099947
 20
-41.35481
 11
-9.899953
 21
-42.354807
  0
LINE
  8
型材断面
  6
CONTINUOUS
 10
-9.899953
 20
-42.354807
 11
-12.649947
 21
-42.354807
  0
LINE
  8
型材断面
  6
CONTINUOUS
 10
-12.649947
 20
-42.354807
 11
-12.649947
 21
-44.354803
  0
LINE
  8
型材断面
  6
CONTINUOUS
 10
-12.649947
 20
-44.354803
 11
-3.649947
 21
-44.354803
  0
LINE
  8
型材断面
  6
CONTINUOUS
 10
-3.649947
 20
-44.354803
 11
-3.649947
 21
-42.354807
  0
ENDBLK
  0
BLOCK
  2
*GRP_0429
 70
    65
 10
0.0
 20
0.0
  0
LINE
  8
型材断面
  6
CONTINUOUS
 10
-3.649947
 20
-34.354805
 11
-3.649947
 21
-29.854805
  0
LINE
  8
型材断面
  6
CONTINUOUS
 10
-3.649947
 20
-29.854805
 11
-32.94995
 21
-29.854805
  0
LINE
  8
型材断面
  6
CONTINUOUS
 10
-32.94995
 20
-29.854805
 11
-32.94995
 21
-36.3548
  0
LINE
  8
型材断面
  6
CONTINUOUS
 10
-32.94995
 20
-36.3548
 11
-36.449945
 21
-36.3548
  0
LINE
  8
型材断面
  6
CONTINUOUS
 10
-36.449945
 20
-36.3548
 11
-36.449945
 21
-34.854807
  0
LINE
  8
型材断面
  6
CONTINUOUS
 10
-36.449945
 20
-34.854807
 11
-34.949945
 21
-34.854807
  0
LINE
  8
型材断面
  6
CONTINUOUS
 10
-34.949945
 20
-34.854807
 11
-34.949945
 21
-24.154805
  0
LINE
  8
型材断面
  6
CONTINUOUS
 10
-34.949945
 20
-24.154805
 11
-34.649945
 21
-23.854805
  0
LINE
  8
型材断面
  6
CONTINUOUS
 10
-34.649945
 20
-23.854805
 11
-34.949945
 21
-23.554813
  0
LINE
  8
型材断面
  6
CONTINUOUS
 10
-34.949945
 20
-23.554813
 11
-34.949945
 21
15.14519
  0
LINE
  8
型材断面
  6
CONTINUOUS
 10
-34.949945
 20
15.14519
 11
-36.449945
 21
15.14519
  0
LINE
  8
型材断面
  6
CONTINUOUS
 10
-36.449945
 20
15.14519
 11
-36.449945
 21
16.645197
  0
LINE
  8
型材断面
  6
CONTINUOUS
 10
-36.449945
 20
16.645197
 11
-34.949945
 21
16.645197
  0
LINE
  8
型材断面
  6
CONTINUOUS
 10
-34.949945
 20
16.645197
 11
-34.949945
 21
26.845195
  0
LINE
  8
型材断面
  6
CONTINUOUS
 10
-34.949945
 20
26.845195
 11
-34.649945
 21
27.145195
  0
LINE
  8
型材断面
  6
CONTINUOUS
 10
-34.649945
 20
27.145195
 11
-34.949945
 21
27.445195
  0
LINE
  8
型材断面
  6
CONTINUOUS
 10
-34.949945
 20
27.445195
 11
-34.949945
 21
32.145197
  0
LINE
  8
型材断面
  6
CONTINUOUS
 10
-34.949945
 20
32.145197
 11
-25.949953
 21
32.145197
  0
LINE
  8
型材断面
  6
CONTINUOUS
 10
-25.949953
 20
32.145197
 11
-25.649953
 21
31.84519
  0
LINE
  8
型材断面
  6
CONTINUOUS
 10
-25.649953
 20
31.84519
 11
-25.349945
 21
32.145197
  0
LINE
  8
型材断面
  6
CONTINUOUS
 10
-25.349945
 20
32.145197
 11
-16.649945
 21
32.145197
  0
LINE
  8
型材断面
  6
CONTINUOUS
 10
-16.649945
 20
32.145197
 11
-16.649945
 21
-27.85481
  0
LINE
  8
型材断面
  6
CONTINUOUS
 10
-16.649945
 20
-27.85481
 11
27.850052
 21
-27.85481
  0
LINE
  8
型材断面
  6
CONTINUOUS
 10
27.850052
 20
-27.85481
 11
27.850052
 21
-19.354805
  0
LINE
  8
型材断面
  6
CONTINUOUS
 10
27.850052
 20
-19.354805
 11
29.350052
 21
-19.354805
  0
LINE
  8
型材断面
  6
CONTINUOUS
 10
29.350052
 20
-19.354805
 11
29.350052
 21
-29.854805
  0
LINE
  8
型材断面
  6
CONTINUOUS
 10
29.350052
 20
-29.854805
 11
-2.149947
 21
-29.854805
  0
LINE
  8
型材断面
  6
CONTINUOUS
 10
-2.149947
 20
-29.854805
 11
-2.149947
 21
-34.854807
  0
LINE
  8
型材断面
  6
CONTINUOUS
 10
-2.149947
 20
-34.854807
 11
0.850052
 21
-34.854807
  0
LINE
  8
型材断面
  6
CONTINUOUS
 10
0.850052
 20
-34.854807
 11
0.850052
 21
-36.3548
  0
LINE
  8
型材断面
  6
CONTINUOUS
 10
0.850052
 20
-36.3548
 11
-6.84995
 21
-36.3548
  0
LINE
  8
型材断面
  6
CONTINUOUS
 10
-6.84995
 20
-36.3548
 11
-7.14995
 21
-36.054807
  0
LINE
  8
型材断面
  6
CONTINUOUS
 10
-7.14995
 20
-36.054807
 11
-7.449942
 21
-36.3548
  0
LINE
  8
型材断面
  6
CONTINUOUS
 10
-7.449942
 20
-36.3548
 11
-14.34995
 21
-36.3548
  0
LINE
  8
型材断面
  6
CONTINUOUS
 10
-14.34995
 20
-36.3548
 11
-14.34995
 21
-34.354805
  0
LINE
  8
型材断面
  6
CONTINUOUS
 10
-14.34995
 20
-34.354805
 11
-3.649947
 21
-34.354805
  0
LINE
  8
型材断面
  6
CONTINUOUS
 10
-30.149945
 20
30.645197
 11
-29.149947
 21
28.1452
  0
LINE
  8
型材断面
  6
CONTINUOUS
 10
-29.149947
 20
28.1452
 11
-22.149942
 21
28.1452
  0
LINE
  8
型材断面
  6
CONTINUOUS
 10
-22.149942
 20
28.1452
 11
-21.149953
 21
30.645197
  0
LINE
  8
型材断面
  6
CONTINUOUS
 10
-21.149953
 20
30.645197
 11
-18.149945
 21
30.645197
  0
LINE
  8
型材断面
  6
CONTINUOUS
 10
-18.149945
 20
30.645197
 11
-18.149945
 21
-27.85481
  0
LINE
  8
型材断面
  6
CONTINUOUS
 10
-18.149945
 20
-27.85481
 11
-32.94995
 21
-27.85481
  0
LINE
  8
型材断面
  6
CONTINUOUS
 10
-32.94995
 20
-27.85481
 11
-32.94995
 21
30.645197
  0
LINE
  8
型材断面
  6
CONTINUOUS
 10
-32.94995
 20
30.645197
 11
-30.149945
 21
30.645197
  0
ENDBLK
  0
ENDSEC
  0
SECTION
  2
ENTITIES
  0
POLYLINE
  8
通り芯
  6
CONTINUOUS
 66
     1
 70
     1
  0
VERTEX
  8
通り芯
 10
-210.0
 20
-148.5
  0
VERTEX
  8
通り芯
 10
210.0
 20
-148.5
  0
VERTEX
  8
通り芯
 10
210.0
 20
148.5
  0
VERTEX
  8
通り芯
 10
-210.0
 20
148.5
  0
SEQEND
  0
INSERT
  2
*GRP_0179
  8
補助線
  6
CONTINUOUS
 10
0.0
 20
0.0
  0
INSERT
  2
*GRP_0180
  8
補助線
  6
CONTINUOUS
 10
0.0
 20
0.0
  0
INSERT
  2
*GRP_0001
  8
型材断面
  6
CONTINUOUS
 10
0.0
 20
0.0
  0
LINE
  8
型材断面
  6
DOT
 10
-43.949953
 20
-52.354805
 11
-45.649947
 21
-52.354805
  0
LINE
  8
型材断面
  6
DOT
 10
-43.949953
 20
-44.354803
 11
-45.649947
 21
-44.354803
  0
LINE
  8
型材断面
  6
DOT
 10
-45.224945
 20
-52.354805
 11
-45.224945
 21
-44.354803
  0
LINE
  8
型材断面
  6
DOT
 10
-44.79995
 20
-52.354805
 11
-44.79995
 21
-44.354803
  0
LINE
  8
型材断面
  6
DOT
 10
-44.374947
 20
-52.354805
 11
-44.374947
 21
-44.354803
  0
LINE
  8
型材断面
  6
DOT
 10
-16.649945
 20
-19.854807
 11
-18.149945
 21
-19.854807
  0
LINE
  8
型材断面
  6
DOT
 10
-16.649945
 20
-27.85481
 11
-18.149945
 21
-27.85481
  0
LINE
  8
型材断面
  6
DOT
 10
-17.774945
 20
-27.85481
 11
-17.774945
 21
-19.854807
  0
LINE
  8
型材断面
  6
DOT
 10
-17.399945
 20
-27.85481
 11
-17.399945
 21
-19.854807
  0
LINE
  8
型材断面
  6
DOT
 10
-17.024945
 20
-27.85481
 11
-17.024945
 21
-19.854807
  0
LINE
  8
型材断面
  6
DOT
 10
-32.94995
 20
-27.85481
 11
-34.949945
 21
-27.85481
  0
LINE
  8
型材断面
  6
DOT
 10
-34.449942
 20
-27.85481
 11
-34.449942
 21
-19.854807
  0
LINE
  8
型材断面
  6
DOT
 10
-33.949947
 20
-27.85481
 11
-33.949947
 21
-19.854807
  0
LINE
  8
型材断面
  6
DOT
 10
-33.449945
 20
-27.85481
 11
-33.449945
 21
-19.854807
  0
LINE
  8
型材断面
  6
DOT
 10
-32.94995
 20
-19.854807
 11
-34.949945
 21
-19.854807
  0
INSERT
  2
*GRP_0366
  8
型材断面
  6
CONTINUOUS
 10
0.0
 20
0.0
  0
INSERT
  2
*GRP_0367
  8
型材断面
  6
CONTINUOUS
 10
0.0
 20
0.0
  0
INSERT
  2
*GRP_0428
  8
型材断面
  6
DOT
 10
0.0
 20
0.0
  0
INSERT
  2
*GRP_0429
  8
型材断面
  6
DOT
 10
0.0
 20
0.0
  0
INSERT
  2
*GRP_0368
  8
ガラス
  6
DOT
 10
0.0
 20
0.0
  0
INSERT
  2
*GRP_0369
  8
ガラス
  6
DOT
 10
0.0
 20
0.0
  0
INSERT
  2
*GRP_0370
  8
ガラス
  6
DOT
 10
0.0
 20
0.0
  0
INSERT
  2
*GRP_0371
  8
ガラス
  6
DOT
 10
0.0
 20
0.0
  0
INSERT
  2
*GRP_0372
  8
ガラス
  6
DOT
 10
0.0
 20
0.0
  0
INSERT
  2
*GRP_0373
  8
ガラス
  6
DOT
 10
0.0
 20
0.0
  0
INSERT
  2
*GRP_0374
  8
ガラス
  6
DOT
 10
0.0
 20
0.0
  0
INSERT
  2
*GRP_0375
  8
ガラス
  6
DOT
 10
0.0
 20
0.0
  0
INSERT
  2
*GRP_0376
  8
ガラス
  6
DOT
 10
0.0
 20
0.0
  0
INSERT
  2
*GRP_0377
  8
ガラス
  6
DOT
 10
0.0
 20
0.0
  0
INSERT
  2
*GRP_0378
  8
ガラス
  6
DOT
 10
0.0
 20
0.0
  0
INSERT
  2
*GRP_0379
  8
ガラス
  6
DOT
 10
0.0
 20
0.0
  0
INSERT
  2
*GRP_0380
  8
ガラス
  6
DOT
 10
0.0
 20
0.0
  0
INSERT
  2
*GRP_0381
  8
ガラス
  6
DOT
 10
0.0
 20
0.0
  0
INSERT
  2
*GRP_0382
  8
ガラス
  6
DOT
 10
0.0
 20
0.0
  0
INSERT
  2
*GRP_0383
  8
ガラス
  6
DOT
 10
0.0
 20
0.0
  0
LINE
  8
ガラス
  6
CONTINUOUS
 10
-0.649947
 20
9.443748
 11
-0.649947
 21
2.643745
  0
LINE
  8
ガラス
  6
CONTINUOUS
 10
-0.649947
 20
2.643745
 11
71.594763
 21
2.643745
  0
LINE
  8
ガラス
  6
CONTINUOUS
 10
-0.649947
 20
3.143748
 11
71.594763
 21
3.143748
  0
LINE
  8
ガラス
  6
CONTINUOUS
 10
-0.649947
 20
8.943745
 11
71.594763
 21
8.943745
  0
LINE
  8
ガラス
  6
CONTINUOUS
 10
-0.649947
 20
9.443748
 11
71.594763
 21
9.443748
  0
INSERT
  2
*GRP_0384
  8
ゴム等
  6
DOT
 10
0.0
 20
0.0
  0
INSERT
  2
*GRP_0385
  8
ゴム等
  6
CONTINUOUS
 10
0.0
 20
0.0
  0
INSERT
  2
*GRP_0386
  8
ゴム等
  6
CONTINUOUS
 10
0.0
 20
0.0
  0
INSERT
  2
*GRP_0387
  8
ゴム等
  6
CONTINUOUS
 10
0.0
 20
0.0
  0
INSERT
  2
*GRP_0388
  8
ゴム等
  6
CONTINUOUS
 10
0.0
 20
0.0
  0
INSERT
  2
*GRP_0389
  8
ゴム等
  6
CONTINUOUS
 10
0.0
 20
0.0
  0
INSERT
  2
*GRP_0390
  8
ボルト／ビス
  6
CONTINUOUS
 10
0.0
 20
0.0
  0
INSERT
  2
*GRP_0391
  8
ボルト／ビス
  6
CONTINUOUS
 10
0.0
 20
0.0
  0
INSERT
  2
*GRP_0392
  8
ボルト／ビス
  6
CONTINUOUS
 62
    64
 10
0.0
 20
0.0
  0
INSERT
  2
*GRP_0393
  8
ボルト／ビス
  6
CONTINUOUS
 62
    64
 10
0.0
 20
0.0
  0
INSERT
  2
*GRP_0394
  8
ボルト／ビス
  6
CONTINUOUS
 62
    64
 10
0.0
 20
0.0
  0
INSERT
  2
*GRP_0395
  8
ボルト／ビス
  6
CONTINUOUS
 62
    64
 10
0.0
 20
0.0
  0
INSERT
  2
*GRP_0396
  8
ボルト／ビス
  6
CONTINUOUS
 10
0.0
 20
0.0
  0
TEXT
  7
TextStyle03
  8
文字
  6
CONTINUOUS
 10
75.75
 20
101.45
  1
ＮＳコード：ＮＳＫ
 40
5.0
 72
     5
 11
125.75
 21
101.45
  0
TEXT
  7
TextStyle03
  8
文字
  6
CONTINUOUS
 10
75.825
 20
123.9
  1
シリーズ：ＴＤ１Ｋ
 40
5.0
 72
     5
 11
125.825
 21
123.9
  0
TEXT
  7
TextStyle03
  8
文字
  6
CONTINUOUS
 10
75.825
 20
118.275
  1
　　　　　（固定）
 40
5.0
 72
     5
 11
125.825
 21
118.275
  0
TEXT
  7
TextStyle03
  8
文字
  6
CONTINUOUS
 10
75.825
 20
112.65
  1
図面名　：下枠断面詳細図
 40
5.0
 72
     5
 11
142.7
 21
112.65
  0
INSERT
  2
*GRP_0397
  8
文字
  6
CONTINUOUS
 10
0.0
 20
0.0
  0
TEXT
  7
TextStyle03
  8
文字
  6
CONTINUOUS
 10
10.075
 20
115.95
  1
ドーム呼称寸法
 40
4.0
 72
     5
 11
41.075
 21
115.95
  0
TEXT
  7
TextStyle03
  8
文字
  6
CONTINUOUS
 10
26.375
 20
44.425
  1
ｱｸﾘﾙ　or　ﾎﾟﾘｶ
 40
4.0
 72
     5
 11
57.625
 21
44.425
  0
TEXT
  7
TextStyle03
  8
文字
  6
CONTINUOUS
 10
-77.675
 20
59.0
  1
ｴﾌﾟﾄｼｰﾗｰ
 40
4.0
 72
     5
 11
-59.925
 21
59.0
  0
TEXT
  7
TextStyle03
  8
文字
  6
CONTINUOUS
 10
-97.225
 20
66.575
  1
M6×30(Wｺﾞﾑﾊﾟｯｷﾝ)
 40
4.0
 72
     5
 11
-59.225
 21
66.575
  0
TEXT
  7
TextStyle03
  8
文字
  6
CONTINUOUS
 10
-103.85
 20
-46.575
  1
φ8排水穴(ﾊﾞｯﾌﾙ材付)
 40
4.0
 72
     5
 11
-59.1
 21
-46.575
  0
TEXT
  7
TextStyle03
  8
文字
  6
CONTINUOUS
 10
-81.775
 20
4.225
  1
断熱材(PVC)
 40
4.0
 72
     5
 11
-57.275
 21
4.225
  0
TEXT
  7
TextStyle03
  8
文字
  6
CONTINUOUS
 10
30.1
 20
-59.6
  1
断熱材(PVC)
 40
4.0
 72
     5
 11
54.6
 21
-59.6
  0
TEXT
  7
TextStyle03
  8
文字
  6
CONTINUOUS
 10
43.825
 20
11.5
  1
網入りガラス6.8t
 40
4.0
 72
     5
 11
79.575
 21
11.5
  0
TEXT
  7
TextStyle03
  8
文字
  6
CONTINUOUS
 10
26.125
 20
-115.175
  1
※型材コーナーは工場溶接
 40
4.0
 72
     5
 11
79.625
 21
-115.175
  0
TEXT
  7
TextStyle03
  8
文字
  6
CONTINUOUS
 10
-178.825
 20
124.975
  1
※Wドームは□1300までとなります
 40
4.0
 72
     5
 11
-109.575
 21
124.975
  0
TEXT
  7
TextStyle03
  8
文字
  6
CONTINUOUS
 10
39.325
 20
-8.875
  1
耐火材：
 40
4.0
 72
     5
 11
56.825
 21
-8.875
  0
TEXT
  7
TextStyle03
  8
文字
  6
CONTINUOUS
 10
39.325
 20
-13.375
  1
St-1.6t(溶融メッキ鋼板)
 40
4.0
 72
     5
 11
90.825
 21
-13.375
  0
TEXT
  7
TextStyle03
  8
文字
  6
CONTINUOUS
 10
30.425
 20
-79.325
  1
耐火材：
 40
4.0
 72
     5
 11
47.925
 21
-79.325
  0
TEXT
  7
TextStyle03
  8
文字
  6
CONTINUOUS
 10
30.425
 20
-83.825
  1
St-1.6t(溶融メッキ鋼板)
 40
4.0
 72
     5
 11
81.925
 21
-83.825
  0
INSERT
  2
*DIM_0398
  8
寸法
  6
CONTINUOUS
 10
0.0
 20
0.0
  0
LINE
  8
寸法
  6
CONTINUOUS
 10
61.298658
 20
115.95727
 11
-5.64995
 21
115.95727
  0
INSERT
  2
*DIM_0399
  8
寸法
  6
CONTINUOUS
 10
0.0
 20
0.0
  0
INSERT
  2
*DIM_0400
  8
寸法
  6
CONTINUOUS
 10
0.0
 20
0.0
  0
INSERT
  2
*DIM_0401
  8
寸法
  6
CONTINUOUS
 10
0.0
 20
0.0
  0
INSERT
  2
*DIM_0402
  8
寸法
  6
CONTINUOUS
 10
0.0
 20
0.0
  0
INSERT
  2
*DIM_0403
  8
寸法
  6
CONTINUOUS
 10
0.0
 20
0.0
  0
INSERT
  2
*DIM_0404
  8
寸法
  6
CONTINUOUS
 10
0.0
 20
0.0
  0
INSERT
  2
*DIM_0405
  8
寸法
  6
CONTINUOUS
 10
0.0
 20
0.0
  0
INSERT
  2
*DIM_0406
  8
寸法
  6
CONTINUOUS
 10
0.0
 20
0.0
  0
INSERT
  2
*DIM_0407
  8
寸法
  6
CONTINUOUS
 10
0.0
 20
0.0
  0
INSERT
  2
*DIM_0408
  8
寸法
  6
CONTINUOUS
 10
0.0
 20
0.0
  0
INSERT
  2
*DIM_0409
  8
寸法
  6
CONTINUOUS
 10
0.0
 20
0.0
  0
INSERT
  2
*DIM_0410
  8
寸法
  6
CONTINUOUS
 10
0.0
 20
0.0
  0
INSERT
  2
*DIM_0411
  8
寸法
  6
CONTINUOUS
 10
0.0
 20
0.0
  0
INSERT
  2
*GRP_0412
  8
寸法
  6
CONTINUOUS
 10
0.0
 20
0.0
  0
INSERT
  2
*GRP_0413
  8
寸法
  6
CONTINUOUS
 10
0.0
 20
0.0
  0
INSERT
  2
*GRP_0414
  8
寸法
  6
CONTINUOUS
 10
0.0
 20
0.0
  0
INSERT
  2
*GRP_0415
  8
寸法
  6
CONTINUOUS
 10
0.0
 20
0.0
  0
INSERT
  2
*GRP_0416
  8
寸法
  6
CONTINUOUS
 10
0.0
 20
0.0
  0
INSERT
  2
*GRP_0417
  8
寸法
  6
CONTINUOUS
 10
0.0
 20
0.0
  0
INSERT
  2
*GRP_0418
  8
寸法
  6
CONTINUOUS
 10
0.0
 20
0.0
  0
INSERT
  2
*GRP_0419
  8
寸法
  6
CONTINUOUS
 10
0.0
 20
0.0
  0
INSERT
  2
*GRP_0421
  8
寸法
  6
CONTINUOUS
 10
0.0
 20
0.0
  0
INSERT
  2
*DIM_0423
  8
寸法
  6
CONTINUOUS
 10
0.0
 20
0.0
  0
INSERT
  2
*GRP_0424
  8
寸法
  6
CONTINUOUS
 10
0.0
 20
0.0
  0
INSERT
  2
*GRP_0425
  8
寸法
  6
CONTINUOUS
 10
0.0
 20
0.0
  0
ARC
  8
別途部材
  6
CONTINUOUS
 62
    96
 10
-50.227188
 20
34.642838
 40
5.005952
 50
90.001373
 51
158.200992
  0
LINE
  8
別途部材
  6
CONTINUOUS
 62
    96
 10
-55.649945
 20
42.652368
 11
-5.64995
 21
42.652368
  0
LINE
  8
別途部材
  6
CONTINUOUS
 62
    96
 10
-50.22719
 20
39.648783
 11
-3.985385
 21
39.648783
  0
LINE
  8
別途部材
  6
CONTINUOUS
 10
-67.649922
 20
12.652368
 11
-64.414977
 21
12.652368
  0
LINE
  8
別途部材
  6
CONTINUOUS
 62
    96
 10
-55.649945
 20
42.652368
 11
-67.649922
 21
12.652368
  0
LINE
  8
別途部材
  6
CONTINUOUS
 62
    96
 10
-54.875135
 20
36.501985
 11
-64.414977
 21
12.652368
  0
LINE
  8
別途部材
  6
CONTINUOUS
 62
   111
 10
-5.649942
 20
36.648783
 11
-49.349982
 21
36.648783
  0
LINE
  8
別途部材
  6
CONTINUOUS
 62
   111
 10
-5.025035
 20
35.145197
 11
-49.349982
 21
35.145197
  0
INSERT
  2
*GRP_0422
  8
別途部材
  6
DASHDOT
 10
0.0
 20
0.0
  0
ARC
  8
別途部材
  6
CONTINUOUS
 10
186.105837
 20
-57.285459
 40
216.235628
 50
133.13237
 51
152.472719
  0
ARC
  8
別途部材
  6
CONTINUOUS
 10
186.105837
 20
-57.285459
 40
213.379747
 50
133.242497
 51
152.981359
  0
LINE
  8
曲げ物
  6
CONTINUOUS
 10
-49.349982
 20
36.648783
 11
-49.349982
 21
35.145197
  0
ARC
  8
曲げ物
  6
CONTINUOUS
 10
186.105837
 20
-110.920284
 40
241.964678
 50
124.961166
 51
142.419282
  0
ARC
  8
曲げ物
  6
CONTINUOUS
 10
186.105837
 20
-110.920284
 40
240.5538
 50
124.961166
 51
142.612321
  0
LINE
  8
St
  6
CONTINUOUS
 10
-8.19317
 20
-77.454688
 11
-6.593173
 21
-75.85469
  0
LINE
  8
St
  6
CONTINUOUS
 10
-7.48607
 20
-77.454688
 11
-5.886072
 21
-75.85469
  0
ARC
  8
St
  6
CONTINUOUS
 10
-2.149952
 20
-75.854683
 40
1.6
 50
-90.0
 51
0.0
  0
LINE
  8
St
  6
CONTINUOUS
 10
-2.149947
 20
-69.411545
 11
-0.54995
 21
-67.811547
  0
LINE
  8
St
  6
CONTINUOUS
 10
-2.149947
 20
-70.118645
 11
-0.54995
 21
-68.518648
  0
LINE
  8
St
  6
CONTINUOUS
 10
-2.149947
 20
-51.423793
 11
-0.54995
 21
-49.823795
  0
LINE
  8
St
  6
CONTINUOUS
 10
-2.149947
 20
-52.130893
 11
-0.54995
 21
-50.530895
  0
LINE
  8
St
  6
CONTINUOUS
 10
-2.149947
 20
-43.354805
 11
-0.54995
 21
-43.354805
  0
LINE
  8
St
  6
CONTINUOUS
 10
-0.54995
 20
-75.85469
 11
-0.54995
 21
-43.354805
  0
LINE
  8
St
  6
CONTINUOUS
 10
-2.149947
 20
-43.354805
 11
-2.149947
 21
-75.85469
  0
LINE
  8
St
  6
CONTINUOUS
 10
-21.649903
 20
-77.454688
 11
-21.649903
 21
-75.85469
  0
LINE
  8
St
  6
CONTINUOUS
 10
-21.649903
 20
-75.85469
 11
-2.149947
 21
-75.85469
  0
LINE
  8
St
  6
CONTINUOUS
 10
-21.649903
 20
-77.454688
 11
-2.149955
 21
-77.454688
  0
LINE
  8
St
  6
CONTINUOUS
 10
-16.649945
 20
-19.854695
 11
-15.049947
 21
-19.854695
  0
ARC
  8
St
  6
CONTINUOUS
 10
-15.049947
 20
-5.958595
 40
1.6
 50
90.0
 51
180.0
  0
LINE
  8
St
  6
CONTINUOUS
 10
-1.80902
 20
-4.3586
 11
-3.409018
 21
-5.958597
  0
LINE
  8
St
  6
CONTINUOUS
 10
-1.10192
 20
-4.3586
 11
-2.701918
 21
-5.958597
  0
LINE
  8
St
  6
CONTINUOUS
 10
12.65005
 20
-5.958575
 11
-15.049947
 21
-5.958597
  0
LINE
  8
St
  6
CONTINUOUS
 10
12.65005
 20
-4.358577
 11
12.65005
 21
-5.958575
  0
LINE
  8
St
  6
CONTINUOUS
 10
12.65005
 20
-4.358577
 11
-15.049947
 21
-4.3586
  0
LINE
  8
St
  6
CONTINUOUS
 10
-15.049947
 20
-19.854695
 11
-15.049947
 21
-5.958597
  0
LINE
  8
St
  6
CONTINUOUS
 10
-16.649945
 20
-19.854695
 11
-16.649945
 21
-5.958597
  0
LINE
  8
St
  6
CONTINUOUS
 10
-15.049947
 20
-14.292665
 11
-16.649945
 21
-15.892663
  0
LINE
  8
St
  6
CONTINUOUS
 10
-15.049947
 20
-14.999765
 11
-16.649945
 21
-16.599762
  0
POLYLINE
  8
St
  6
CONTINUOUS
 62
    47
 66
     1
  0
VERTEX
  8
St
 10
61.298658
 20
115.95727
  0
VERTEX
  8
St
 10
55.958
 20
117.32095
  0
VERTEX
  8
St
 10
55.957527
 20
115.95727
  0
SEQEND
  0
POLYLINE
  8
St
  6
CONTINUOUS
 62
    47
 66
     1
  0
VERTEX
  8
St
 10
59.404133
 20
115.95727
  0
VERTEX
  8
St
 10
54.063475
 20
117.32095
  0
VERTEX
  8
St
 10
54.063003
 20
115.95727
  0
SEQEND
  0
ENDSEC
  0
EOF
