  0
SECTION
  2
HEADER
  9
$ACADVER
  1
AC1018
  9
$ACADMAINTVER
 70
     0
  9
$DWGCODEPAGE
  3
ANSI_932
  9
$INSBASE
 10
0.0
 20
0.0
 30
0.0
  9
$EXTMIN
 10
-210.0
 20
-148.5
 30
0.0
  9
$EXTMAX
 10
210.0
 20
148.5
 30
0.0
  9
$LIMMIN
 10
0.0
 20
0.0
  9
$LIMMAX
 10
12.0
 20
9.0
  9
$ORTHOMODE
 70
     0
  9
$REGENMODE
 70
     1
  9
$FILLMODE
 70
     1
  9
$QTEXTMODE
 70
     0
  9
$MIRRTEXT
 70
     1
  9
$LTSCALE
 40
10.0
  9
$ATTMODE
 70
     1
  9
$TEXTSIZE
 40
0.2
  9
$TRACEWID
 40
0.05
  9
$TEXTSTYLE
  7
STANDARD
  9
$CLAYER
  8
0
  9
$CELTYPE
  6
ByBlock
  9
$CECOLOR
 62
   256
  9
$CELTSCALE
 40
1.0
  9
$DISPSILH
 70
     0
  9
$DIMSCALE
 40
1.0
  9
$DIMASZ
 40
0.18
  9
$DIMEXO
 40
0.0625
  9
$DIMDLI
 40
0.38
  9
$DIMRND
 40
0.0
  9
$DIMDLE
 40
0.0
  9
$DIMEXE
 40
0.18
  9
$DIMTP
 40
0.0
  9
$DIMTM
 40
0.0
  9
$DIMTXT
 40
0.18
  9
$DIMCEN
 40
0.09
  9
$DIMTSZ
 40
0.0
  9
$DIMTOL
 70
     0
  9
$DIMLIM
 70
     0
  9
$DIMTIH
 70
     1
  9
$DIMTOH
 70
     1
  9
$DIMSE1
 70
     0
  9
$DIMSE2
 70
     0
  9
$DIMTAD
 70
     0
  9
$DIMZIN
 70
     0
  9
$DIMBLK
  1

  9
$DIMASO
 70
     1
  9
$DIMSHO
 70
     1
  9
$DIMPOST
  1

  9
$DIMAPOST
  1

  9
$DIMALT
 70
     0
  9
$DIMALTD
 70
     2
  9
$DIMALTF
 40
25.4
  9
$DIMLFAC
 40
1.0
  9
$DIMTOFL
 70
     0
  9
$DIMTVP
 40
0.0
  9
$DIMTIX
 70
     0
  9
$DIMSOXD
 70
     0
  9
$DIMSAH
 70
     0
  9
$DIMBLK1
  1

  9
$DIMBLK2
  1

  9
$DIMSTYLE
  2
Standard
  9
$DIMCLRD
 70
     0
  9
$DIMCLRE
 70
     0
  9
$DIMCLRT
 70
     0
  9
$DIMTFAC
 40
1.0
  9
$DIMGAP
 40
0.09
  9
$DIMJUST
 70
     0
  9
$DIMSD1
 70
     0
  9
$DIMSD2
 70
     0
  9
$DIMTOLJ
 70
     1
  9
$DIMTZIN
 70
     0
  9
$DIMALTZ
 70
     0
  9
$DIMALTTZ
 70
     0
  9
$DIMUPT
 70
     0
  9
$DIMDEC
 70
     4
  9
$DIMTDEC
 70
     4
  9
$DIMALTU
 70
     2
  9
$DIMALTTD
 70
     2
  9
$DIMTXSTY
  7
STANDARD
  9
$DIMAUNIT
 70
     0
  9
$DIMADEC
 70
     0
  9
$DIMALTRND
 40
0.0
  9
$DIMAZIN
 70
     0
  9
$DIMDSEP
 70
    46
  9
$DIMATFIT
 70
     3
  9
$DIMFRAC
 70
     0
  9
$DIMLDRBLK
  1

  9
$DIMLUNIT
 70
     2
  9
$DIMLWD
 70
    -2
  9
$DIMLWE
 70
    -2
  9
$DIMTMOVE
 70
     0
  9
$LUNITS
 70
     2
  9
$LUPREC
 70
     4
  9
$SKETCHINC
 40
0.1
  9
$FILLETRAD
 40
0.5
  9
$AUNITS
 70
     0
  9
$AUPREC
 70
     0
  9
$MENU
  1
.
  9
$ELEVATION
 40
0.0
  9
$PELEVATION
 40
0.0
  9
$THICKNESS
 40
0.0
  9
$LIMCHECK
 70
     0
  9
$CHAMFERA
 40
0.5
  9
$CHAMFERB
 40
0.5
  9
$CHAMFERC
 40
1.0
  9
$CHAMFERD
 40
0.0
  9
$SKPOLY
 70
     0
  9
$TDCREATE
 40
2460242.409748067
  9
$TDUCREATE
 40
2460242.034748067
  9
$TDUPDATE
 40
2460242.409748079
  9
$TDUUPDATE
 40
2460242.034748079
  9
$TDINDWG
 40
0.0000000116
  9
$TDUSRTIMER
 40
0.0000000116
  9
$USRTIMER
 70
     1
  9
$ANGBASE
 50
0.0
  9
$ANGDIR
 70
     0
  9
$PDMODE
 70
    32
  9
$PDSIZE
 40
1.5
  9
$PLINEWID
 40
0.0
  9
$SPLFRAME
 70
     0
  9
$SPLINETYPE
 70
     6
  9
$SPLINESEGS
 70
     8
  9
$HANDSEED
  5
2AC
  9
$SURFTAB1
 70
     6
  9
$SURFTAB2
 70
     6
  9
$SURFTYPE
 70
     6
  9
$SURFU
 70
     6
  9
$SURFV
 70
     6
  9
$UCSBASE
  2

  9
$UCSNAME
  2

  9
$UCSORG
 10
0.0
 20
0.0
 30
0.0
  9
$UCSXDIR
 10
1.0
 20
0.0
 30
0.0
  9
$UCSYDIR
 10
0.0
 20
1.0
 30
0.0
  9
$UCSORTHOREF
  2

  9
$UCSORTHOVIEW
 70
     0
  9
$UCSORGTOP
 10
0.0
 20
0.0
 30
0.0
  9
$UCSORGBOTTOM
 10
0.0
 20
0.0
 30
0.0
  9
$UCSORGLEFT
 10
0.0
 20
0.0
 30
0.0
  9
$UCSORGRIGHT
 10
0.0
 20
0.0
 30
0.0
  9
$UCSORGFRONT
 10
0.0
 20
0.0
 30
0.0
  9
$UCSORGBACK
 10
0.0
 20
0.0
 30
0.0
  9
$PUCSBASE
  2

  9
$PUCSNAME
  2

  9
$PUCSORG
 10
0.0
 20
0.0
 30
0.0
  9
$PUCSXDIR
 10
1.0
 20
0.0
 30
0.0
  9
$PUCSYDIR
 10
0.0
 20
1.0
 30
0.0
  9
$PUCSORTHOREF
  2

  9
$PUCSORTHOVIEW
 70
     0
  9
$PUCSORGTOP
 10
0.0
 20
0.0
 30
0.0
  9
$PUCSORGBOTTOM
 10
0.0
 20
0.0
 30
0.0
  9
$PUCSORGLEFT
 10
0.0
 20
0.0
 30
0.0
  9
$PUCSORGRIGHT
 10
0.0
 20
0.0
 30
0.0
  9
$PUCSORGFRONT
 10
0.0
 20
0.0
 30
0.0
  9
$PUCSORGBACK
 10
0.0
 20
0.0
 30
0.0
  9
$USERI1
 70
     0
  9
$USERI2
 70
     0
  9
$USERI3
 70
     0
  9
$USERI4
 70
     0
  9
$USERI5
 70
     0
  9
$USERR1
 40
0.0
  9
$USERR2
 40
0.0
  9
$USERR3
 40
0.0
  9
$USERR4
 40
0.0
  9
$USERR5
 40
0.0
  9
$WORLDVIEW
 70
     1
  9
$SHADEDGE
 70
     3
  9
$SHADEDIF
 70
    70
  9
$TILEMODE
 70
     1
  9
$MAXACTVP
 70
    64
  9
$PINSBASE
 10
0.0
 20
0.0
 30
0.0
  9
$PLIMCHECK
 70
     0
  9
$PEXTMIN
 10
1.000000000000000E+20
 20
1.000000000000000E+20
 30
1.000000000000000E+20
  9
$PEXTMAX
 10
-1.000000000000000E+20
 20
-1.000000000000000E+20
 30
-1.000000000000000E+20
  9
$PLIMMIN
 10
0.0
 20
0.0
  9
$PLIMMAX
 10
12.0
 20
9.0
  9
$UNITMODE
 70
     0
  9
$VISRETAIN
 70
     1
  9
$PLINEGEN
 70
     0
  9
$PSLTSCALE
 70
     1
  9
$TREEDEPTH
 70
  3020
  9
$CMLSTYLE
  2
Standard
  9
$CMLJUST
 70
     0
  9
$CMLSCALE
 40
1.0
  9
$PROXYGRAPHICS
 70
     1
  9
$MEASUREMENT
 70
     0
  9
$CELWEIGHT
370
    -1
  9
$ENDCAPS
280
     0
  9
$JOINSTYLE
280
     0
  9
$LWDISPLAY
290
     0
  9
$INSUNITS
 70
     0
  9
$HYPERLINKBASE
  1

  9
$STYLESHEET
  1

  9
$XEDIT
290
     1
  9
$CEPSNTYPE
380
     0
  9
$PSTYLEMODE
290
     1
  9
$FINGERPRINTGUID
  2
{B3B31DEE-131D-4628-B8FB-91724422BCC4}
  9
$VERSIONGUID
  2
{FAEB1C32-E019-11D5-929B-00C0DF256EC4}
  9
$EXTNAMES
290
     1
  9
$PSVPSCALE
 40
0.0
  9
$OLESTARTUP
290
     0
  9
$SORTENTS
280
   127
  9
$INDEXCTL
280
     0
  9
$HIDETEXT
280
     1
  9
$XCLIPFRAME
290
     0
  9
$HALOGAP
280
     0
  9
$OBSCOLOR
 70
   257
  9
$OBSLTYPE
280
     0
  9
$INTERSECTIONDISPLAY
280
     0
  9
$INTERSECTIONCOLOR
 70
   257
  9
$DIMASSOC
280
     2
  9
$PROJECTNAME
  1

  0
ENDSEC
  0
SECTION
  2
CLASSES
  0
CLASS
  1
ACDBDICTIONARYWDFLT
  2
AcDbDictionaryWithDefault
  3
ObjectDBX Classes
 90
        0
 91
        3
280
     0
281
     0
  0
ENDSEC
  0
SECTION
  2
TABLES
  0
TABLE
  2
VPORT
  5
8
330
0
100
AcDbSymbolTable
 70
     1
  0
VPORT
  5
2A7
330
8
100
AcDbSymbolTableRecord
100
AcDbViewportTableRecord
  2
*Active
 70
     0
 10
0.0
 20
0.0
 11
1.0
 21
1.0
 12
10.42990654205607
 22
4.5
 13
0.0
 23
0.0
 14
0.5
 24
0.5
 15
0.5
 25
0.5
 16
0.0
 26
0.0
 36
1.0
 17
0.0
 27
0.0
 37
0.0
 40
9.0
 41
1.972972972850329
 42
50.0
 43
0.0
 44
0.0
 50
0.0
 51
0.0
 71
     0
 72
   100
 73
     1
 74
     3
 75
     0
 76
     0
 77
     0
 78
     0
281
     0
 65
     1
110
0.0
120
0.0
130
0.0
111
1.0
121
0.0
131
0.0
112
0.0
122
1.0
132
0.0
 79
     0
146
0.0
  0
ENDTAB
  0
TABLE
  2
LTYPE
  5
5
330
0
100
AcDbSymbolTable
 70
     9
  0
LTYPE
  5
14
330
5
100
AcDbSymbolTableRecord
100
AcDbLinetypeTableRecord
  2
ByBlock
 70
     0
  3

 72
    65
 73
     0
 40
0.0
  0
LTYPE
  5
15
330
5
100
AcDbSymbolTableRecord
100
AcDbLinetypeTableRecord
  2
ByLayer
 70
     0
  3

 72
    65
 73
     0
 40
0.0
  0
LTYPE
  5
16
330
5
100
AcDbSymbolTableRecord
100
AcDbLinetypeTableRecord
  2
CONTINUOUS
 70
     0
  3
実線
 72
    65
 73
     0
 40
0.0
  0
LTYPE
  5
21
330
5
100
AcDbSymbolTableRecord
100
AcDbLinetypeTableRecord
  2
DASHED
 70
     0
  3
破線A
 72
    65
 73
     2
 40
0.6000000000000001
 49
0.4
 74
     0
 49
-0.2
 74
     0
  0
LTYPE
  5
22
330
5
100
AcDbSymbolTableRecord
100
AcDbLinetypeTableRecord
  2
DASHEDX2
 70
     0
  3
破線B
 72
    65
 73
     2
 40
1.3
 49
0.9
 74
     0
 49
-0.4
 74
     0
  0
LTYPE
  5
23
330
5
100
AcDbSymbolTableRecord
100
AcDbLinetypeTableRecord
  2
DASHDOT
 70
     0
  3
１点鎖線A
 72
    65
 73
     4
 40
0.5375
 49
0.375
 74
     0
 49
-0.05
 74
     0
 49
0.0625
 74
     0
 49
-0.05
 74
     0
  0
LTYPE
  5
24
330
5
100
AcDbSymbolTableRecord
100
AcDbLinetypeTableRecord
  2
DASHDOTX2
 70
     0
  3
１点鎖線B
 72
    65
 73
     4
 40
1.075
 49
0.75
 74
     0
 49
-0.1
 74
     0
 49
0.125
 74
     0
 49
-0.1
 74
     0
  0
LTYPE
  5
25
330
5
100
AcDbSymbolTableRecord
100
AcDbLinetypeTableRecord
  2
DIVIDE2
 70
     0
  3
２点鎖線A
 72
    65
 73
     6
 40
0.5125
 49
0.3
 74
     0
 49
-0.0375
 74
     0
 49
0.05
 74
     0
 49
-0.0375
 74
     0
 49
0.05
 74
     0
 49
-0.0375
 74
     0
  0
LTYPE
  5
26
330
5
100
AcDbSymbolTableRecord
100
AcDbLinetypeTableRecord
  2
DIVIDE
 70
     0
  3
２点鎖線B
 72
    65
 73
     6
 40
1.05
 49
0.55
 74
     0
 49
-0.1
 74
     0
 49
0.1
 74
     0
 49
-0.1
 74
     0
 49
0.1
 74
     0
 49
-0.1
 74
     0
  0
LTYPE
  5
27
330
5
100
AcDbSymbolTableRecord
100
AcDbLinetypeTableRecord
  2
DOT
 70
     0
  3
点線A
 72
    65
 73
     2
 40
0.1125
 49
0.0625
 74
     0
 49
-0.05
 74
     0
  0
LTYPE
  5
28
330
5
100
AcDbSymbolTableRecord
100
AcDbLinetypeTableRecord
  2
DOTX2
 70
     0
  3
点線B
 72
    65
 73
     2
 40
0.275
 49
0.15
 74
     0
 49
-0.125
 74
     0
  0
ENDTAB
  0
TABLE
  2
LAYER
  5
2
330
0
100
AcDbSymbolTable
 70
    34
  0
LAYER
  5
10
330
2
100
AcDbSymbolTableRecord
100
AcDbLayerTableRecord
  2
0
 70
     0
 62
    17
  6
CONTINUOUS
370
    -3
390
F
  0
LAYER
  5
2F
330
2
100
AcDbSymbolTableRecord
100
AcDbLayerTableRecord
  2
通り芯
 70
     0
 62
    15
  6
CONTINUOUS
370
    -3
390
F
  0
LAYER
  5
30
330
2
100
AcDbSymbolTableRecord
100
AcDbLayerTableRecord
  2
補助線
 70
     0
 62
    16
  6
DOT
370
    -3
390
F
  0
LAYER
  5
31
330
2
100
AcDbSymbolTableRecord
100
AcDbLayerTableRecord
  2
躯体
 70
     0
 62
    31
  6
CONTINUOUS
370
    -3
390
F
  0
LAYER
  5
32
330
2
100
AcDbSymbolTableRecord
100
AcDbLayerTableRecord
  2
型材
 70
     0
 62
    32
  6
CONTINUOUS
370
    -3
390
F
  0
LAYER
  5
33
330
2
100
AcDbSymbolTableRecord
100
AcDbLayerTableRecord
  2
型材断面
 70
     0
 62
    47
  6
CONTINUOUS
370
    -3
390
F
  0
LAYER
  5
34
330
2
100
AcDbSymbolTableRecord
100
AcDbLayerTableRecord
  2
ガラス
 70
     0
 62
    48
  6
CONTINUOUS
370
    -3
390
F
  0
LAYER
  5
35
330
2
100
AcDbSymbolTableRecord
100
AcDbLayerTableRecord
  2
ゴム等
 70
     0
 62
    63
  6
CONTINUOUS
370
    -3
390
F
  0
LAYER
  5
36
330
2
100
AcDbSymbolTableRecord
100
AcDbLayerTableRecord
  2
ボルト／ビス
 70
     0
 62
    64
  6
CONTINUOUS
370
    -3
390
F
  0
LAYER
  5
37
330
2
100
AcDbSymbolTableRecord
100
AcDbLayerTableRecord
  2
文字
 70
     0
 62
    79
  6
CONTINUOUS
370
    -3
390
F
  0
LAYER
  5
38
330
2
100
AcDbSymbolTableRecord
100
AcDbLayerTableRecord
  2
寸法
 70
     0
 62
    80
  6
CONTINUOUS
370
    -3
390
F
  0
LAYER
  5
39
330
2
100
AcDbSymbolTableRecord
100
AcDbLayerTableRecord
  2
ﾊｯﾁﾝｸﾞ
 70
     0
 62
    95
  6
CONTINUOUS
370
    -3
390
F
  0
LAYER
  5
3A
330
2
100
AcDbSymbolTableRecord
100
AcDbLayerTableRecord
  2
別途部材
 70
     0
 62
    96
  6
CONTINUOUS
370
    -3
390
F
  0
LAYER
  5
3B
330
2
100
AcDbSymbolTableRecord
100
AcDbLayerTableRecord
  2
曲げ物
 70
     0
 62
   111
  6
CONTINUOUS
370
    -3
390
F
  0
LAYER
  5
3C
330
2
100
AcDbSymbolTableRecord
100
AcDbLayerTableRecord
  2
鉄骨等
 70
     0
 62
   112
  6
CONTINUOUS
370
    -3
390
F
  0
LAYER
  5
3D
330
2
100
AcDbSymbolTableRecord
100
AcDbLayerTableRecord
  2
St
 70
     0
 62
   127
  6
CONTINUOUS
370
    -3
390
F
  0
LAYER
  5
3E
330
2
100
AcDbSymbolTableRecord
100
AcDbLayerTableRecord
  2
その他部品等
 70
     0
 62
   128
  6
CONTINUOUS
370
    -3
390
F
  0
LAYER
  5
3F
330
2
100
AcDbSymbolTableRecord
100
AcDbLayerTableRecord
  2
ｶﾞｽｹｯﾄ
 70
     0
 62
   143
  6
CONTINUOUS
370
    -3
390
F
  0
LAYER
  5
40
330
2
100
AcDbSymbolTableRecord
100
AcDbLayerTableRecord
  2
ｽｹｯﾁ
 70
     0
 62
    14
  6
CONTINUOUS
370
    -3
390
F
  0
LAYER
  5
42
330
2
100
AcDbSymbolTableRecord
100
AcDbLayerTableRecord
  2
1
 70
     0
 62
    30
  6
CONTINUOUS
370
    -3
390
F
  0
LAYER
  5
43
330
2
100
AcDbSymbolTableRecord
100
AcDbLayerTableRecord
  2
4
 70
     0
 62
    33
  6
CONTINUOUS
370
    -3
390
F
  0
LAYER
  5
44
330
2
100
AcDbSymbolTableRecord
100
AcDbLayerTableRecord
  2
ﾚｲﾔ3
 70
     0
 62
    46
  6
CONTINUOUS
370
    -3
390
F
  0
LAYER
  5
45
330
2
100
AcDbSymbolTableRecord
100
AcDbLayerTableRecord
  2
外形線
 70
     0
 62
    49
  6
CONTINUOUS
370
    -3
390
F
  0
LAYER
  5
46
330
2
100
AcDbSymbolTableRecord
100
AcDbLayerTableRecord
  2
部品
 70
     0
 62
    14
  6
CONTINUOUS
370
    -3
390
F
  0
LAYER
  5
47
330
2
100
AcDbSymbolTableRecord
100
AcDbLayerTableRecord
  2
サッシ芯
 70
     0
 62
    17
  6
DASHDOTX2
370
    -3
390
F
  0
LAYER
  5
48
330
2
100
AcDbSymbolTableRecord
100
AcDbLayerTableRecord
  2
寸法線
 70
     0
 62
    62
  6
CONTINUOUS
370
    -3
390
F
  0
LAYER
  5
49
330
2
100
AcDbSymbolTableRecord
100
AcDbLayerTableRecord
  2
姿図外形線
 70
     0
 62
    65
  6
CONTINUOUS
370
    -3
390
F
  0
LAYER
  5
4A
330
2
100
AcDbSymbolTableRecord
100
AcDbLayerTableRecord
  2
姿補助線
 70
     0
 62
    30
  6
CONTINUOUS
370
    -3
390
F
  0
LAYER
  5
4B
330
2
100
AcDbSymbolTableRecord
100
AcDbLayerTableRecord
  2
透視線
 70
     0
 62
    78
  6
DOT
370
    -3
390
F
  0
LAYER
  5
4C
330
2
100
AcDbSymbolTableRecord
100
AcDbLayerTableRecord
  2
用紙
 70
     0
 62
    81
  6
CONTINUOUS
370
    -3
390
F
  0
LAYER
  5
4D
330
2
100
AcDbSymbolTableRecord
100
AcDbLayerTableRecord
  2
実線図枠
 70
     0
 62
    94
  6
CONTINUOUS
370
    -3
390
F
  0
LAYER
  5
4E
330
2
100
AcDbSymbolTableRecord
100
AcDbLayerTableRecord
  2
補助図枠
 70
     0
 62
    97
  6
CONTINUOUS
370
    -3
390
F
  0
LAYER
  5
4F
330
2
100
AcDbSymbolTableRecord
100
AcDbLayerTableRecord
  2
建具記号
 70
     0
 62
   110
  6
CONTINUOUS
370
    -3
390
F
  0
LAYER
  5
50
330
2
100
AcDbSymbolTableRecord
100
AcDbLayerTableRecord
  2
補助文字
 70
     0
 62
   113
  6
CONTINUOUS
370
    -3
390
F
  0
ENDTAB
  0
TABLE
  2
STYLE
  5
3
330
0
100
AcDbSymbolTable
 70
    10
  0
STYLE
  5
11
330
3
100
AcDbSymbolTableRecord
100
AcDbTextStyleTableRecord
  2
STANDARD
 70
     0
 40
1.0
 41
1.0
 50
0.0
 71
     0
 42
1.0
  3
TXT
  4
BIGFONT
  0
STYLE
  5
52
330
3
100
AcDbSymbolTableRecord
100
AcDbTextStyleTableRecord
  2
TATE
 70
     4
 40
1.0
 41
1.0
 50
0.0
 71
     0
 42
1.0
  3
TXT
  4
BIGFONT
  0
STYLE
  5
53
330
3
100
AcDbSymbolTableRecord
100
AcDbTextStyleTableRecord
  2
TextStyle03
 70
     0
 40
1.0
 41
1.0
 50
0.0
 71
     0
 42
1.0
  3
MONOTXT
  4
BIGFONT
  0
STYLE
  5
54
330
3
100
AcDbSymbolTableRecord
100
AcDbTextStyleTableRecord
  2
TextStyle04
 70
     0
 40
1.0
 41
1.0
 50
0.0
 71
     0
 42
1.0
  3
MONOTXT
  4
BIGFONT
  0
STYLE
  5
55
330
3
100
AcDbSymbolTableRecord
100
AcDbTextStyleTableRecord
  2
TextStyle05
 70
     0
 40
1.0
 41
1.0
 50
0.0
 71
     0
 42
1.0
  3
MONOTXT
  4
BIGFONT
  0
STYLE
  5
56
330
3
100
AcDbSymbolTableRecord
100
AcDbTextStyleTableRecord
  2
TextStyle06
 70
     0
 40
1.0
 41
1.0
 50
0.0
 71
     0
 42
1.0
  3
MONOTXT
  4
BIGFONT
  0
STYLE
  5
57
330
3
100
AcDbSymbolTableRecord
100
AcDbTextStyleTableRecord
  2
TextStyle07
 70
     0
 40
1.0
 41
1.0
 50
0.0
 71
     0
 42
1.0
  3
MONOTXT
  4
BIGFONT
  0
STYLE
  5
58
330
3
100
AcDbSymbolTableRecord
100
AcDbTextStyleTableRecord
  2
TextStyle08
 70
     0
 40
1.0
 41
1.0
 50
0.0
 71
     0
 42
1.0
  3
MONOTXT
  4
BIGFONT
  0
STYLE
  5
59
330
3
100
AcDbSymbolTableRecord
100
AcDbTextStyleTableRecord
  2
TextStyle09
 70
     0
 40
1.0
 41
1.0
 50
0.0
 71
     0
 42
1.0
  3
MONOTXT
  4
BIGFONT
  0
STYLE
  5
5A
330
3
100
AcDbSymbolTableRecord
100
AcDbTextStyleTableRecord
  2
TextStyle10
 70
     0
 40
1.0
 41
1.0
 50
0.0
 71
     0
 42
1.0
  3
MONOTXT
  4
BIGFONT
  0
ENDTAB
  0
TABLE
  2
VIEW
  5
6
330
0
100
AcDbSymbolTable
 70
     0
  0
ENDTAB
  0
TABLE
  2
UCS
  5
7
330
0
100
AcDbSymbolTable
 70
     0
  0
ENDTAB
  0
TABLE
  2
APPID
  5
9
330
0
100
AcDbSymbolTable
 70
     1
  0
APPID
  5
12
330
9
100
AcDbSymbolTableRecord
100
AcDbRegAppTableRecord
  2
ACAD
 70
     0
  0
ENDTAB
  0
TABLE
  2
DIMSTYLE
  5
A
330
0
100
AcDbSymbolTable
 70
     1
100
AcDbDimStyleTable
  0
DIMSTYLE
105
5B
330
A
100
AcDbSymbolTableRecord
100
AcDbDimStyleTableRecord
  2
Standard
 70
     0
340
11
  0
ENDTAB
  0
TABLE
  2
BLOCK_RECORD
  5
1
330
0
100
AcDbSymbolTable
 70
    24
  0
BLOCK_RECORD
  5
1D
330
1
100
AcDbSymbolTableRecord
100
AcDbBlockTableRecord
  2
*Model_Space
340
1E
  0
BLOCK_RECORD
  5
1B
330
1
100
AcDbSymbolTableRecord
100
AcDbBlockTableRecord
  2
*Paper_Space
340
1C
  0
BLOCK_RECORD
  5
5D
330
1
100
AcDbSymbolTableRecord
100
AcDbBlockTableRecord
  2
*U0
340
0
102
{BLKREFS
331
202
102
}
  0
BLOCK_RECORD
  5
66
330
1
100
AcDbSymbolTableRecord
100
AcDbBlockTableRecord
  2
*U1
340
0
102
{BLKREFS
331
26D
102
}
  0
BLOCK_RECORD
  5
6D
330
1
100
AcDbSymbolTableRecord
100
AcDbBlockTableRecord
  2
*U2
340
0
102
{BLKREFS
331
26E
102
}
  0
BLOCK_RECORD
  5
76
330
1
100
AcDbSymbolTableRecord
100
AcDbBlockTableRecord
  2
*U3
340
0
102
{BLKREFS
331
29E
102
}
  0
BLOCK_RECORD
  5
119
330
1
100
AcDbSymbolTableRecord
100
AcDbBlockTableRecord
  2
*U4
340
0
102
{BLKREFS
331
26F
102
}
  0
BLOCK_RECORD
  5
120
330
1
100
AcDbSymbolTableRecord
100
AcDbBlockTableRecord
  2
*U5
340
0
102
{BLKREFS
331
270
102
}
  0
BLOCK_RECORD
  5
127
330
1
100
AcDbSymbolTableRecord
100
AcDbBlockTableRecord
  2
*U6
340
0
102
{BLKREFS
331
271
102
}
  0
BLOCK_RECORD
  5
130
330
1
100
AcDbSymbolTableRecord
100
AcDbBlockTableRecord
  2
*U7
340
0
102
{BLKREFS
331
272
102
}
  0
BLOCK_RECORD
  5
137
330
1
100
AcDbSymbolTableRecord
100
AcDbBlockTableRecord
  2
*U8
340
0
102
{BLKREFS
331
273
102
}
  0
BLOCK_RECORD
  5
140
330
1
100
AcDbSymbolTableRecord
100
AcDbBlockTableRecord
  2
*U9
340
0
102
{BLKREFS
331
274
102
}
  0
BLOCK_RECORD
  5
149
330
1
100
AcDbSymbolTableRecord
100
AcDbBlockTableRecord
  2
*U10
340
0
102
{BLKREFS
331
275
102
}
  0
BLOCK_RECORD
  5
152
330
1
100
AcDbSymbolTableRecord
100
AcDbBlockTableRecord
  2
*U11
340
0
102
{BLKREFS
331
276
102
}
  0
BLOCK_RECORD
  5
159
330
1
100
AcDbSymbolTableRecord
100
AcDbBlockTableRecord
  2
*U12
340
0
102
{BLKREFS
331
277
102
}
  0
BLOCK_RECORD
  5
160
330
1
100
AcDbSymbolTableRecord
100
AcDbBlockTableRecord
  2
*U13
340
0
102
{BLKREFS
331
278
102
}
  0
BLOCK_RECORD
  5
167
330
1
100
AcDbSymbolTableRecord
100
AcDbBlockTableRecord
  2
*U14
340
0
102
{BLKREFS
331
279
102
}
  0
BLOCK_RECORD
  5
16F
330
1
100
AcDbSymbolTableRecord
100
AcDbBlockTableRecord
  2
*U15
340
0
102
{BLKREFS
331
27A
102
}
  0
BLOCK_RECORD
  5
177
330
1
100
AcDbSymbolTableRecord
100
AcDbBlockTableRecord
  2
*U16
340
0
102
{BLKREFS
331
27B
102
}
  0
BLOCK_RECORD
  5
17F
330
1
100
AcDbSymbolTableRecord
100
AcDbBlockTableRecord
  2
*U17
340
0
102
{BLKREFS
331
27C
102
}
  0
BLOCK_RECORD
  5
187
330
1
100
AcDbSymbolTableRecord
100
AcDbBlockTableRecord
  2
*U18
340
0
102
{BLKREFS
331
27D
102
}
  0
BLOCK_RECORD
  5
190
330
1
100
AcDbSymbolTableRecord
100
AcDbBlockTableRecord
  2
*U19
340
0
102
{BLKREFS
331
27E
102
}
  0
BLOCK_RECORD
  5
199
330
1
100
AcDbSymbolTableRecord
100
AcDbBlockTableRecord
  2
*U20
340
0
102
{BLKREFS
331
29F
102
}
  0
BLOCK_RECORD
  5
1B2
330
1
100
AcDbSymbolTableRecord
100
AcDbBlockTableRecord
  2
*U21
340
0
102
{BLKREFS
331
2A0
102
}
  0
BLOCK_RECORD
  5
1CB
330
1
100
AcDbSymbolTableRecord
100
AcDbBlockTableRecord
  2
*U22
340
0
102
{BLKREFS
331
2A1
102
}
  0
BLOCK_RECORD
  5
1E4
330
1
100
AcDbSymbolTableRecord
100
AcDbBlockTableRecord
  2
*U23
340
0
102
{BLKREFS
331
2A2
102
}
  0
ENDTAB
  0
ENDSEC
  0
SECTION
  2
BLOCKS
  0
BLOCK
  5
2A8
330
1D
100
AcDbEntity
  8
0
100
AcDbBlockBegin
  2
*Model_Space
 70
     0
 71
     0
 10
0.0
 20
0.0
 30
0.0
  3
*Model_Space
  1

  0
ENDBLK
  5
2A9
330
1D
100
AcDbEntity
  8
0
100
AcDbBlockEnd
  0
BLOCK
  5
2AA
330
1B
100
AcDbEntity
 67
     1
  8
0
100
AcDbBlockBegin
  2
*Paper_Space
 70
     0
 71
     0
 10
0.0
 20
0.0
 30
0.0
  3
*Paper_Space
  1

  0
ENDBLK
  5
2AB
330
1B
100
AcDbEntity
 67
     1
  8
0
100
AcDbBlockEnd
  0
BLOCK
  5
5C
330
5D
100
AcDbEntity
  8
0
100
AcDbBlockBegin
  2
*U0
 70
     1
 71
     0
 10
0.0
 20
0.0
 30
0.0
  3
*U0
  1

  0
LINE
  5
5E
330
5D
100
AcDbEntity
  8
型材断面
  6
Continuous
100
AcDbLine
 10
195.0
 20
133.5
 30
0.0
 11
195.0
 21
-133.5
 31
0.0
  0
LINE
  5
5F
330
5D
100
AcDbEntity
  8
型材断面
  6
Continuous
100
AcDbLine
 10
195.0
 20
-133.5
 30
0.0
 11
-185.0
 21
-133.5
 31
0.0
  0
LINE
  5
60
330
5D
100
AcDbEntity
  8
型材断面
  6
Continuous
100
AcDbLine
 10
-185.0
 20
-133.5
 30
0.0
 11
-185.0
 21
133.5
 31
0.0
  0
LINE
  5
61
330
5D
100
AcDbEntity
  8
型材断面
  6
Continuous
100
AcDbLine
 10
195.0
 20
133.5
 30
0.0
 11
-185.0
 21
133.5
 31
0.0
  0
LINE
  5
62
330
5D
100
AcDbEntity
  8
型材断面
  6
Continuous
100
AcDbLine
 10
145.0
 20
-133.5
 30
0.0
 11
145.0
 21
-118.5
 31
0.0
  0
LINE
  5
63
330
5D
100
AcDbEntity
  8
型材断面
  6
Continuous
100
AcDbLine
 10
195.0
 20
-118.5
 30
0.0
 11
145.0
 21
-118.5
 31
0.0
  0
ENDBLK
  5
64
330
5D
100
AcDbEntity
  8
0
100
AcDbBlockEnd
  0
BLOCK
  5
65
330
66
100
AcDbEntity
  8
0
100
AcDbBlockBegin
  2
*U1
 70
     1
 71
     0
 10
0.0
 20
0.0
 30
0.0
  3
*U1
  1

  0
LINE
  5
67
330
66
100
AcDbEntity
  8
寸法
  6
ByBlock
 62
     0
100
AcDbLine
 10
21.33489
 20
-22.536362
 30
0.0
 11
-95.331778
 21
-22.536362
 31
0.0
  0
POINT
  5
68
330
66
100
AcDbEntity
  8
寸法
 62
     0
100
AcDbPoint
 10
21.33489
 20
-22.536362
 30
0.0
  0
POINT
  5
69
330
66
100
AcDbEntity
  8
寸法
 62
     0
100
AcDbPoint
 10
-95.331778
 20
-22.536362
 30
0.0
  0
TEXT
  5
6A
330
66
100
AcDbEntity
  8
寸法
  6
Continuous
 62
     0
100
AcDbText
 10
-48.71875
 20
-22.175
 30
0.0
 40
3.0
  1
呼称寸法　3500
  7
TextStyle03
 72
     5
 11
-25.28125
 21
-22.175
 31
0.0
100
AcDbText
  0
ENDBLK
  5
6B
330
66
100
AcDbEntity
  8
0
100
AcDbBlockEnd
  0
BLOCK
  5
6C
330
6D
100
AcDbEntity
  8
0
100
AcDbBlockBegin
  2
*U2
 70
     1
 71
     0
 10
0.0
 20
0.0
 30
0.0
  3
*U2
  1

  0
LINE
  5
6E
330
6D
100
AcDbEntity
  8
寸法
  6
ByBlock
 62
     0
100
AcDbLine
 10
-78.66511
 20
9.76892
 30
0.0
 11
-78.66511
 21
4.551973
 31
0.0
  0
LINE
  5
6F
330
6D
100
AcDbEntity
  8
寸法
  6
ByBlock
 62
     0
100
AcDbLine
 10
4.668225
 20
9.76892
 30
0.0
 11
4.668225
 21
4.551973
 31
0.0
  0
LINE
  5
70
330
6D
100
AcDbEntity
  8
寸法
  6
ByBlock
 62
     0
100
AcDbLine
 10
-78.66511
 20
4.551973
 30
0.0
 11
4.668225
 21
4.551973
 31
0.0
  0
POINT
  5
71
330
6D
100
AcDbEntity
  8
寸法
 62
     0
100
AcDbPoint
 10
-78.66511
 20
4.551973
 30
0.0
  0
POINT
  5
72
330
6D
100
AcDbEntity
  8
寸法
 62
     0
100
AcDbPoint
 10
4.668225
 20
4.551973
 30
0.0
  0
TEXT
  5
73
330
6D
100
AcDbEntity
  8
寸法
  6
Continuous
 62
     0
100
AcDbText
 10
-40.28125
 20
4.925
 30
0.0
 40
3.0
  1
2500
  7
TextStyle03
 72
     5
 11
-33.71875
 21
4.925
 31
0.0
100
AcDbText
  0
ENDBLK
  5
74
330
6D
100
AcDbEntity
  8
0
100
AcDbBlockEnd
  0
BLOCK
  5
75
330
76
100
AcDbEntity
  8
0
100
AcDbBlockBegin
  2
*U3
 70
     1
 71
     0
 10
0.0
 20
0.0
 30
0.0
  3
*U3
  1

  0
LINE
  5
77
330
76
100
AcDbEntity
  8
別途部材
  6
Continuous
 62
    96
100
AcDbLine
 10
-96.998442
 20
-79.62459699999999
 30
0.0
 11
-97.398442
 21
-80.62459699999999
 31
0.0
  0
LINE
  5
78
330
76
100
AcDbEntity
  8
別途部材
  6
Continuous
100
AcDbLine
 10
-97.398442
 20
-80.62459699999999
 30
0.0
 11
-36.998442
 21
-80.62459699999999
 31
0.0
  0
LINE
  5
79
330
76
100
AcDbEntity
  8
別途部材
  6
Continuous
 62
    96
100
AcDbLine
 10
-96.998442
 20
-79.62459699999999
 30
0.0
 11
-36.998442
 21
-79.62459699999999
 31
0.0
  0
LINE
  5
7A
330
76
100
AcDbEntity
  8
別途部材
  6
Continuous
100
AcDbLine
 10
-37.498442
 20
-66.95793000000001
 30
0.0
 11
-38.498442
 21
-67.95793000000001
 31
0.0
  0
LINE
  5
7B
330
76
100
AcDbEntity
  8
別途部材
  6
Continuous
100
AcDbLine
 10
-39.498442
 20
-67.95793000000001
 30
0.0
 11
-40.498442
 21
-66.95793000000001
 31
0.0
  0
LINE
  5
7C
330
76
100
AcDbEntity
  8
別途部材
  6
Continuous
100
AcDbLine
 10
-41.498442
 20
-66.95793000000001
 30
0.0
 11
-42.498442
 21
-67.95793000000001
 31
0.0
  0
LINE
  5
7D
330
76
100
AcDbEntity
  8
別途部材
  6
Continuous
100
AcDbLine
 10
-40.498442
 20
-66.95793000000001
 30
0.0
 11
-41.498442
 21
-66.95793000000001
 31
0.0
  0
LINE
  5
7E
330
76
100
AcDbEntity
  8
別途部材
  6
Continuous
100
AcDbLine
 10
-37.498442
 20
-66.95793000000001
 30
0.0
 11
-36.998442
 21
-66.95793000000001
 31
0.0
  0
LINE
  5
7F
330
76
100
AcDbEntity
  8
別途部材
  6
Continuous
100
AcDbLine
 10
-43.498442
 20
-67.95793000000001
 30
0.0
 11
-44.498442
 21
-66.95793000000001
 31
0.0
  0
LINE
  5
80
330
76
100
AcDbEntity
  8
別途部材
  6
Continuous
100
AcDbLine
 10
-45.498442
 20
-66.95793000000001
 30
0.0
 11
-46.498442
 21
-67.95793000000001
 31
0.0
  0
LINE
  5
81
330
76
100
AcDbEntity
  8
別途部材
  6
Continuous
100
AcDbLine
 10
-44.498442
 20
-66.95793000000001
 30
0.0
 11
-45.498442
 21
-66.95793000000001
 31
0.0
  0
LINE
  5
82
330
76
100
AcDbEntity
  8
別途部材
  6
Continuous
100
AcDbLine
 10
-47.498442
 20
-67.95793000000001
 30
0.0
 11
-48.498442
 21
-66.95793000000001
 31
0.0
  0
LINE
  5
83
330
76
100
AcDbEntity
  8
別途部材
  6
Continuous
100
AcDbLine
 10
-49.498442
 20
-66.95793000000001
 30
0.0
 11
-50.498442
 21
-67.95793000000001
 31
0.0
  0
LINE
  5
84
330
76
100
AcDbEntity
  8
別途部材
  6
Continuous
100
AcDbLine
 10
-48.498442
 20
-66.95793000000001
 30
0.0
 11
-49.498442
 21
-66.95793000000001
 31
0.0
  0
LINE
  5
85
330
76
100
AcDbEntity
  8
別途部材
  6
Continuous
100
AcDbLine
 10
-51.498442
 20
-67.95793000000001
 30
0.0
 11
-52.498442
 21
-66.95793000000001
 31
0.0
  0
LINE
  5
86
330
76
100
AcDbEntity
  8
別途部材
  6
Continuous
100
AcDbLine
 10
-53.498442
 20
-66.95793000000001
 30
0.0
 11
-54.498442
 21
-67.95793000000001
 31
0.0
  0
LINE
  5
87
330
76
100
AcDbEntity
  8
別途部材
  6
Continuous
100
AcDbLine
 10
-52.498442
 20
-66.95793000000001
 30
0.0
 11
-53.498442
 21
-66.95793000000001
 31
0.0
  0
LINE
  5
88
330
76
100
AcDbEntity
  8
別途部材
  6
Continuous
100
AcDbLine
 10
-55.498442
 20
-67.95793000000001
 30
0.0
 11
-56.498442
 21
-66.95793000000001
 31
0.0
  0
LINE
  5
89
330
76
100
AcDbEntity
  8
別途部材
  6
Continuous
100
AcDbLine
 10
-57.498442
 20
-66.95793000000001
 30
0.0
 11
-58.498442
 21
-67.95793000000001
 31
0.0
  0
LINE
  5
8A
330
76
100
AcDbEntity
  8
別途部材
  6
Continuous
100
AcDbLine
 10
-56.498442
 20
-66.95793000000001
 30
0.0
 11
-57.498442
 21
-66.95793000000001
 31
0.0
  0
LINE
  5
8B
330
76
100
AcDbEntity
  8
別途部材
  6
Continuous
100
AcDbLine
 10
-59.498442
 20
-67.95793000000001
 30
0.0
 11
-60.498442
 21
-66.95793000000001
 31
0.0
  0
LINE
  5
8C
330
76
100
AcDbEntity
  8
別途部材
  6
Continuous
100
AcDbLine
 10
-61.498442
 20
-66.95793000000001
 30
0.0
 11
-62.498442
 21
-67.95793000000001
 31
0.0
  0
LINE
  5
8D
330
76
100
AcDbEntity
  8
別途部材
  6
Continuous
100
AcDbLine
 10
-60.498442
 20
-66.95793000000001
 30
0.0
 11
-61.498442
 21
-66.95793000000001
 31
0.0
  0
LINE
  5
8E
330
76
100
AcDbEntity
  8
別途部材
  6
Continuous
100
AcDbLine
 10
-63.498442
 20
-67.95793000000001
 30
0.0
 11
-64.498442
 21
-66.95793000000001
 31
0.0
  0
LINE
  5
8F
330
76
100
AcDbEntity
  8
別途部材
  6
Continuous
100
AcDbLine
 10
-65.498442
 20
-66.95793000000001
 30
0.0
 11
-66.498442
 21
-67.95793000000001
 31
0.0
  0
LINE
  5
90
330
76
100
AcDbEntity
  8
別途部材
  6
Continuous
100
AcDbLine
 10
-64.498442
 20
-66.95793000000001
 30
0.0
 11
-65.498442
 21
-66.95793000000001
 31
0.0
  0
LINE
  5
91
330
76
100
AcDbEntity
  8
別途部材
  6
Continuous
100
AcDbLine
 10
-67.498442
 20
-67.95793000000001
 30
0.0
 11
-68.498442
 21
-66.95793000000001
 31
0.0
  0
LINE
  5
92
330
76
100
AcDbEntity
  8
別途部材
  6
Continuous
100
AcDbLine
 10
-69.498442
 20
-66.95793000000001
 30
0.0
 11
-70.498442
 21
-67.95793000000001
 31
0.0
  0
LINE
  5
93
330
76
100
AcDbEntity
  8
別途部材
  6
Continuous
100
AcDbLine
 10
-68.498442
 20
-66.95793000000001
 30
0.0
 11
-69.498442
 21
-66.95793000000001
 31
0.0
  0
LINE
  5
94
330
76
100
AcDbEntity
  8
別途部材
  6
Continuous
100
AcDbLine
 10
-71.498442
 20
-67.95793000000001
 30
0.0
 11
-72.498442
 21
-66.95793000000001
 31
0.0
  0
LINE
  5
95
330
76
100
AcDbEntity
  8
別途部材
  6
Continuous
100
AcDbLine
 10
-73.498442
 20
-66.95793000000001
 30
0.0
 11
-74.498442
 21
-67.95793000000001
 31
0.0
  0
LINE
  5
96
330
76
100
AcDbEntity
  8
別途部材
  6
Continuous
100
AcDbLine
 10
-72.498442
 20
-66.95793000000001
 30
0.0
 11
-73.498442
 21
-66.95793000000001
 31
0.0
  0
LINE
  5
97
330
76
100
AcDbEntity
  8
別途部材
  6
Continuous
100
AcDbLine
 10
-70.498442
 20
-67.95793000000001
 30
0.0
 11
-71.498442
 21
-67.95793000000001
 31
0.0
  0
LINE
  5
98
330
76
100
AcDbEntity
  8
別途部材
  6
Continuous
100
AcDbLine
 10
-66.498442
 20
-67.95793000000001
 30
0.0
 11
-67.498442
 21
-67.95793000000001
 31
0.0
  0
LINE
  5
99
330
76
100
AcDbEntity
  8
別途部材
  6
Continuous
100
AcDbLine
 10
-62.498442
 20
-67.95793000000001
 30
0.0
 11
-63.498442
 21
-67.95793000000001
 31
0.0
  0
LINE
  5
9A
330
76
100
AcDbEntity
  8
別途部材
  6
Continuous
100
AcDbLine
 10
-58.498442
 20
-67.95793000000001
 30
0.0
 11
-59.498442
 21
-67.95793000000001
 31
0.0
  0
LINE
  5
9B
330
76
100
AcDbEntity
  8
別途部材
  6
Continuous
100
AcDbLine
 10
-54.498442
 20
-67.95793000000001
 30
0.0
 11
-55.498442
 21
-67.95793000000001
 31
0.0
  0
LINE
  5
9C
330
76
100
AcDbEntity
  8
別途部材
  6
Continuous
100
AcDbLine
 10
-50.498442
 20
-67.95793000000001
 30
0.0
 11
-51.498442
 21
-67.95793000000001
 31
0.0
  0
LINE
  5
9D
330
76
100
AcDbEntity
  8
別途部材
  6
Continuous
100
AcDbLine
 10
-46.498442
 20
-67.95793000000001
 30
0.0
 11
-47.498442
 21
-67.95793000000001
 31
0.0
  0
LINE
  5
9E
330
76
100
AcDbEntity
  8
別途部材
  6
Continuous
100
AcDbLine
 10
-42.498442
 20
-67.95793000000001
 30
0.0
 11
-43.498442
 21
-67.95793000000001
 31
0.0
  0
LINE
  5
9F
330
76
100
AcDbEntity
  8
別途部材
  6
Continuous
100
AcDbLine
 10
-39.498442
 20
-67.95793000000001
 30
0.0
 11
-38.498442
 21
-67.95793000000001
 31
0.0
  0
LINE
  5
A0
330
76
100
AcDbEntity
  8
別途部材
  6
Continuous
100
AcDbLine
 10
-71.498442
 20
-67.95793000000001
 30
0.0
 11
-71.498442
 21
-79.62459699999999
 31
0.0
  0
LINE
  5
A1
330
76
100
AcDbEntity
  8
別途部材
  6
Continuous
100
AcDbLine
 10
-73.498442
 20
-66.95793000000001
 30
0.0
 11
-73.498442
 21
-79.62459699999999
 31
0.0
  0
LINE
  5
A2
330
76
100
AcDbEntity
  8
別途部材
  6
Continuous
100
AcDbLine
 10
-74.498442
 20
-67.95793000000001
 30
0.0
 11
-74.498442
 21
-79.62459699999999
 31
0.0
  0
LINE
  5
A3
330
76
100
AcDbEntity
  8
別途部材
  6
Continuous
100
AcDbLine
 10
-72.498442
 20
-66.95793000000001
 30
0.0
 11
-72.498442
 21
-79.62459699999999
 31
0.0
  0
LINE
  5
A4
330
76
100
AcDbEntity
  8
別途部材
  6
Continuous
100
AcDbLine
 10
-70.498442
 20
-67.95793000000001
 30
0.0
 11
-70.498442
 21
-79.62459699999999
 31
0.0
  0
LINE
  5
A5
330
76
100
AcDbEntity
  8
別途部材
  6
Continuous
100
AcDbLine
 10
-69.498442
 20
-66.95793000000001
 30
0.0
 11
-69.498442
 21
-79.62459699999999
 31
0.0
  0
LINE
  5
A6
330
76
100
AcDbEntity
  8
別途部材
  6
Continuous
100
AcDbLine
 10
-59.498442
 20
-67.95793000000001
 30
0.0
 11
-59.498442
 21
-79.62459699999999
 31
0.0
  0
LINE
  5
A7
330
76
100
AcDbEntity
  8
別途部材
  6
Continuous
100
AcDbLine
 10
-53.498442
 20
-66.95793000000001
 30
0.0
 11
-53.498442
 21
-79.62459699999999
 31
0.0
  0
LINE
  5
A8
330
76
100
AcDbEntity
  8
別途部材
  6
Continuous
100
AcDbLine
 10
-52.498442
 20
-66.95793000000001
 30
0.0
 11
-52.498442
 21
-79.62459699999999
 31
0.0
  0
LINE
  5
A9
330
76
100
AcDbEntity
  8
別途部材
  6
Continuous
100
AcDbLine
 10
-42.498442
 20
-67.95793000000001
 30
0.0
 11
-42.498442
 21
-79.62459699999999
 31
0.0
  0
LINE
  5
AA
330
76
100
AcDbEntity
  8
別途部材
  6
Continuous
100
AcDbLine
 10
-37.498442
 20
-66.95793000000001
 30
0.0
 11
-37.498442
 21
-79.62459699999999
 31
0.0
  0
LINE
  5
AB
330
76
100
AcDbEntity
  8
別途部材
  6
Continuous
100
AcDbLine
 10
-38.498442
 20
-67.95793000000001
 30
0.0
 11
-38.498442
 21
-79.62459699999999
 31
0.0
  0
LINE
  5
AC
330
76
100
AcDbEntity
  8
別途部材
  6
Continuous
100
AcDbLine
 10
-40.498442
 20
-66.95793000000001
 30
0.0
 11
-40.498442
 21
-79.62459699999999
 31
0.0
  0
LINE
  5
AD
330
76
100
AcDbEntity
  8
別途部材
  6
Continuous
100
AcDbLine
 10
-41.498442
 20
-66.95793000000001
 30
0.0
 11
-41.498442
 21
-79.62459699999999
 31
0.0
  0
LINE
  5
AE
330
76
100
AcDbEntity
  8
別途部材
  6
Continuous
100
AcDbLine
 10
-43.498442
 20
-67.95793000000001
 30
0.0
 11
-43.498442
 21
-79.62459699999999
 31
0.0
  0
LINE
  5
AF
330
76
100
AcDbEntity
  8
別途部材
  6
Continuous
100
AcDbLine
 10
-54.498442
 20
-67.95793000000001
 30
0.0
 11
-54.498442
 21
-79.62459699999999
 31
0.0
  0
LINE
  5
B0
330
76
100
AcDbEntity
  8
別途部材
  6
Continuous
100
AcDbLine
 10
-55.498442
 20
-67.95793000000001
 30
0.0
 11
-55.498442
 21
-79.62459699999999
 31
0.0
  0
LINE
  5
B1
330
76
100
AcDbEntity
  8
別途部材
  6
Continuous
100
AcDbLine
 10
-60.498442
 20
-66.95793000000001
 30
0.0
 11
-60.498442
 21
-79.62459699999999
 31
0.0
  0
LINE
  5
B2
330
76
100
AcDbEntity
  8
別途部材
  6
Continuous
100
AcDbLine
 10
-62.498442
 20
-67.95793000000001
 30
0.0
 11
-62.498442
 21
-79.62459699999999
 31
0.0
  0
LINE
  5
B3
330
76
100
AcDbEntity
  8
別途部材
  6
Continuous
100
AcDbLine
 10
-65.498442
 20
-66.95793000000001
 30
0.0
 11
-65.498442
 21
-79.62459699999999
 31
0.0
  0
LINE
  5
B4
330
76
100
AcDbEntity
  8
別途部材
  6
Continuous
100
AcDbLine
 10
-68.498442
 20
-66.95793000000001
 30
0.0
 11
-68.498442
 21
-79.62459699999999
 31
0.0
  0
LINE
  5
B5
330
76
100
AcDbEntity
  8
別途部材
  6
Continuous
100
AcDbLine
 10
-61.498442
 20
-66.95793000000001
 30
0.0
 11
-61.498442
 21
-79.62459699999999
 31
0.0
  0
LINE
  5
B6
330
76
100
AcDbEntity
  8
別途部材
  6
Continuous
100
AcDbLine
 10
-63.498442
 20
-67.95793000000001
 30
0.0
 11
-63.498442
 21
-79.62459699999999
 31
0.0
  0
LINE
  5
B7
330
76
100
AcDbEntity
  8
別途部材
  6
Continuous
100
AcDbLine
 10
-66.498442
 20
-67.95793000000001
 30
0.0
 11
-66.498442
 21
-79.62459699999999
 31
0.0
  0
LINE
  5
B8
330
76
100
AcDbEntity
  8
別途部材
  6
Continuous
100
AcDbLine
 10
-67.498442
 20
-67.95793000000001
 30
0.0
 11
-67.498442
 21
-79.62459699999999
 31
0.0
  0
LINE
  5
B9
330
76
100
AcDbEntity
  8
別途部材
  6
Continuous
100
AcDbLine
 10
-57.498442
 20
-66.95793000000001
 30
0.0
 11
-57.498442
 21
-79.62459699999999
 31
0.0
  0
LINE
  5
BA
330
76
100
AcDbEntity
  8
別途部材
  6
Continuous
100
AcDbLine
 10
-56.498442
 20
-66.95793000000001
 30
0.0
 11
-56.498442
 21
-79.62459699999999
 31
0.0
  0
LINE
  5
BB
330
76
100
AcDbEntity
  8
別途部材
  6
Continuous
100
AcDbLine
 10
-58.498442
 20
-67.95793000000001
 30
0.0
 11
-58.498442
 21
-79.62459699999999
 31
0.0
  0
LINE
  5
BC
330
76
100
AcDbEntity
  8
別途部材
  6
Continuous
100
AcDbLine
 10
-64.498442
 20
-66.95793000000001
 30
0.0
 11
-64.498442
 21
-79.62459699999999
 31
0.0
  0
LINE
  5
BD
330
76
100
AcDbEntity
  8
別途部材
  6
Continuous
100
AcDbLine
 10
-50.498442
 20
-67.95793000000001
 30
0.0
 11
-50.498442
 21
-79.62459699999999
 31
0.0
  0
LINE
  5
BE
330
76
100
AcDbEntity
  8
別途部材
  6
Continuous
100
AcDbLine
 10
-51.498442
 20
-67.95793000000001
 30
0.0
 11
-51.498442
 21
-79.62459699999999
 31
0.0
  0
LINE
  5
BF
330
76
100
AcDbEntity
  8
別途部材
  6
Continuous
100
AcDbLine
 10
-49.498442
 20
-66.95793000000001
 30
0.0
 11
-49.498442
 21
-79.62459699999999
 31
0.0
  0
LINE
  5
C0
330
76
100
AcDbEntity
  8
別途部材
  6
Continuous
100
AcDbLine
 10
-47.498442
 20
-67.95793000000001
 30
0.0
 11
-47.498442
 21
-79.62459699999999
 31
0.0
  0
LINE
  5
C1
330
76
100
AcDbEntity
  8
別途部材
  6
Continuous
100
AcDbLine
 10
-48.498442
 20
-66.95793000000001
 30
0.0
 11
-48.498442
 21
-79.62459699999999
 31
0.0
  0
LINE
  5
C2
330
76
100
AcDbEntity
  8
別途部材
  6
Continuous
100
AcDbLine
 10
-46.498442
 20
-67.95793000000001
 30
0.0
 11
-46.498442
 21
-79.62459699999999
 31
0.0
  0
LINE
  5
C3
330
76
100
AcDbEntity
  8
別途部材
  6
Continuous
100
AcDbLine
 10
-44.498442
 20
-66.95793000000001
 30
0.0
 11
-44.498442
 21
-79.62459699999999
 31
0.0
  0
LINE
  5
C4
330
76
100
AcDbEntity
  8
別途部材
  6
Continuous
100
AcDbLine
 10
-45.498442
 20
-66.95793000000001
 30
0.0
 11
-45.498442
 21
-79.62459699999999
 31
0.0
  0
LINE
  5
C5
330
76
100
AcDbEntity
  8
別途部材
  6
Continuous
100
AcDbLine
 10
-39.498442
 20
-67.95793000000001
 30
0.0
 11
-39.498442
 21
-79.62459699999999
 31
0.0
  0
ARC
  5
C6
330
76
100
AcDbEntity
  8
別途部材
  6
Continuous
100
AcDbCircle
 10
-73.66510700000001
 20
-93.91031
 30
0.0
 40
25.952382
100
AcDbArc
 50
91.84009399999999
 51
146.601512
  0
LINE
  5
C7
330
76
100
AcDbEntity
  8
別途部材
  6
Continuous
 62
    96
100
AcDbLine
 10
23.001557
 20
-79.62459699999999
 30
0.0
 11
23.401557
 21
-80.62459699999999
 31
0.0
  0
LINE
  5
C8
330
76
100
AcDbEntity
  8
別途部材
  6
Continuous
100
AcDbLine
 10
23.401557
 20
-80.62459699999999
 30
0.0
 11
-36.998442
 21
-80.62459699999999
 31
0.0
  0
LINE
  5
C9
330
76
100
AcDbEntity
  8
別途部材
  6
Continuous
 62
    96
100
AcDbLine
 10
23.001557
 20
-79.62459699999999
 30
0.0
 11
-36.998442
 21
-79.62459699999999
 31
0.0
  0
LINE
  5
CA
330
76
100
AcDbEntity
  8
別途部材
  6
Continuous
100
AcDbLine
 10
-36.498442
 20
-66.95793000000001
 30
0.0
 11
-35.498442
 21
-67.95793000000001
 31
0.0
  0
LINE
  5
CB
330
76
100
AcDbEntity
  8
別途部材
  6
Continuous
100
AcDbLine
 10
-34.498442
 20
-67.95793000000001
 30
0.0
 11
-33.498442
 21
-66.95793000000001
 31
0.0
  0
LINE
  5
CC
330
76
100
AcDbEntity
  8
別途部材
  6
Continuous
100
AcDbLine
 10
-32.498442
 20
-66.95793000000001
 30
0.0
 11
-31.498442
 21
-67.95793000000001
 31
0.0
  0
LINE
  5
CD
330
76
100
AcDbEntity
  8
別途部材
  6
Continuous
100
AcDbLine
 10
-33.498442
 20
-66.95793000000001
 30
0.0
 11
-32.498442
 21
-66.95793000000001
 31
0.0
  0
LINE
  5
CE
330
76
100
AcDbEntity
  8
別途部材
  6
Continuous
100
AcDbLine
 10
-36.498442
 20
-66.95793000000001
 30
0.0
 11
-36.998442
 21
-66.95793000000001
 31
0.0
  0
LINE
  5
CF
330
76
100
AcDbEntity
  8
別途部材
  6
Continuous
100
AcDbLine
 10
-30.498442
 20
-67.95793000000001
 30
0.0
 11
-29.498442
 21
-66.95793000000001
 31
0.0
  0
LINE
  5
D0
330
76
100
AcDbEntity
  8
別途部材
  6
Continuous
100
AcDbLine
 10
-28.498442
 20
-66.95793000000001
 30
0.0
 11
-27.498442
 21
-67.95793000000001
 31
0.0
  0
LINE
  5
D1
330
76
100
AcDbEntity
  8
別途部材
  6
Continuous
100
AcDbLine
 10
-29.498442
 20
-66.95793000000001
 30
0.0
 11
-28.498442
 21
-66.95793000000001
 31
0.0
  0
LINE
  5
D2
330
76
100
AcDbEntity
  8
別途部材
  6
Continuous
100
AcDbLine
 10
-26.498442
 20
-67.95793000000001
 30
0.0
 11
-25.498442
 21
-66.95793000000001
 31
0.0
  0
LINE
  5
D3
330
76
100
AcDbEntity
  8
別途部材
  6
Continuous
100
AcDbLine
 10
-24.498442
 20
-66.95793000000001
 30
0.0
 11
-23.498442
 21
-67.95793000000001
 31
0.0
  0
LINE
  5
D4
330
76
100
AcDbEntity
  8
別途部材
  6
Continuous
100
AcDbLine
 10
-25.498442
 20
-66.95793000000001
 30
0.0
 11
-24.498442
 21
-66.95793000000001
 31
0.0
  0
LINE
  5
D5
330
76
100
AcDbEntity
  8
別途部材
  6
Continuous
100
AcDbLine
 10
-22.498442
 20
-67.95793000000001
 30
0.0
 11
-21.498442
 21
-66.95793000000001
 31
0.0
  0
LINE
  5
D6
330
76
100
AcDbEntity
  8
別途部材
  6
Continuous
100
AcDbLine
 10
-20.498442
 20
-66.95793000000001
 30
0.0
 11
-19.498442
 21
-67.95793000000001
 31
0.0
  0
LINE
  5
D7
330
76
100
AcDbEntity
  8
別途部材
  6
Continuous
100
AcDbLine
 10
-21.498442
 20
-66.95793000000001
 30
0.0
 11
-20.498442
 21
-66.95793000000001
 31
0.0
  0
LINE
  5
D8
330
76
100
AcDbEntity
  8
別途部材
  6
Continuous
100
AcDbLine
 10
-18.498442
 20
-67.95793000000001
 30
0.0
 11
-17.498442
 21
-66.95793000000001
 31
0.0
  0
LINE
  5
D9
330
76
100
AcDbEntity
  8
別途部材
  6
Continuous
100
AcDbLine
 10
-16.498442
 20
-66.95793000000001
 30
0.0
 11
-15.498442
 21
-67.95793000000001
 31
0.0
  0
LINE
  5
DA
330
76
100
AcDbEntity
  8
別途部材
  6
Continuous
100
AcDbLine
 10
-17.498442
 20
-66.95793000000001
 30
0.0
 11
-16.498442
 21
-66.95793000000001
 31
0.0
  0
LINE
  5
DB
330
76
100
AcDbEntity
  8
別途部材
  6
Continuous
100
AcDbLine
 10
-14.498442
 20
-67.95793000000001
 30
0.0
 11
-13.498442
 21
-66.95793000000001
 31
0.0
  0
LINE
  5
DC
330
76
100
AcDbEntity
  8
別途部材
  6
Continuous
100
AcDbLine
 10
-12.498442
 20
-66.95793000000001
 30
0.0
 11
-11.498442
 21
-67.95793000000001
 31
0.0
  0
LINE
  5
DD
330
76
100
AcDbEntity
  8
別途部材
  6
Continuous
100
AcDbLine
 10
-13.498442
 20
-66.95793000000001
 30
0.0
 11
-12.498442
 21
-66.95793000000001
 31
0.0
  0
LINE
  5
DE
330
76
100
AcDbEntity
  8
別途部材
  6
Continuous
100
AcDbLine
 10
-10.498442
 20
-67.95793000000001
 30
0.0
 11
-9.498442000000001
 21
-66.95793000000001
 31
0.0
  0
LINE
  5
DF
330
76
100
AcDbEntity
  8
別途部材
  6
Continuous
100
AcDbLine
 10
-8.498442000000001
 20
-66.95793000000001
 30
0.0
 11
-7.498442
 21
-67.95793000000001
 31
0.0
  0
LINE
  5
E0
330
76
100
AcDbEntity
  8
別途部材
  6
Continuous
100
AcDbLine
 10
-9.498442000000001
 20
-66.95793000000001
 30
0.0
 11
-8.498442000000001
 21
-66.95793000000001
 31
0.0
  0
LINE
  5
E1
330
76
100
AcDbEntity
  8
別途部材
  6
Continuous
100
AcDbLine
 10
-6.498442
 20
-67.95793000000001
 30
0.0
 11
-5.498442
 21
-66.95793000000001
 31
0.0
  0
LINE
  5
E2
330
76
100
AcDbEntity
  8
別途部材
  6
Continuous
100
AcDbLine
 10
-4.498442
 20
-66.95793000000001
 30
0.0
 11
-3.498442
 21
-67.95793000000001
 31
0.0
  0
LINE
  5
E3
330
76
100
AcDbEntity
  8
別途部材
  6
Continuous
100
AcDbLine
 10
-5.498442
 20
-66.95793000000001
 30
0.0
 11
-4.498442
 21
-66.95793000000001
 31
0.0
  0
LINE
  5
E4
330
76
100
AcDbEntity
  8
別途部材
  6
Continuous
100
AcDbLine
 10
-2.498442
 20
-67.95793000000001
 30
0.0
 11
-1.498442
 21
-66.95793000000001
 31
0.0
  0
LINE
  5
E5
330
76
100
AcDbEntity
  8
別途部材
  6
Continuous
100
AcDbLine
 10
-0.498442
 20
-66.95793000000001
 30
0.0
 11
0.501557
 21
-67.95793000000001
 31
0.0
  0
LINE
  5
E6
330
76
100
AcDbEntity
  8
別途部材
  6
Continuous
100
AcDbLine
 10
-1.498442
 20
-66.95793000000001
 30
0.0
 11
-0.498442
 21
-66.95793000000001
 31
0.0
  0
LINE
  5
E7
330
76
100
AcDbEntity
  8
別途部材
  6
Continuous
100
AcDbLine
 10
-3.498442
 20
-67.95793000000001
 30
0.0
 11
-2.498442
 21
-67.95793000000001
 31
0.0
  0
LINE
  5
E8
330
76
100
AcDbEntity
  8
別途部材
  6
Continuous
100
AcDbLine
 10
-7.498442
 20
-67.95793000000001
 30
0.0
 11
-6.498442
 21
-67.95793000000001
 31
0.0
  0
LINE
  5
E9
330
76
100
AcDbEntity
  8
別途部材
  6
Continuous
100
AcDbLine
 10
-11.498442
 20
-67.95793000000001
 30
0.0
 11
-10.498442
 21
-67.95793000000001
 31
0.0
  0
LINE
  5
EA
330
76
100
AcDbEntity
  8
別途部材
  6
Continuous
100
AcDbLine
 10
-15.498442
 20
-67.95793000000001
 30
0.0
 11
-14.498442
 21
-67.95793000000001
 31
0.0
  0
LINE
  5
EB
330
76
100
AcDbEntity
  8
別途部材
  6
Continuous
100
AcDbLine
 10
-19.498442
 20
-67.95793000000001
 30
0.0
 11
-18.498442
 21
-67.95793000000001
 31
0.0
  0
LINE
  5
EC
330
76
100
AcDbEntity
  8
別途部材
  6
Continuous
100
AcDbLine
 10
-23.498442
 20
-67.95793000000001
 30
0.0
 11
-22.498442
 21
-67.95793000000001
 31
0.0
  0
LINE
  5
ED
330
76
100
AcDbEntity
  8
別途部材
  6
Continuous
100
AcDbLine
 10
-27.498442
 20
-67.95793000000001
 30
0.0
 11
-26.498442
 21
-67.95793000000001
 31
0.0
  0
LINE
  5
EE
330
76
100
AcDbEntity
  8
別途部材
  6
Continuous
100
AcDbLine
 10
-31.498442
 20
-67.95793000000001
 30
0.0
 11
-30.498442
 21
-67.95793000000001
 31
0.0
  0
LINE
  5
EF
330
76
100
AcDbEntity
  8
別途部材
  6
Continuous
100
AcDbLine
 10
-34.498442
 20
-67.95793000000001
 30
0.0
 11
-35.498442
 21
-67.95793000000001
 31
0.0
  0
LINE
  5
F0
330
76
100
AcDbEntity
  8
別途部材
  6
Continuous
100
AcDbLine
 10
-2.498442
 20
-67.95793000000001
 30
0.0
 11
-2.498442
 21
-79.62459699999999
 31
0.0
  0
LINE
  5
F1
330
76
100
AcDbEntity
  8
別途部材
  6
Continuous
100
AcDbLine
 10
-0.498442
 20
-66.95793000000001
 30
0.0
 11
-0.498442
 21
-79.62459699999999
 31
0.0
  0
LINE
  5
F2
330
76
100
AcDbEntity
  8
別途部材
  6
Continuous
100
AcDbLine
 10
0.501557
 20
-67.95793000000001
 30
0.0
 11
0.501557
 21
-79.62459699999999
 31
0.0
  0
LINE
  5
F3
330
76
100
AcDbEntity
  8
別途部材
  6
Continuous
100
AcDbLine
 10
-1.498442
 20
-66.95793000000001
 30
0.0
 11
-1.498442
 21
-79.62459699999999
 31
0.0
  0
LINE
  5
F4
330
76
100
AcDbEntity
  8
別途部材
  6
Continuous
100
AcDbLine
 10
-3.498442
 20
-67.95793000000001
 30
0.0
 11
-3.498442
 21
-79.62459699999999
 31
0.0
  0
LINE
  5
F5
330
76
100
AcDbEntity
  8
別途部材
  6
Continuous
100
AcDbLine
 10
-4.498442
 20
-66.95793000000001
 30
0.0
 11
-4.498442
 21
-79.62459699999999
 31
0.0
  0
LINE
  5
F6
330
76
100
AcDbEntity
  8
別途部材
  6
Continuous
100
AcDbLine
 10
-14.498442
 20
-67.95793000000001
 30
0.0
 11
-14.498442
 21
-79.62459699999999
 31
0.0
  0
LINE
  5
F7
330
76
100
AcDbEntity
  8
別途部材
  6
Continuous
100
AcDbLine
 10
-20.498442
 20
-66.95793000000001
 30
0.0
 11
-20.498442
 21
-79.62459699999999
 31
0.0
  0
LINE
  5
F8
330
76
100
AcDbEntity
  8
別途部材
  6
Continuous
100
AcDbLine
 10
-21.498442
 20
-66.95793000000001
 30
0.0
 11
-21.498442
 21
-79.62459699999999
 31
0.0
  0
LINE
  5
F9
330
76
100
AcDbEntity
  8
別途部材
  6
Continuous
100
AcDbLine
 10
-31.498442
 20
-67.95793000000001
 30
0.0
 11
-31.498442
 21
-79.62459699999999
 31
0.0
  0
LINE
  5
FA
330
76
100
AcDbEntity
  8
別途部材
  6
Continuous
100
AcDbLine
 10
-36.498442
 20
-66.95793000000001
 30
0.0
 11
-36.498442
 21
-79.62459699999999
 31
0.0
  0
LINE
  5
FB
330
76
100
AcDbEntity
  8
別途部材
  6
Continuous
100
AcDbLine
 10
-35.498442
 20
-67.95793000000001
 30
0.0
 11
-35.498442
 21
-79.62459699999999
 31
0.0
  0
LINE
  5
FC
330
76
100
AcDbEntity
  8
別途部材
  6
Continuous
100
AcDbLine
 10
-33.498442
 20
-66.95793000000001
 30
0.0
 11
-33.498442
 21
-79.62459699999999
 31
0.0
  0
LINE
  5
FD
330
76
100
AcDbEntity
  8
別途部材
  6
Continuous
100
AcDbLine
 10
-32.498442
 20
-66.95793000000001
 30
0.0
 11
-32.498442
 21
-79.62459699999999
 31
0.0
  0
LINE
  5
FE
330
76
100
AcDbEntity
  8
別途部材
  6
Continuous
100
AcDbLine
 10
-30.498442
 20
-67.95793000000001
 30
0.0
 11
-30.498442
 21
-79.62459699999999
 31
0.0
  0
LINE
  5
FF
330
76
100
AcDbEntity
  8
別途部材
  6
Continuous
100
AcDbLine
 10
-19.498442
 20
-67.95793000000001
 30
0.0
 11
-19.498442
 21
-79.62459699999999
 31
0.0
  0
LINE
  5
100
330
76
100
AcDbEntity
  8
別途部材
  6
Continuous
100
AcDbLine
 10
-18.498442
 20
-67.95793000000001
 30
0.0
 11
-18.498442
 21
-79.62459699999999
 31
0.0
  0
LINE
  5
101
330
76
100
AcDbEntity
  8
別途部材
  6
Continuous
100
AcDbLine
 10
-13.498442
 20
-66.95793000000001
 30
0.0
 11
-13.498442
 21
-79.62459699999999
 31
0.0
  0
LINE
  5
102
330
76
100
AcDbEntity
  8
別途部材
  6
Continuous
100
AcDbLine
 10
-11.498442
 20
-67.95793000000001
 30
0.0
 11
-11.498442
 21
-79.62459699999999
 31
0.0
  0
LINE
  5
103
330
76
100
AcDbEntity
  8
別途部材
  6
Continuous
100
AcDbLine
 10
-8.498442000000001
 20
-66.95793000000001
 30
0.0
 11
-8.498442000000001
 21
-79.62459699999999
 31
0.0
  0
LINE
  5
104
330
76
100
AcDbEntity
  8
別途部材
  6
Continuous
100
AcDbLine
 10
-5.498442
 20
-66.95793000000001
 30
0.0
 11
-5.498442
 21
-79.62459699999999
 31
0.0
  0
LINE
  5
105
330
76
100
AcDbEntity
  8
別途部材
  6
Continuous
100
AcDbLine
 10
-12.498442
 20
-66.95793000000001
 30
0.0
 11
-12.498442
 21
-79.62459699999999
 31
0.0
  0
LINE
  5
106
330
76
100
AcDbEntity
  8
別途部材
  6
Continuous
100
AcDbLine
 10
-10.498442
 20
-67.95793000000001
 30
0.0
 11
-10.498442
 21
-79.62459699999999
 31
0.0
  0
LINE
  5
107
330
76
100
AcDbEntity
  8
別途部材
  6
Continuous
100
AcDbLine
 10
-7.498442
 20
-67.95793000000001
 30
0.0
 11
-7.498442
 21
-79.62459699999999
 31
0.0
  0
LINE
  5
108
330
76
100
AcDbEntity
  8
別途部材
  6
Continuous
100
AcDbLine
 10
-6.498442
 20
-67.95793000000001
 30
0.0
 11
-6.498442
 21
-79.62459699999999
 31
0.0
  0
LINE
  5
109
330
76
100
AcDbEntity
  8
別途部材
  6
Continuous
100
AcDbLine
 10
-16.498442
 20
-66.95793000000001
 30
0.0
 11
-16.498442
 21
-79.62459699999999
 31
0.0
  0
LINE
  5
10A
330
76
100
AcDbEntity
  8
別途部材
  6
Continuous
100
AcDbLine
 10
-17.498442
 20
-66.95793000000001
 30
0.0
 11
-17.498442
 21
-79.62459699999999
 31
0.0
  0
LINE
  5
10B
330
76
100
AcDbEntity
  8
別途部材
  6
Continuous
100
AcDbLine
 10
-15.498442
 20
-67.95793000000001
 30
0.0
 11
-15.498442
 21
-79.62459699999999
 31
0.0
  0
LINE
  5
10C
330
76
100
AcDbEntity
  8
別途部材
  6
Continuous
100
AcDbLine
 10
-9.498442000000001
 20
-66.95793000000001
 30
0.0
 11
-9.498442000000001
 21
-79.62459699999999
 31
0.0
  0
LINE
  5
10D
330
76
100
AcDbEntity
  8
別途部材
  6
Continuous
100
AcDbLine
 10
-23.498442
 20
-67.95793000000001
 30
0.0
 11
-23.498442
 21
-79.62459699999999
 31
0.0
  0
LINE
  5
10E
330
76
100
AcDbEntity
  8
別途部材
  6
Continuous
100
AcDbLine
 10
-22.498442
 20
-67.95793000000001
 30
0.0
 11
-22.498442
 21
-79.62459699999999
 31
0.0
  0
LINE
  5
10F
330
76
100
AcDbEntity
  8
別途部材
  6
Continuous
100
AcDbLine
 10
-24.498442
 20
-66.95793000000001
 30
0.0
 11
-24.498442
 21
-79.62459699999999
 31
0.0
  0
LINE
  5
110
330
76
100
AcDbEntity
  8
別途部材
  6
Continuous
100
AcDbLine
 10
-26.498442
 20
-67.95793000000001
 30
0.0
 11
-26.498442
 21
-79.62459699999999
 31
0.0
  0
LINE
  5
111
330
76
100
AcDbEntity
  8
別途部材
  6
Continuous
100
AcDbLine
 10
-25.498442
 20
-66.95793000000001
 30
0.0
 11
-25.498442
 21
-79.62459699999999
 31
0.0
  0
LINE
  5
112
330
76
100
AcDbEntity
  8
別途部材
  6
Continuous
100
AcDbLine
 10
-27.498442
 20
-67.95793000000001
 30
0.0
 11
-27.498442
 21
-79.62459699999999
 31
0.0
  0
LINE
  5
113
330
76
100
AcDbEntity
  8
別途部材
  6
Continuous
100
AcDbLine
 10
-29.498442
 20
-66.95793000000001
 30
0.0
 11
-29.498442
 21
-79.62459699999999
 31
0.0
  0
LINE
  5
114
330
76
100
AcDbEntity
  8
別途部材
  6
Continuous
100
AcDbLine
 10
-28.498442
 20
-66.95793000000001
 30
0.0
 11
-28.498442
 21
-79.62459699999999
 31
0.0
  0
LINE
  5
115
330
76
100
AcDbEntity
  8
別途部材
  6
Continuous
100
AcDbLine
 10
-34.498442
 20
-67.95793000000001
 30
0.0
 11
-34.498442
 21
-79.62459699999999
 31
0.0
  0
ARC
  5
116
330
76
100
AcDbEntity
  8
別途部材
  6
Continuous
100
AcDbCircle
 10
-0.331778
 20
-93.91031
 30
0.0
 40
25.952382
100
AcDbArc
 50
33.398488
 51
88.15990600000001
  0
ENDBLK
  5
117
330
76
100
AcDbEntity
  8
0
100
AcDbBlockEnd
  0
BLOCK
  5
118
330
119
100
AcDbEntity
  8
0
100
AcDbBlockBegin
  2
*U4
 70
     1
 71
     0
 10
0.0
 20
0.0
 30
0.0
  3
*U4
  1

  0
LINE
  5
11A
330
119
100
AcDbEntity
  8
寸法
  6
ByBlock
 62
     0
100
AcDbLine
 10
55.35454
 20
13.399048
 30
0.0
 11
55.35454
 21
56.73238
 31
0.0
  0
POINT
  5
11B
330
119
100
AcDbEntity
  8
寸法
 62
     0
100
AcDbPoint
 10
55.35454
 20
13.399048
 30
0.0
  0
POINT
  5
11C
330
119
100
AcDbEntity
  8
寸法
 62
     0
100
AcDbPoint
 10
55.35454
 20
56.73238
 30
0.0
  0
TEXT
  5
11D
330
119
100
AcDbEntity
  8
寸法
  6
Continuous
 62
     0
100
AcDbText
 10
55.025
 20
23.33125
 30
0.0
 40
3.0
  1
呼称寸法　1300
 50
90.0
  7
TextStyle03
 72
     5
 11
55.025
 21
46.76875
 31
0.0
100
AcDbText
  0
ENDBLK
  5
11E
330
119
100
AcDbEntity
  8
0
100
AcDbBlockEnd
  0
BLOCK
  5
11F
330
120
100
AcDbEntity
  8
0
100
AcDbBlockBegin
  2
*U5
 70
     1
 71
     0
 10
0.0
 20
0.0
 30
0.0
  3
*U5
  1

  0
LINE
  5
121
330
120
100
AcDbEntity
  8
寸法
  6
ByBlock
 62
     0
100
AcDbLine
 10
99.201488
 20
36.065715
 30
0.0
 11
99.201488
 21
72.66843299999999
 31
0.0
  0
LINE
  5
122
330
120
100
AcDbEntity
  8
寸法
  6
ByBlock
 62
     0
100
AcDbLine
 10
110.868155
 20
72.66843299999999
 30
0.0
 11
99.201488
 21
72.66843299999999
 31
0.0
  0
POINT
  5
123
330
120
100
AcDbEntity
  8
寸法
 62
     0
100
AcDbPoint
 10
99.201488
 20
72.66843299999999
 30
0.0
  0
TEXT
  5
124
330
120
100
AcDbEntity
  8
寸法
  6
Continuous
 62
     0
100
AcDbText
 10
102.6375
 20
73.02500000000001
 30
0.0
 40
3.0
  1
350
  7
TextStyle03
 72
     5
 11
107.5125
 21
73.02500000000001
 31
0.0
100
AcDbText
  0
ENDBLK
  5
125
330
120
100
AcDbEntity
  8
0
100
AcDbBlockEnd
  0
BLOCK
  5
126
330
127
100
AcDbEntity
  8
0
100
AcDbBlockBegin
  2
*U6
 70
     1
 71
     0
 10
0.0
 20
0.0
 30
0.0
  3
*U6
  1

  0
LINE
  5
128
330
127
100
AcDbEntity
  8
寸法
  6
ByBlock
 62
     0
100
AcDbLine
 10
110.868155
 20
61.39905
 30
0.0
 11
110.868155
 21
72.66843299999999
 31
0.0
  0
LINE
  5
129
330
127
100
AcDbEntity
  8
寸法
  6
ByBlock
 62
     0
100
AcDbLine
 10
114.701728
 20
63.065718
 30
0.0
 11
114.701728
 21
72.66843299999999
 31
0.0
  0
LINE
  5
12A
330
127
100
AcDbEntity
  8
寸法
  6
ByBlock
 62
     0
100
AcDbLine
 10
110.868155
 20
72.66843299999999
 30
0.0
 11
114.701728
 21
72.66843299999999
 31
0.0
  0
POINT
  5
12B
330
127
100
AcDbEntity
  8
寸法
 62
     0
100
AcDbPoint
 10
110.868155
 20
72.66843299999999
 30
0.0
  0
POINT
  5
12C
330
127
100
AcDbEntity
  8
寸法
 62
     0
100
AcDbPoint
 10
114.701728
 20
72.66843299999999
 30
0.0
  0
TEXT
  5
12D
330
127
100
AcDbEntity
  8
寸法
  6
Continuous
 62
     0
100
AcDbText
 10
115.3875
 20
73.02500000000001
 30
0.0
 40
3.0
  1
115
  7
TextStyle03
 72
     5
 11
120.2625
 21
73.02500000000001
 31
0.0
100
AcDbText
  0
ENDBLK
  5
12E
330
127
100
AcDbEntity
  8
0
100
AcDbBlockEnd
  0
BLOCK
  5
12F
330
130
100
AcDbEntity
  8
0
100
AcDbBlockBegin
  2
*U7
 70
     1
 71
     0
 10
0.0
 20
0.0
 30
0.0
  3
*U7
  1

  0
LINE
  5
131
330
130
100
AcDbEntity
  8
寸法
  6
ByBlock
 62
     0
100
AcDbLine
 10
0.668223
 20
-67.95793000000001
 30
0.0
 11
37.27094
 21
-67.95793000000001
 31
0.0
  0
LINE
  5
132
330
130
100
AcDbEntity
  8
寸法
  6
ByBlock
 62
     0
100
AcDbLine
 10
37.27094
 20
-79.62459699999999
 30
0.0
 11
37.27094
 21
-67.95793000000001
 31
0.0
  0
POINT
  5
133
330
130
100
AcDbEntity
  8
寸法
 62
     0
100
AcDbPoint
 10
37.27094
 20
-67.95793000000001
 30
0.0
 50
90.0
  0
TEXT
  5
134
330
130
100
AcDbEntity
  8
寸法
  6
Continuous
 62
     0
100
AcDbText
 10
37.65
 20
-71.41249999999999
 30
0.0
 40
3.0
  1
350
 50
270.0
  7
TextStyle03
 72
     5
 11
37.65
 21
-76.28749999999999
 31
0.0
100
AcDbText
  0
ENDBLK
  5
135
330
130
100
AcDbEntity
  8
0
100
AcDbBlockEnd
  0
BLOCK
  5
136
330
137
100
AcDbEntity
  8
0
100
AcDbBlockBegin
  2
*U8
 70
     1
 71
     0
 10
0.0
 20
0.0
 30
0.0
  3
*U8
  1

  0
LINE
  5
138
330
137
100
AcDbEntity
  8
寸法
  6
ByBlock
 62
     0
100
AcDbLine
 10
26.001557
 20
-79.62459699999999
 30
0.0
 11
37.27094
 21
-79.62459699999999
 31
0.0
  0
LINE
  5
139
330
137
100
AcDbEntity
  8
寸法
  6
ByBlock
 62
     0
100
AcDbLine
 10
27.668225
 20
-83.45817
 30
0.0
 11
37.27094
 21
-83.45817
 31
0.0
  0
LINE
  5
13A
330
137
100
AcDbEntity
  8
寸法
  6
ByBlock
 62
     0
100
AcDbLine
 10
37.27094
 20
-79.62459699999999
 30
0.0
 11
37.27094
 21
-83.45817
 31
0.0
  0
POINT
  5
13B
330
137
100
AcDbEntity
  8
寸法
 62
     0
100
AcDbPoint
 10
37.27094
 20
-79.62459699999999
 30
0.0
 50
90.0
  0
POINT
  5
13C
330
137
100
AcDbEntity
  8
寸法
 62
     0
100
AcDbPoint
 10
37.27094
 20
-83.45817
 30
0.0
 50
90.0
  0
TEXT
  5
13D
330
137
100
AcDbEntity
  8
寸法
  6
Continuous
 62
     0
100
AcDbText
 10
37.65
 20
-84.16249999999999
 30
0.0
 40
3.0
  1
115
 50
270.0
  7
TextStyle03
 72
     5
 11
37.65
 21
-89.03749999999999
 31
0.0
100
AcDbText
  0
ENDBLK
  5
13E
330
137
100
AcDbEntity
  8
0
100
AcDbBlockEnd
  0
BLOCK
  5
13F
330
140
100
AcDbEntity
  8
0
100
AcDbBlockBegin
  2
*U9
 70
     1
 71
     0
 10
0.0
 20
0.0
 30
0.0
  3
*U9
  1

  0
LINE
  5
141
330
140
100
AcDbEntity
  8
寸法
  6
ByBlock
 62
     0
100
AcDbLine
 10
-98.331778
 20
23.399048
 30
0.0
 11
-127.276943
 21
23.399048
 31
0.0
  0
LINE
  5
142
330
140
100
AcDbEntity
  8
寸法
  6
ByBlock
 62
     0
100
AcDbLine
 10
-98.331778
 20
46.732382
 30
0.0
 11
-127.276943
 21
46.732382
 31
0.0
  0
LINE
  5
143
330
140
100
AcDbEntity
  8
寸法
  6
ByBlock
 62
     0
100
AcDbLine
 10
-127.276943
 20
23.399048
 30
0.0
 11
-127.276943
 21
46.732382
 31
0.0
  0
POINT
  5
144
330
140
100
AcDbEntity
  8
寸法
 62
     0
100
AcDbPoint
 10
-127.276943
 20
23.399048
 30
0.0
  0
POINT
  5
145
330
140
100
AcDbEntity
  8
寸法
 62
     0
100
AcDbPoint
 10
-127.276943
 20
46.732382
 30
0.0
  0
TEXT
  5
146
330
140
100
AcDbEntity
  8
寸法
  6
Continuous
 62
     0
100
AcDbText
 10
-127.7
 20
32.6125
 30
0.0
 40
3.0
  1
700
 50
90.0
  7
TextStyle03
 72
     5
 11
-127.7
 21
37.4875
 31
0.0
100
AcDbText
  0
ENDBLK
  5
147
330
140
100
AcDbEntity
  8
0
100
AcDbBlockEnd
  0
BLOCK
  5
148
330
149
100
AcDbEntity
  8
0
100
AcDbBlockBegin
  2
*U10
 70
     1
 71
     0
 10
0.0
 20
0.0
 30
0.0
  3
*U10
  1

  0
LINE
  5
14A
330
149
100
AcDbEntity
  8
寸法
  6
ByBlock
 62
     0
100
AcDbLine
 10
-90.33177499999999
 20
59.73238
 30
0.0
 11
-90.33177499999999
 21
88.840452
 31
0.0
  0
LINE
  5
14B
330
149
100
AcDbEntity
  8
寸法
  6
ByBlock
 62
     0
100
AcDbLine
 10
-63.66511
 20
59.73238
 30
0.0
 11
-63.66511
 21
88.840452
 31
0.0
  0
LINE
  5
14C
330
149
100
AcDbEntity
  8
寸法
  6
ByBlock
 62
     0
100
AcDbLine
 10
-90.33177499999999
 20
88.840452
 30
0.0
 11
-63.66511
 21
88.840452
 31
0.0
  0
POINT
  5
14D
330
149
100
AcDbEntity
  8
寸法
 62
     0
100
AcDbPoint
 10
-90.33177499999999
 20
88.840452
 30
0.0
  0
POINT
  5
14E
330
149
100
AcDbEntity
  8
寸法
 62
     0
100
AcDbPoint
 10
-63.66511
 20
88.840452
 30
0.0
  0
TEXT
  5
14F
330
149
100
AcDbEntity
  8
寸法
  6
Continuous
 62
     0
100
AcDbText
 10
-79.4375
 20
89.2
 30
0.0
 40
3.0
  1
800
  7
TextStyle03
 72
     5
 11
-74.5625
 21
89.2
 31
0.0
100
AcDbText
  0
ENDBLK
  5
150
330
149
100
AcDbEntity
  8
0
100
AcDbBlockEnd
  0
BLOCK
  5
151
330
152
100
AcDbEntity
  8
0
100
AcDbBlockBegin
  2
*U11
 70
     1
 71
     0
 10
0.0
 20
0.0
 30
0.0
  3
*U11
  1

  0
LINE
  5
153
330
152
100
AcDbEntity
  8
寸法
  6
ByBlock
 62
     0
100
AcDbLine
 10
-36.998442
 20
59.73238
 30
0.0
 11
-36.998442
 21
88.840452
 31
0.0
  0
LINE
  5
154
330
152
100
AcDbEntity
  8
寸法
  6
ByBlock
 62
     0
100
AcDbLine
 10
-63.66511
 20
88.840452
 30
0.0
 11
-36.998442
 21
88.840452
 31
0.0
  0
POINT
  5
155
330
152
100
AcDbEntity
  8
寸法
 62
     0
100
AcDbPoint
 10
-36.998442
 20
88.840452
 30
0.0
  0
TEXT
  5
156
330
152
100
AcDbEntity
  8
寸法
  6
Continuous
 62
     0
100
AcDbText
 10
-52.7875
 20
89.2
 30
0.0
 40
3.0
  1
800
  7
TextStyle03
 72
     5
 11
-47.9125
 21
89.2
 31
0.0
100
AcDbText
  0
ENDBLK
  5
157
330
152
100
AcDbEntity
  8
0
100
AcDbBlockEnd
  0
BLOCK
  5
158
330
159
100
AcDbEntity
  8
0
100
AcDbBlockBegin
  2
*U12
 70
     1
 71
     0
 10
0.0
 20
0.0
 30
0.0
  3
*U12
  1

  0
LINE
  5
15A
330
159
100
AcDbEntity
  8
寸法
  6
ByBlock
 62
     0
100
AcDbLine
 10
-10.331775
 20
59.73238
 30
0.0
 11
-10.331775
 21
88.840452
 31
0.0
  0
LINE
  5
15B
330
159
100
AcDbEntity
  8
寸法
  6
ByBlock
 62
     0
100
AcDbLine
 10
-36.998442
 20
88.840452
 30
0.0
 11
-10.331775
 21
88.840452
 31
0.0
  0
POINT
  5
15C
330
159
100
AcDbEntity
  8
寸法
 62
     0
100
AcDbPoint
 10
-10.331775
 20
88.840452
 30
0.0
  0
TEXT
  5
15D
330
159
100
AcDbEntity
  8
寸法
  6
Continuous
 62
     0
100
AcDbText
 10
-26.1125
 20
89.2
 30
0.0
 40
3.0
  1
800
  7
TextStyle03
 72
     5
 11
-21.2375
 21
89.2
 31
0.0
100
AcDbText
  0
ENDBLK
  5
15E
330
159
100
AcDbEntity
  8
0
100
AcDbBlockEnd
  0
BLOCK
  5
15F
330
160
100
AcDbEntity
  8
0
100
AcDbBlockBegin
  2
*U13
 70
     1
 71
     0
 10
0.0
 20
0.0
 30
0.0
  3
*U13
  1

  0
LINE
  5
161
330
160
100
AcDbEntity
  8
寸法
  6
ByBlock
 62
     0
100
AcDbLine
 10
16.33489
 20
59.73238
 30
0.0
 11
16.33489
 21
88.840452
 31
0.0
  0
LINE
  5
162
330
160
100
AcDbEntity
  8
寸法
  6
ByBlock
 62
     0
100
AcDbLine
 10
-10.331775
 20
88.840452
 30
0.0
 11
16.33489
 21
88.840452
 31
0.0
  0
POINT
  5
163
330
160
100
AcDbEntity
  8
寸法
 62
     0
100
AcDbPoint
 10
16.33489
 20
88.840452
 30
0.0
  0
TEXT
  5
164
330
160
100
AcDbEntity
  8
寸法
  6
Continuous
 62
     0
100
AcDbText
 10
0.5625
 20
89.2
 30
0.0
 40
3.0
  1
800
  7
TextStyle03
 72
     5
 11
5.4375
 21
89.2
 31
0.0
100
AcDbText
  0
ENDBLK
  5
165
330
160
100
AcDbEntity
  8
0
100
AcDbBlockEnd
  0
BLOCK
  5
166
330
167
100
AcDbEntity
  8
0
100
AcDbBlockBegin
  2
*U14
 70
     1
 71
     0
 10
0.0
 20
0.0
 30
0.0
  3
*U14
  1

  0
LINE
  5
168
330
167
100
AcDbEntity
  8
寸法
  6
ByBlock
 62
     0
100
AcDbLine
 10
24.501557
 20
-79.95817
 30
0.0
 11
24.501557
 21
-22.536362
 31
0.0
  0
LINE
  5
169
330
167
100
AcDbEntity
  8
寸法
  6
ByBlock
 62
     0
100
AcDbLine
 10
21.33489
 20
-22.536362
 30
0.0
 11
24.501557
 21
-22.536362
 31
0.0
  0
POINT
  5
16A
330
167
100
AcDbEntity
  8
寸法
 62
     0
100
AcDbPoint
 10
21.33489
 20
-22.536362
 30
0.0
  0
POINT
  5
16B
330
167
100
AcDbEntity
  8
寸法
 62
     0
100
AcDbPoint
 10
24.501557
 20
-22.536362
 30
0.0
  0
TEXT
  5
16C
330
167
100
AcDbEntity
  8
寸法
  6
Continuous
 62
     0
100
AcDbText
 10
21.30625
 20
-22.175
 30
0.0
 40
3.0
  1
95
  7
TextStyle03
 72
     5
 11
24.49375
 21
-22.175
 31
0.0
100
AcDbText
  0
ENDBLK
  5
16D
330
167
100
AcDbEntity
  8
0
100
AcDbBlockEnd
  0
BLOCK
  5
16E
330
16F
100
AcDbEntity
  8
0
100
AcDbBlockBegin
  2
*U15
 70
     1
 71
     0
 10
0.0
 20
0.0
 30
0.0
  3
*U15
  1

  0
LINE
  5
170
330
16F
100
AcDbEntity
  8
寸法
  6
ByBlock
 62
     0
100
AcDbLine
 10
-98.498442
 20
-79.95817
 30
0.0
 11
-98.498442
 21
-22.536362
 31
0.0
  0
LINE
  5
171
330
16F
100
AcDbEntity
  8
寸法
  6
ByBlock
 62
     0
100
AcDbLine
 10
-95.331778
 20
-22.536362
 30
0.0
 11
-98.498442
 21
-22.536362
 31
0.0
  0
POINT
  5
172
330
16F
100
AcDbEntity
  8
寸法
 62
     0
100
AcDbPoint
 10
-95.331778
 20
-22.536362
 30
0.0
  0
POINT
  5
173
330
16F
100
AcDbEntity
  8
寸法
 62
     0
100
AcDbPoint
 10
-98.498442
 20
-22.536362
 30
0.0
  0
TEXT
  5
174
330
16F
100
AcDbEntity
  8
寸法
  6
Continuous
 62
     0
100
AcDbText
 10
-98.51875
 20
-22.175
 30
0.0
 40
3.0
  1
95
  7
TextStyle03
 72
     5
 11
-95.33125
 21
-22.175
 31
0.0
100
AcDbText
  0
ENDBLK
  5
175
330
16F
100
AcDbEntity
  8
0
100
AcDbBlockEnd
  0
BLOCK
  5
176
330
177
100
AcDbEntity
  8
0
100
AcDbBlockBegin
  2
*U16
 70
     1
 71
     0
 10
0.0
 20
0.0
 30
0.0
  3
*U16
  1

  0
LINE
  5
178
330
177
100
AcDbEntity
  8
寸法
  6
ByBlock
 62
     0
100
AcDbLine
 10
111.201728
 20
10.23238
 30
0.0
 11
55.35454
 21
10.23238
 31
0.0
  0
LINE
  5
179
330
177
100
AcDbEntity
  8
寸法
  6
ByBlock
 62
     0
100
AcDbLine
 10
55.35454
 20
13.399048
 30
0.0
 11
55.35454
 21
10.23238
 31
0.0
  0
POINT
  5
17A
330
177
100
AcDbEntity
  8
寸法
 62
     0
100
AcDbPoint
 10
55.35454
 20
13.399048
 30
0.0
  0
POINT
  5
17B
330
177
100
AcDbEntity
  8
寸法
 62
     0
100
AcDbPoint
 10
55.35454
 20
10.23238
 30
0.0
  0
TEXT
  5
17C
330
177
100
AcDbEntity
  8
寸法
  6
Continuous
 62
     0
100
AcDbText
 10
54.975
 20
10.20625
 30
0.0
 40
3.0
  1
95
 50
90.0
  7
TextStyle03
 72
     5
 11
54.975
 21
13.39375
 31
0.0
100
AcDbText
  0
ENDBLK
  5
17D
330
177
100
AcDbEntity
  8
0
100
AcDbBlockEnd
  0
BLOCK
  5
17E
330
17F
100
AcDbEntity
  8
0
100
AcDbBlockBegin
  2
*U17
 70
     1
 71
     0
 10
0.0
 20
0.0
 30
0.0
  3
*U17
  1

  0
LINE
  5
180
330
17F
100
AcDbEntity
  8
寸法
  6
ByBlock
 62
     0
100
AcDbLine
 10
111.201728
 20
59.89905
 30
0.0
 11
55.35454
 21
59.89905
 31
0.0
  0
LINE
  5
181
330
17F
100
AcDbEntity
  8
寸法
  6
ByBlock
 62
     0
100
AcDbLine
 10
55.35454
 20
56.73238
 30
0.0
 11
55.35454
 21
59.89905
 31
0.0
  0
POINT
  5
182
330
17F
100
AcDbEntity
  8
寸法
 62
     0
100
AcDbPoint
 10
55.35454
 20
56.73238
 30
0.0
  0
POINT
  5
183
330
17F
100
AcDbEntity
  8
寸法
 62
     0
100
AcDbPoint
 10
55.35454
 20
59.89905
 30
0.0
  0
TEXT
  5
184
330
17F
100
AcDbEntity
  8
寸法
  6
Continuous
 62
     0
100
AcDbText
 10
54.975
 20
56.70625
 30
0.0
 40
3.0
  1
95
 50
90.0
  7
TextStyle03
 72
     5
 11
54.975
 21
59.89375
 31
0.0
100
AcDbText
  0
ENDBLK
  5
185
330
17F
100
AcDbEntity
  8
0
100
AcDbBlockEnd
  0
BLOCK
  5
186
330
187
100
AcDbEntity
  8
0
100
AcDbBlockBegin
  2
*U18
 70
     1
 71
     0
 10
0.0
 20
0.0
 30
0.0
  3
*U18
  1

  0
LINE
  5
188
330
187
100
AcDbEntity
  8
寸法
  6
ByBlock
 62
     0
100
AcDbLine
 10
158.537835
 20
-92.53371300000001
 30
0.0
 11
165.404422
 21
-92.53371300000001
 31
0.0
  0
LINE
  5
189
330
187
100
AcDbEntity
  8
寸法
  6
ByBlock
 62
     0
100
AcDbLine
 10
158.537835
 20
-49.533713
 30
0.0
 11
165.404422
 21
-49.533713
 31
0.0
  0
LINE
  5
18A
330
187
100
AcDbEntity
  8
寸法
  6
ByBlock
 62
     0
100
AcDbLine
 10
165.404422
 20
-92.53371300000001
 30
0.0
 11
165.404422
 21
-49.533713
 31
0.0
  0
POINT
  5
18B
330
187
100
AcDbEntity
  8
寸法
 62
     0
100
AcDbPoint
 10
165.404422
 20
-92.53371300000001
 30
0.0
  0
POINT
  5
18C
330
187
100
AcDbEntity
  8
寸法
 62
     0
100
AcDbPoint
 10
165.404422
 20
-49.533713
 30
0.0
  0
TEXT
  5
18D
330
187
100
AcDbEntity
  8
寸法
  6
Continuous
 62
     0
100
AcDbText
 10
165.025
 20
-75.425
 30
0.0
 40
4.0
  1
1290
 50
90.0
  7
TextStyle03
 72
     5
 11
165.025
 21
-66.675
 31
0.0
100
AcDbText
  0
ENDBLK
  5
18E
330
187
100
AcDbEntity
  8
0
100
AcDbBlockEnd
  0
BLOCK
  5
18F
330
190
100
AcDbEntity
  8
0
100
AcDbBlockBegin
  2
*U19
 70
     1
 71
     0
 10
0.0
 20
0.0
 30
0.0
  3
*U19
  1

  0
LINE
  5
191
330
190
100
AcDbEntity
  8
寸法
  6
ByBlock
 62
     0
100
AcDbLine
 10
117.471168
 20
-46.533713
 30
0.0
 11
117.471168
 21
-41.534832
 31
0.0
  0
LINE
  5
192
330
190
100
AcDbEntity
  8
寸法
  6
ByBlock
 62
     0
100
AcDbLine
 10
155.537835
 20
-46.533713
 30
0.0
 11
155.537835
 21
-41.534832
 31
0.0
  0
LINE
  5
193
330
190
100
AcDbEntity
  8
寸法
  6
ByBlock
 62
     0
100
AcDbLine
 10
117.471168
 20
-41.534832
 30
0.0
 11
155.537835
 21
-41.534832
 31
0.0
  0
POINT
  5
194
330
190
100
AcDbEntity
  8
寸法
 62
     0
100
AcDbPoint
 10
117.471168
 20
-41.534832
 30
0.0
  0
POINT
  5
195
330
190
100
AcDbEntity
  8
寸法
 62
     0
100
AcDbPoint
 10
155.537835
 20
-41.534832
 30
0.0
  0
TEXT
  5
196
330
190
100
AcDbEntity
  8
寸法
  6
Continuous
 62
     0
100
AcDbText
 10
132.125
 20
-41.175
 30
0.0
 40
4.0
  1
1142
  7
TextStyle03
 72
     5
 11
140.875
 21
-41.175
 31
0.0
100
AcDbText
  0
ENDBLK
  5
197
330
190
100
AcDbEntity
  8
0
100
AcDbBlockEnd
  0
BLOCK
  5
198
330
199
100
AcDbEntity
  8
0
100
AcDbBlockBegin
  2
*U20
 70
     1
 71
     0
 10
0.0
 20
0.0
 30
0.0
  3
*U20
  1

  0
LINE
  5
19A
330
199
100
AcDbEntity
  8
ボルト／ビス
  6
Continuous
100
AcDbLine
 10
-95.998442
 20
-79.62459699999999
 30
0.0
 11
-95.998442
 21
-79.15792999999999
 31
0.0
  0
LINE
  5
19B
330
199
100
AcDbEntity
  8
ボルト／ビス
  6
Continuous
100
AcDbLine
 10
-96.365107
 20
-79.62459699999999
 30
0.0
 11
-96.365107
 21
-79.55793
 31
0.0
  0
LINE
  5
19C
330
199
100
AcDbEntity
  8
ボルト／ビス
  6
Continuous
100
AcDbLine
 10
-96.365107
 20
-79.55793
 30
0.0
 11
-95.63177500000001
 21
-79.55793
 31
0.0
  0
LINE
  5
19D
330
199
100
AcDbEntity
  8
ボルト／ビス
  6
Continuous
100
AcDbLine
 10
-95.63177500000001
 20
-79.55793
 30
0.0
 11
-95.63177500000001
 21
-79.62459699999999
 31
0.0
  0
LINE
  5
19E
330
199
100
AcDbEntity
  8
ボルト／ビス
  6
Continuous
100
AcDbLine
 10
-96.365107
 20
-79.62459699999999
 30
0.0
 11
-95.63177500000001
 21
-79.62459699999999
 31
0.0
  0
LINE
  5
19F
330
199
100
AcDbEntity
  8
ボルト／ビス
  6
Continuous
100
AcDbLine
 10
-96.29844199999999
 20
-79.524597
 30
0.0
 11
-96.29844199999999
 21
-79.55793
 31
0.0
  0
LINE
  5
1A0
330
199
100
AcDbEntity
  8
ボルト／ビス
  6
Continuous
100
AcDbLine
 10
-96.29844199999999
 20
-79.524597
 30
0.0
 11
-95.698442
 21
-79.524597
 31
0.0
  0
LINE
  5
1A1
330
199
100
AcDbEntity
  8
ボルト／ビス
  6
Continuous
100
AcDbLine
 10
-95.698442
 20
-79.524597
 30
0.0
 11
-95.698442
 21
-79.55793
 31
0.0
  0
LINE
  5
1A2
330
199
100
AcDbEntity
  8
ボルト／ビス
  6
Continuous
 62
    64
100
AcDbLine
 10
-96.158817
 20
-79.324597
 30
0.0
 11
-96.19089200000001
 21
-79.33627199999999
 31
0.0
  0
ARC
  5
1A3
330
199
100
AcDbEntity
  8
ボルト／ビス
  6
Continuous
 62
    64
100
AcDbCircle
 10
-96.142779
 20
-79.429576
 30
0.0
 40
0.104978
100
AcDbArc
 50
62.721967
 51
90.0
  0
ARC
  5
1A4
330
199
100
AcDbEntity
  8
ボルト／ビス
  6
Continuous
 62
    64
100
AcDbCircle
 10
-95.998441
 20
-79.72699900000001
 30
0.0
 40
0.402402
100
AcDbArc
 50
76.165002
 51
103.834985
  0
LINE
  5
1A5
330
199
100
AcDbEntity
  8
ボルト／ビス
  6
Continuous
 62
    64
100
AcDbLine
 10
-95.83806800000001
 20
-79.324597
 30
0.0
 11
-95.805992
 21
-79.33627199999999
 31
0.0
  0
ARC
  5
1A6
330
199
100
AcDbEntity
  8
ボルト／ビス
  6
Continuous
 62
    64
100
AcDbCircle
 10
-95.854103
 20
-79.429576
 30
0.0
 40
0.104978
100
AcDbArc
 50
90.0
 51
117.278033
  0
LINE
  5
1A7
330
199
100
AcDbEntity
  8
ボルト／ビス
  6
Continuous
 62
    64
100
AcDbLine
 10
-96.158817
 20
-79.324597
 30
0.0
 11
-95.83806800000001
 21
-79.324597
 31
0.0
  0
LINE
  5
1A8
330
199
100
AcDbEntity
  8
ボルト／ビス
  6
Continuous
 62
    64
100
AcDbLine
 10
-95.805992
 20
-79.33627199999999
 30
0.0
 11
-95.805992
 21
-79.45793000000001
 31
0.0
  0
LINE
  5
1A9
330
199
100
AcDbEntity
  8
ボルト／ビス
  6
Continuous
 62
    64
100
AcDbLine
 10
-95.90221800000001
 20
-79.33627199999999
 30
0.0
 11
-95.90221800000001
 21
-79.45793000000001
 31
0.0
  0
LINE
  5
1AA
330
199
100
AcDbEntity
  8
ボルト／ビス
  6
Continuous
 62
    64
100
AcDbLine
 10
-96.19089200000001
 20
-79.33627199999999
 30
0.0
 11
-96.19089200000001
 21
-79.45793000000001
 31
0.0
  0
LINE
  5
1AB
330
199
100
AcDbEntity
  8
ボルト／ビス
  6
Continuous
 62
    64
100
AcDbLine
 10
-96.094668
 20
-79.33627199999999
 30
0.0
 11
-96.094668
 21
-79.45793000000001
 31
0.0
  0
LINE
  5
1AC
330
199
100
AcDbEntity
  8
ボルト／ビス
  6
Continuous
100
AcDbLine
 10
-96.19089200000001
 20
-79.45793000000001
 30
0.0
 11
-95.805992
 21
-79.45793000000001
 31
0.0
  0
LINE
  5
1AD
330
199
100
AcDbEntity
  8
ボルト／ビス
  6
Continuous
100
AcDbLine
 10
-96.198442
 20
-79.45793000000001
 30
0.0
 11
-96.198442
 21
-79.524597
 31
0.0
  0
LINE
  5
1AE
330
199
100
AcDbEntity
  8
ボルト／ビス
  6
Continuous
100
AcDbLine
 10
-96.198442
 20
-79.45793000000001
 30
0.0
 11
-95.79844199999999
 21
-79.45793000000001
 31
0.0
  0
LINE
  5
1AF
330
199
100
AcDbEntity
  8
ボルト／ビス
  6
Continuous
100
AcDbLine
 10
-95.79844199999999
 20
-79.45793000000001
 30
0.0
 11
-95.79844199999999
 21
-79.524597
 31
0.0
  0
ENDBLK
  5
1B0
330
199
100
AcDbEntity
  8
0
100
AcDbBlockEnd
  0
BLOCK
  5
1B1
330
1B2
100
AcDbEntity
  8
0
100
AcDbBlockBegin
  2
*U21
 70
     1
 71
     0
 10
0.0
 20
0.0
 30
0.0
  3
*U21
  1

  0
LINE
  5
1B3
330
1B2
100
AcDbEntity
  8
ボルト／ビス
  6
Continuous
100
AcDbLine
 10
22.001557
 20
-79.62459699999999
 30
0.0
 11
22.001557
 21
-79.15792999999999
 31
0.0
  0
LINE
  5
1B4
330
1B2
100
AcDbEntity
  8
ボルト／ビス
  6
Continuous
100
AcDbLine
 10
21.634893
 20
-79.62459699999999
 30
0.0
 11
21.634893
 21
-79.55793
 31
0.0
  0
LINE
  5
1B5
330
1B2
100
AcDbEntity
  8
ボルト／ビス
  6
Continuous
100
AcDbLine
 10
21.634893
 20
-79.55793
 30
0.0
 11
22.368225
 21
-79.55793
 31
0.0
  0
LINE
  5
1B6
330
1B2
100
AcDbEntity
  8
ボルト／ビス
  6
Continuous
100
AcDbLine
 10
22.368225
 20
-79.55793
 30
0.0
 11
22.368225
 21
-79.62459699999999
 31
0.0
  0
LINE
  5
1B7
330
1B2
100
AcDbEntity
  8
ボルト／ビス
  6
Continuous
100
AcDbLine
 10
21.634893
 20
-79.62459699999999
 30
0.0
 11
22.368225
 21
-79.62459699999999
 31
0.0
  0
LINE
  5
1B8
330
1B2
100
AcDbEntity
  8
ボルト／ビス
  6
Continuous
100
AcDbLine
 10
21.701557
 20
-79.524597
 30
0.0
 11
21.701557
 21
-79.55793
 31
0.0
  0
LINE
  5
1B9
330
1B2
100
AcDbEntity
  8
ボルト／ビス
  6
Continuous
100
AcDbLine
 10
21.701557
 20
-79.524597
 30
0.0
 11
22.301557
 21
-79.524597
 31
0.0
  0
LINE
  5
1BA
330
1B2
100
AcDbEntity
  8
ボルト／ビス
  6
Continuous
100
AcDbLine
 10
22.301557
 20
-79.524597
 30
0.0
 11
22.301557
 21
-79.55793
 31
0.0
  0
LINE
  5
1BB
330
1B2
100
AcDbEntity
  8
ボルト／ビス
  6
Continuous
 62
    64
100
AcDbLine
 10
21.841182
 20
-79.324597
 30
0.0
 11
21.809108
 21
-79.33627199999999
 31
0.0
  0
ARC
  5
1BC
330
1B2
100
AcDbEntity
  8
ボルト／ビス
  6
Continuous
 62
    64
100
AcDbCircle
 10
21.857221
 20
-79.429575
 30
0.0
 40
0.104978
100
AcDbArc
 50
62.721967
 51
90.0
  0
ARC
  5
1BD
330
1B2
100
AcDbEntity
  8
ボルト／ビス
  6
Continuous
 62
    64
100
AcDbCircle
 10
22.001558
 20
-79.72699900000001
 30
0.0
 40
0.402402
100
AcDbArc
 50
76.165002
 51
103.834985
  0
LINE
  5
1BE
330
1B2
100
AcDbEntity
  8
ボルト／ビス
  6
Continuous
 62
    64
100
AcDbLine
 10
22.161932
 20
-79.324597
 30
0.0
 11
22.194008
 21
-79.33627199999999
 31
0.0
  0
ARC
  5
1BF
330
1B2
100
AcDbEntity
  8
ボルト／ビス
  6
Continuous
 62
    64
100
AcDbCircle
 10
22.145896
 20
-79.429575
 30
0.0
 40
0.104978
100
AcDbArc
 50
90.0
 51
117.278033
  0
LINE
  5
1C0
330
1B2
100
AcDbEntity
  8
ボルト／ビス
  6
Continuous
 62
    64
100
AcDbLine
 10
21.841182
 20
-79.324597
 30
0.0
 11
22.161932
 21
-79.324597
 31
0.0
  0
LINE
  5
1C1
330
1B2
100
AcDbEntity
  8
ボルト／ビス
  6
Continuous
 62
    64
100
AcDbLine
 10
22.194008
 20
-79.33627199999999
 30
0.0
 11
22.194008
 21
-79.45793000000001
 31
0.0
  0
LINE
  5
1C2
330
1B2
100
AcDbEntity
  8
ボルト／ビス
  6
Continuous
 62
    64
100
AcDbLine
 10
22.097782
 20
-79.33627199999999
 30
0.0
 11
22.097782
 21
-79.45793000000001
 31
0.0
  0
LINE
  5
1C3
330
1B2
100
AcDbEntity
  8
ボルト／ビス
  6
Continuous
 62
    64
100
AcDbLine
 10
21.809108
 20
-79.33627199999999
 30
0.0
 11
21.809108
 21
-79.45793000000001
 31
0.0
  0
LINE
  5
1C4
330
1B2
100
AcDbEntity
  8
ボルト／ビス
  6
Continuous
 62
    64
100
AcDbLine
 10
21.905333
 20
-79.33627199999999
 30
0.0
 11
21.905333
 21
-79.45793000000001
 31
0.0
  0
LINE
  5
1C5
330
1B2
100
AcDbEntity
  8
ボルト／ビス
  6
Continuous
100
AcDbLine
 10
21.809108
 20
-79.45793000000001
 30
0.0
 11
22.194008
 21
-79.45793000000001
 31
0.0
  0
LINE
  5
1C6
330
1B2
100
AcDbEntity
  8
ボルト／ビス
  6
Continuous
100
AcDbLine
 10
21.801557
 20
-79.45793000000001
 30
0.0
 11
21.801557
 21
-79.524597
 31
0.0
  0
LINE
  5
1C7
330
1B2
100
AcDbEntity
  8
ボルト／ビス
  6
Continuous
100
AcDbLine
 10
21.801557
 20
-79.45793000000001
 30
0.0
 11
22.201557
 21
-79.45793000000001
 31
0.0
  0
LINE
  5
1C8
330
1B2
100
AcDbEntity
  8
ボルト／ビス
  6
Continuous
100
AcDbLine
 10
22.201557
 20
-79.45793000000001
 30
0.0
 11
22.201557
 21
-79.524597
 31
0.0
  0
ENDBLK
  5
1C9
330
1B2
100
AcDbEntity
  8
0
100
AcDbBlockEnd
  0
BLOCK
  5
1CA
330
1CB
100
AcDbEntity
  8
0
100
AcDbBlockBegin
  2
*U22
 70
     1
 71
     0
 10
0.0
 20
0.0
 30
0.0
  3
*U22
  1

  0
LINE
  5
1CC
330
1CB
100
AcDbEntity
  8
ボルト／ビス
  6
Continuous
100
AcDbLine
 10
110.868155
 20
12.73238
 30
0.0
 11
110.401488
 21
12.73238
 31
0.0
  0
LINE
  5
1CD
330
1CB
100
AcDbEntity
  8
ボルト／ビス
  6
Continuous
100
AcDbLine
 10
110.868155
 20
12.365715
 30
0.0
 11
110.801488
 21
12.365715
 31
0.0
  0
LINE
  5
1CE
330
1CB
100
AcDbEntity
  8
ボルト／ビス
  6
Continuous
100
AcDbLine
 10
110.801488
 20
12.365715
 30
0.0
 11
110.801488
 21
13.099048
 31
0.0
  0
LINE
  5
1CF
330
1CB
100
AcDbEntity
  8
ボルト／ビス
  6
Continuous
100
AcDbLine
 10
110.801488
 20
13.099048
 30
0.0
 11
110.868155
 21
13.099048
 31
0.0
  0
LINE
  5
1D0
330
1CB
100
AcDbEntity
  8
ボルト／ビス
  6
Continuous
100
AcDbLine
 10
110.868155
 20
12.365715
 30
0.0
 11
110.868155
 21
13.099048
 31
0.0
  0
LINE
  5
1D1
330
1CB
100
AcDbEntity
  8
ボルト／ビス
  6
Continuous
100
AcDbLine
 10
110.768155
 20
12.43238
 30
0.0
 11
110.801488
 21
12.43238
 31
0.0
  0
LINE
  5
1D2
330
1CB
100
AcDbEntity
  8
ボルト／ビス
  6
Continuous
100
AcDbLine
 10
110.768155
 20
12.43238
 30
0.0
 11
110.768155
 21
13.03238
 31
0.0
  0
LINE
  5
1D3
330
1CB
100
AcDbEntity
  8
ボルト／ビス
  6
Continuous
100
AcDbLine
 10
110.768155
 20
13.03238
 30
0.0
 11
110.801488
 21
13.03238
 31
0.0
  0
LINE
  5
1D4
330
1CB
100
AcDbEntity
  8
ボルト／ビス
  6
Continuous
 62
    64
100
AcDbLine
 10
110.568155
 20
12.572005
 30
0.0
 11
110.57983
 21
12.53993
 31
0.0
  0
ARC
  5
1D5
330
1CB
100
AcDbEntity
  8
ボルト／ビス
  6
Continuous
 62
    64
100
AcDbCircle
 10
110.673134
 20
12.588043
 30
0.0
 40
0.104978
100
AcDbArc
 50
152.721967
 51
180.0
  0
ARC
  5
1D6
330
1CB
100
AcDbEntity
  8
ボルト／ビス
  6
Continuous
 62
    64
100
AcDbCircle
 10
110.970558
 20
12.732381
 30
0.0
 40
0.402402
100
AcDbArc
 50
166.165002
 51
193.834985
  0
LINE
  5
1D7
330
1CB
100
AcDbEntity
  8
ボルト／ビス
  6
Continuous
 62
    64
100
AcDbLine
 10
110.568155
 20
12.892755
 30
0.0
 11
110.57983
 21
12.92483
 31
0.0
  0
ARC
  5
1D8
330
1CB
100
AcDbEntity
  8
ボルト／ビス
  6
Continuous
 62
    64
100
AcDbCircle
 10
110.673134
 20
12.876718
 30
0.0
 40
0.104978
100
AcDbArc
 50
180.0
 51
207.278033
  0
LINE
  5
1D9
330
1CB
100
AcDbEntity
  8
ボルト／ビス
  6
Continuous
 62
    64
100
AcDbLine
 10
110.568155
 20
12.572005
 30
0.0
 11
110.568155
 21
12.892755
 31
0.0
  0
LINE
  5
1DA
330
1CB
100
AcDbEntity
  8
ボルト／ビス
  6
Continuous
 62
    64
100
AcDbLine
 10
110.57983
 20
12.92483
 30
0.0
 11
110.701488
 21
12.92483
 31
0.0
  0
LINE
  5
1DB
330
1CB
100
AcDbEntity
  8
ボルト／ビス
  6
Continuous
 62
    64
100
AcDbLine
 10
110.57983
 20
12.828605
 30
0.0
 11
110.701488
 21
12.828605
 31
0.0
  0
LINE
  5
1DC
330
1CB
100
AcDbEntity
  8
ボルト／ビス
  6
Continuous
 62
    64
100
AcDbLine
 10
110.57983
 20
12.53993
 30
0.0
 11
110.701488
 21
12.53993
 31
0.0
  0
LINE
  5
1DD
330
1CB
100
AcDbEntity
  8
ボルト／ビス
  6
Continuous
 62
    64
100
AcDbLine
 10
110.57983
 20
12.636155
 30
0.0
 11
110.701488
 21
12.636155
 31
0.0
  0
LINE
  5
1DE
330
1CB
100
AcDbEntity
  8
ボルト／ビス
  6
Continuous
100
AcDbLine
 10
110.701488
 20
12.53993
 30
0.0
 11
110.701488
 21
12.92483
 31
0.0
  0
LINE
  5
1DF
330
1CB
100
AcDbEntity
  8
ボルト／ビス
  6
Continuous
100
AcDbLine
 10
110.701488
 20
12.53238
 30
0.0
 11
110.768155
 21
12.53238
 31
0.0
  0
LINE
  5
1E0
330
1CB
100
AcDbEntity
  8
ボルト／ビス
  6
Continuous
100
AcDbLine
 10
110.701488
 20
12.53238
 30
0.0
 11
110.701488
 21
12.93238
 31
0.0
  0
LINE
  5
1E1
330
1CB
100
AcDbEntity
  8
ボルト／ビス
  6
Continuous
100
AcDbLine
 10
110.701488
 20
12.93238
 30
0.0
 11
110.768155
 21
12.93238
 31
0.0
  0
ENDBLK
  5
1E2
330
1CB
100
AcDbEntity
  8
0
100
AcDbBlockEnd
  0
BLOCK
  5
1E3
330
1E4
100
AcDbEntity
  8
0
100
AcDbBlockBegin
  2
*U23
 70
     1
 71
     0
 10
0.0
 20
0.0
 30
0.0
  3
*U23
  1

  0
LINE
  5
1E5
330
1E4
100
AcDbEntity
  8
ボルト／ビス
  6
Continuous
100
AcDbLine
 10
110.868155
 20
57.39905
 30
0.0
 11
110.401488
 21
57.39905
 31
0.0
  0
LINE
  5
1E6
330
1E4
100
AcDbEntity
  8
ボルト／ビス
  6
Continuous
100
AcDbLine
 10
110.868155
 20
57.032385
 30
0.0
 11
110.801488
 21
57.032385
 31
0.0
  0
LINE
  5
1E7
330
1E4
100
AcDbEntity
  8
ボルト／ビス
  6
Continuous
100
AcDbLine
 10
110.801488
 20
57.032385
 30
0.0
 11
110.801488
 21
57.765718
 31
0.0
  0
LINE
  5
1E8
330
1E4
100
AcDbEntity
  8
ボルト／ビス
  6
Continuous
100
AcDbLine
 10
110.801488
 20
57.765718
 30
0.0
 11
110.868155
 21
57.765718
 31
0.0
  0
LINE
  5
1E9
330
1E4
100
AcDbEntity
  8
ボルト／ビス
  6
Continuous
100
AcDbLine
 10
110.868155
 20
57.032385
 30
0.0
 11
110.868155
 21
57.765718
 31
0.0
  0
LINE
  5
1EA
330
1E4
100
AcDbEntity
  8
ボルト／ビス
  6
Continuous
100
AcDbLine
 10
110.768155
 20
57.09905
 30
0.0
 11
110.801488
 21
57.09905
 31
0.0
  0
LINE
  5
1EB
330
1E4
100
AcDbEntity
  8
ボルト／ビス
  6
Continuous
100
AcDbLine
 10
110.768155
 20
57.09905
 30
0.0
 11
110.768155
 21
57.69905
 31
0.0
  0
LINE
  5
1EC
330
1E4
100
AcDbEntity
  8
ボルト／ビス
  6
Continuous
100
AcDbLine
 10
110.768155
 20
57.69905
 30
0.0
 11
110.801488
 21
57.69905
 31
0.0
  0
LINE
  5
1ED
330
1E4
100
AcDbEntity
  8
ボルト／ビス
  6
Continuous
 62
    64
100
AcDbLine
 10
110.568155
 20
57.238675
 30
0.0
 11
110.57983
 21
57.2066
 31
0.0
  0
ARC
  5
1EE
330
1E4
100
AcDbEntity
  8
ボルト／ビス
  6
Continuous
 62
    64
100
AcDbCircle
 10
110.673134
 20
57.254714
 30
0.0
 40
0.104978
100
AcDbArc
 50
152.721967
 51
180.0
  0
ARC
  5
1EF
330
1E4
100
AcDbEntity
  8
ボルト／ビス
  6
Continuous
 62
    64
100
AcDbCircle
 10
110.970558
 20
57.399052
 30
0.0
 40
0.402402
100
AcDbArc
 50
166.165002
 51
193.834985
  0
LINE
  5
1F0
330
1E4
100
AcDbEntity
  8
ボルト／ビス
  6
Continuous
 62
    64
100
AcDbLine
 10
110.568155
 20
57.559425
 30
0.0
 11
110.57983
 21
57.5915
 31
0.0
  0
ARC
  5
1F1
330
1E4
100
AcDbEntity
  8
ボルト／ビス
  6
Continuous
 62
    64
100
AcDbCircle
 10
110.673134
 20
57.543389
 30
0.0
 40
0.104978
100
AcDbArc
 50
180.0
 51
207.278033
  0
LINE
  5
1F2
330
1E4
100
AcDbEntity
  8
ボルト／ビス
  6
Continuous
 62
    64
100
AcDbLine
 10
110.568155
 20
57.238675
 30
0.0
 11
110.568155
 21
57.559425
 31
0.0
  0
LINE
  5
1F3
330
1E4
100
AcDbEntity
  8
ボルト／ビス
  6
Continuous
 62
    64
100
AcDbLine
 10
110.57983
 20
57.5915
 30
0.0
 11
110.701488
 21
57.5915
 31
0.0
  0
LINE
  5
1F4
330
1E4
100
AcDbEntity
  8
ボルト／ビス
  6
Continuous
 62
    64
100
AcDbLine
 10
110.57983
 20
57.495275
 30
0.0
 11
110.701488
 21
57.495275
 31
0.0
  0
LINE
  5
1F5
330
1E4
100
AcDbEntity
  8
ボルト／ビス
  6
Continuous
 62
    64
100
AcDbLine
 10
110.57983
 20
57.2066
 30
0.0
 11
110.701488
 21
57.2066
 31
0.0
  0
LINE
  5
1F6
330
1E4
100
AcDbEntity
  8
ボルト／ビス
  6
Continuous
 62
    64
100
AcDbLine
 10
110.57983
 20
57.302825
 30
0.0
 11
110.701488
 21
57.302825
 31
0.0
  0
LINE
  5
1F7
330
1E4
100
AcDbEntity
  8
ボルト／ビス
  6
Continuous
100
AcDbLine
 10
110.701488
 20
57.2066
 30
0.0
 11
110.701488
 21
57.5915
 31
0.0
  0
LINE
  5
1F8
330
1E4
100
AcDbEntity
  8
ボルト／ビス
  6
Continuous
100
AcDbLine
 10
110.701488
 20
57.19905
 30
0.0
 11
110.768155
 21
57.19905
 31
0.0
  0
LINE
  5
1F9
330
1E4
100
AcDbEntity
  8
ボルト／ビス
  6
Continuous
100
AcDbLine
 10
110.701488
 20
57.19905
 30
0.0
 11
110.701488
 21
57.59905
 31
0.0
  0
LINE
  5
1FA
330
1E4
100
AcDbEntity
  8
ボルト／ビス
  6
Continuous
100
AcDbLine
 10
110.701488
 20
57.59905
 30
0.0
 11
110.768155
 21
57.59905
 31
0.0
  0
ENDBLK
  5
1FB
330
1E4
100
AcDbEntity
  8
0
100
AcDbBlockEnd
  0
ENDSEC
  0
SECTION
  2
ENTITIES
  0
LWPOLYLINE
  5
1FC
330
1D
100
AcDbEntity
  8
通り芯
  6
Continuous
100
AcDbPolyline
 90
        4
 70
     1
 43
0.0
 10
-210.0
 20
-148.5
 10
210.0
 20
-148.5
 10
210.0
 20
148.5
 10
-210.0
 20
148.5
  0
INSERT
  5
202
330
1D
100
AcDbEntity
  8
型材断面
  6
Continuous
100
AcDbBlockReference
  2
*U0
 10
0.0
 20
0.0
 30
0.0
  0
LINE
  5
203
330
1D
100
AcDbEntity
  8
型材断面
  6
DASHDOT
100
AcDbLine
 10
21.33489
 20
-87.251428
 30
0.0
 11
21.33489
 21
56.73238
 31
0.0
  0
LINE
  5
204
330
1D
100
AcDbEntity
  8
型材断面
  6
DASHDOT
100
AcDbLine
 10
-36.998442
 20
-87.251428
 30
0.0
 11
-36.998442
 21
56.73238
 31
0.0
  0
LINE
  5
205
330
1D
100
AcDbEntity
  8
型材断面
  6
DASHDOT
100
AcDbLine
 10
-95.331778
 20
-87.251428
 30
0.0
 11
-95.331778
 21
56.73238
 31
0.0
  0
LINE
  5
206
330
1D
100
AcDbEntity
  8
型材断面
  6
DASHDOT
100
AcDbLine
 10
119.011652
 20
13.399048
 30
0.0
 11
-95.331778
 21
13.399048
 31
0.0
  0
LINE
  5
207
330
1D
100
AcDbEntity
  8
型材断面
  6
DASHDOT
100
AcDbLine
 10
119.011652
 20
35.065715
 30
0.0
 11
-95.331778
 21
35.065715
 31
0.0
  0
LINE
  5
208
330
1D
100
AcDbEntity
  8
型材断面
  6
DASHDOT
100
AcDbLine
 10
119.011652
 20
56.73238
 30
0.0
 11
-95.331778
 21
56.73238
 31
0.0
  0
LINE
  5
209
330
1D
100
AcDbEntity
  8
型材断面
  6
Continuous
100
AcDbLine
 10
-97.961907
 20
35.065715
 30
0.0
 11
-100.552415
 21
36.561345
 31
0.0
  0
LINE
  5
20A
330
1D
100
AcDbEntity
  8
型材断面
  6
Continuous
100
AcDbLine
 10
-97.961907
 20
35.065715
 30
0.0
 11
-100.552415
 21
33.570085
 31
0.0
  0
LINE
  5
20B
330
1D
100
AcDbEntity
  8
型材断面
  6
Continuous
100
AcDbLine
 10
-100.552415
 20
33.570085
 30
0.0
 11
-100.552415
 21
36.561345
 31
0.0
  0
LINE
  5
20C
330
1D
100
AcDbEntity
  8
型材断面
  6
Continuous
100
AcDbLine
 10
-78.66511
 20
59.36251
 30
0.0
 11
-80.16074
 21
61.953017
 31
0.0
  0
LINE
  5
20D
330
1D
100
AcDbEntity
  8
型材断面
  6
Continuous
100
AcDbLine
 10
-78.66511
 20
59.36251
 30
0.0
 11
-77.16947999999999
 21
61.953017
 31
0.0
  0
LINE
  5
20E
330
1D
100
AcDbEntity
  8
型材断面
  6
Continuous
100
AcDbLine
 10
-77.16947999999999
 20
61.953017
 30
0.0
 11
-80.16074
 21
61.953017
 31
0.0
  0
LINE
  5
20F
330
1D
100
AcDbEntity
  8
型材断面
  6
Continuous
100
AcDbLine
 10
-136.183985
 20
101.239727
 30
0.0
 11
-137.679615
 21
98.64922
 31
0.0
  0
LINE
  5
210
330
1D
100
AcDbEntity
  8
型材断面
  6
Continuous
100
AcDbLine
 10
-136.183985
 20
101.239727
 30
0.0
 11
-134.688355
 21
98.64922
 31
0.0
  0
LINE
  5
211
330
1D
100
AcDbEntity
  8
型材断面
  6
Continuous
100
AcDbLine
 10
-134.688355
 20
98.64922
 30
0.0
 11
-137.679615
 21
98.64922
 31
0.0
  0
LINE
  5
212
330
1D
100
AcDbEntity
  8
型材断面
  6
Continuous
100
AcDbLine
 10
-142.206573
 20
97.71062499999999
 30
0.0
 11
-95.964795
 21
97.71062499999999
 31
0.0
  0
LINE
  5
213
330
1D
100
AcDbEntity
  8
型材断面
  6
Continuous
100
AcDbLine
 10
-78.66511
 20
10.76892
 30
0.0
 11
-80.16074
 21
8.178413000000001
 31
0.0
  0
LINE
  5
214
330
1D
100
AcDbEntity
  8
型材断面
  6
Continuous
100
AcDbLine
 10
-78.66511
 20
10.76892
 30
0.0
 11
-77.16947999999999
 21
8.178413000000001
 31
0.0
  0
LINE
  5
215
330
1D
100
AcDbEntity
  8
型材断面
  6
Continuous
100
AcDbLine
 10
-77.16947999999999
 20
8.178413000000001
 30
0.0
 11
-80.16074
 21
8.178413000000001
 31
0.0
  0
LINE
  5
216
330
1D
100
AcDbEntity
  8
型材断面
  6
Continuous
100
AcDbLine
 10
23.965022
 20
35.065715
 30
0.0
 11
26.55553
 21
36.561345
 31
0.0
  0
LINE
  5
217
330
1D
100
AcDbEntity
  8
型材断面
  6
Continuous
100
AcDbLine
 10
23.965022
 20
35.065715
 30
0.0
 11
26.55553
 21
33.570085
 31
0.0
  0
LINE
  5
218
330
1D
100
AcDbEntity
  8
型材断面
  6
Continuous
100
AcDbLine
 10
26.55553
 20
33.570085
 30
0.0
 11
26.55553
 21
36.561345
 31
0.0
  0
LINE
  5
219
330
1D
100
AcDbEntity
  8
型材断面
  6
Continuous
100
AcDbLine
 10
4.668225
 20
59.36251
 30
0.0
 11
6.163855
 21
61.953017
 31
0.0
  0
LINE
  5
21A
330
1D
100
AcDbEntity
  8
型材断面
  6
Continuous
100
AcDbLine
 10
4.668225
 20
59.36251
 30
0.0
 11
3.172595
 21
61.953017
 31
0.0
  0
LINE
  5
21B
330
1D
100
AcDbEntity
  8
型材断面
  6
Continuous
100
AcDbLine
 10
3.172595
 20
61.953017
 30
0.0
 11
6.163855
 21
61.953017
 31
0.0
  0
LINE
  5
21C
330
1D
100
AcDbEntity
  8
型材断面
  6
Continuous
100
AcDbLine
 10
4.668225
 20
10.76892
 30
0.0
 11
6.163855
 21
8.178413000000001
 31
0.0
  0
LINE
  5
21D
330
1D
100
AcDbEntity
  8
型材断面
  6
Continuous
100
AcDbLine
 10
4.668225
 20
10.76892
 30
0.0
 11
3.172595
 21
8.178413000000001
 31
0.0
  0
LINE
  5
21E
330
1D
100
AcDbEntity
  8
型材断面
  6
Continuous
100
AcDbLine
 10
3.172595
 20
8.178413000000001
 30
0.0
 11
6.163855
 21
8.178413000000001
 31
0.0
  0
LINE
  5
21F
330
1D
100
AcDbEntity
  8
型材断面
  6
Continuous
100
AcDbLine
 10
-142.206573
 20
91.577787
 30
0.0
 11
-95.964795
 21
91.577787
 31
0.0
  0
LINE
  5
220
330
1D
100
AcDbEntity
  8
型材断面
  6
Continuous
100
AcDbLine
 10
23.401557
 20
58.79905
 30
0.0
 11
24.501555
 21
59.899045
 31
0.0
  0
LINE
  5
221
330
1D
100
AcDbEntity
  8
型材断面
  6
Continuous
100
AcDbLine
 10
24.501555
 20
59.899045
 30
0.0
 11
24.501555
 21
10.232382
 31
0.0
  0
LINE
  5
222
330
1D
100
AcDbEntity
  8
型材断面
  6
Continuous
100
AcDbLine
 10
23.401557
 20
11.33238
 30
0.0
 11
24.501555
 21
10.232382
 31
0.0
  0
LINE
  5
223
330
1D
100
AcDbEntity
  8
型材断面
  6
Continuous
100
AcDbLine
 10
24.501555
 20
10.232382
 30
0.0
 11
-98.49844
 21
10.232382
 31
0.0
  0
LINE
  5
224
330
1D
100
AcDbEntity
  8
型材断面
  6
Continuous
100
AcDbLine
 10
-97.398442
 20
11.33238
 30
0.0
 11
-98.49844
 21
10.232382
 31
0.0
  0
LINE
  5
225
330
1D
100
AcDbEntity
  8
型材断面
  6
Continuous
100
AcDbLine
 10
-98.49844
 20
10.232382
 30
0.0
 11
-98.49844
 21
59.899045
 31
0.0
  0
LINE
  5
226
330
1D
100
AcDbEntity
  8
型材断面
  6
Continuous
100
AcDbLine
 10
24.501555
 20
59.899045
 30
0.0
 11
-98.49844
 21
59.899045
 31
0.0
  0
LINE
  5
227
330
1D
100
AcDbEntity
  8
型材断面
  6
Continuous
100
AcDbLine
 10
-97.398442
 20
58.79905
 30
0.0
 11
-98.49844
 21
59.899045
 31
0.0
  0
LINE
  5
228
330
1D
100
AcDbEntity
  8
型材断面
  6
DASHDOT
100
AcDbLine
 10
-56.56511
 20
13.399048
 30
0.0
 11
-56.56511
 21
56.73238
 31
0.0
  0
LINE
  5
229
330
1D
100
AcDbEntity
  8
型材断面
  6
DOT
100
AcDbLine
 10
-55.31511
 20
13.399048
 30
0.0
 11
-55.31511
 21
56.73238
 31
0.0
  0
LINE
  5
22A
330
1D
100
AcDbEntity
  8
型材断面
  6
DOT
100
AcDbLine
 10
-57.81511
 20
13.399048
 30
0.0
 11
-57.81511
 21
56.73238
 31
0.0
  0
LINE
  5
22B
330
1D
100
AcDbEntity
  8
型材断面
  6
DASHDOT
100
AcDbLine
 10
-17.431775
 20
13.399048
 30
0.0
 11
-17.431775
 21
56.73238
 31
0.0
  0
LINE
  5
22C
330
1D
100
AcDbEntity
  8
型材断面
  6
DOT
100
AcDbLine
 10
-18.681775
 20
13.399048
 30
0.0
 11
-18.681775
 21
56.73238
 31
0.0
  0
LINE
  5
22D
330
1D
100
AcDbEntity
  8
型材断面
  6
DOT
100
AcDbLine
 10
-16.181775
 20
13.399048
 30
0.0
 11
-16.181775
 21
56.73238
 31
0.0
  0
LINE
  5
22E
330
1D
100
AcDbEntity
  8
型材断面
  6
Continuous
 62
    14
100
AcDbLine
 10
114.701725
 20
10.232378
 30
0.0
 11
114.201725
 21
10.232378
 31
0.0
  0
LINE
  5
22F
330
1D
100
AcDbEntity
  8
型材断面
  6
Continuous
100
AcDbLine
 10
114.03506
 20
12.06571
 30
0.0
 11
114.201725
 21
10.232378
 31
0.0
  0
LINE
  5
230
330
1D
100
AcDbEntity
  8
型材断面
  6
Continuous
100
AcDbLine
 10
114.201725
 20
10.232378
 30
0.0
 11
114.701725
 21
10.232378
 31
0.0
  0
LINE
  5
231
330
1D
100
AcDbEntity
  8
型材断面
  6
Continuous
100
AcDbLine
 10
114.701725
 20
11.06571
 30
0.0
 11
115.03506
 21
11.06571
 31
0.0
  0
LINE
  5
232
330
1D
100
AcDbEntity
  8
型材断面
  6
Continuous
 62
    14
100
AcDbLine
 10
114.701725
 20
59.899048
 30
0.0
 11
114.201725
 21
59.899048
 31
0.0
  0
LINE
  5
233
330
1D
100
AcDbEntity
  8
型材断面
  6
Continuous
100
AcDbLine
 10
114.03506
 20
12.06571
 30
0.0
 11
114.03506
 21
58.065712
 31
0.0
  0
LINE
  5
234
330
1D
100
AcDbEntity
  8
型材断面
  6
Continuous
100
AcDbLine
 10
114.201725
 20
10.232378
 30
0.0
 11
114.201725
 21
59.899048
 31
0.0
  0
LINE
  5
235
330
1D
100
AcDbEntity
  8
型材断面
  6
Continuous
100
AcDbLine
 10
114.03506
 20
58.065712
 30
0.0
 11
114.201725
 21
59.899048
 31
0.0
  0
LINE
  5
236
330
1D
100
AcDbEntity
  8
型材断面
  6
Continuous
100
AcDbLine
 10
114.201725
 20
59.899048
 30
0.0
 11
114.701725
 21
59.899048
 31
0.0
  0
LINE
  5
237
330
1D
100
AcDbEntity
  8
型材断面
  6
Continuous
100
AcDbLine
 10
114.701725
 20
59.065712
 30
0.0
 11
115.03506
 21
59.065712
 31
0.0
  0
LINE
  5
238
330
1D
100
AcDbEntity
  8
型材断面
  6
Continuous
100
AcDbLine
 10
114.701725
 20
10.232378
 30
0.0
 11
114.701725
 21
59.899048
 31
0.0
  0
LINE
  5
239
330
1D
100
AcDbEntity
  8
型材断面
  6
Continuous
100
AcDbLine
 10
115.035058
 20
11.06571
 30
0.0
 11
115.035058
 21
59.065712
 31
0.0
  0
LWPOLYLINE
  5
23A
330
1D
100
AcDbEntity
  8
型材断面
  6
Continuous
100
AcDbPolyline
 90
        3
 70
     0
 43
0.0
 10
111.868155
 20
12.199048
 10
112.218392
 20
12.199048
 10
112.351725
 20
12.065715
  0
LWPOLYLINE
  5
23F
330
1D
100
AcDbEntity
  8
型材断面
  6
Continuous
100
AcDbPolyline
 90
        3
 70
     0
 43
0.0
 10
111.868155
 20
57.932385
 10
112.218392
 20
57.932385
 10
112.351725
 20
58.065718
  0
LINE
  5
244
330
1D
100
AcDbEntity
  8
型材断面
  6
Continuous
100
AcDbLine
 10
112.351725
 20
12.065715
 30
0.0
 11
112.351725
 21
58.065718
 31
0.0
  0
LINE
  5
245
330
1D
100
AcDbEntity
  8
型材断面
  6
Continuous
100
AcDbLine
 10
112.218392
 20
57.932385
 30
0.0
 11
112.218392
 21
12.199048
 31
0.0
  0
LINE
  5
246
330
1D
100
AcDbEntity
  8
型材断面
  6
Continuous
100
AcDbLine
 10
114.03506
 20
58.065712
 30
0.0
 11
112.35172
 21
58.065712
 31
0.0
  0
LINE
  5
247
330
1D
100
AcDbEntity
  8
型材断面
  6
Continuous
100
AcDbLine
 10
114.03506
 20
12.06571
 30
0.0
 11
112.35173
 21
12.06571
 31
0.0
  0
LINE
  5
248
330
1D
100
AcDbEntity
  8
型材断面
  6
Continuous
 62
    14
100
AcDbLine
 10
24.501565
 20
-83.458168
 30
0.0
 11
24.501565
 21
-82.958168
 31
0.0
  0
LINE
  5
249
330
1D
100
AcDbEntity
  8
型材断面
  6
Continuous
100
AcDbLine
 10
22.66823
 20
-82.79150300000001
 30
0.0
 11
24.501565
 21
-82.958168
 31
0.0
  0
LINE
  5
24A
330
1D
100
AcDbEntity
  8
型材断面
  6
Continuous
100
AcDbLine
 10
24.501565
 20
-82.958168
 30
0.0
 11
24.501565
 21
-83.458168
 31
0.0
  0
LINE
  5
24B
330
1D
100
AcDbEntity
  8
型材断面
  6
Continuous
100
AcDbLine
 10
23.66823
 20
-83.458168
 30
0.0
 11
23.66823
 21
-83.79150300000001
 31
0.0
  0
LWPOLYLINE
  5
24C
330
1D
100
AcDbEntity
  8
型材断面
  6
Continuous
100
AcDbPolyline
 90
        3
 70
     0
 43
0.0
 10
22.534893
 20
-80.62459699999999
 10
22.534893
 20
-80.974835
 10
22.668225
 20
-81.10816800000001
  0
LINE
  5
251
330
1D
100
AcDbEntity
  8
型材断面
  6
Continuous
100
AcDbLine
 10
22.66823
 20
-82.79150300000001
 30
0.0
 11
22.66823
 21
-81.108172
 31
0.0
  0
LINE
  5
252
330
1D
100
AcDbEntity
  8
型材断面
  6
Continuous
 62
    14
100
AcDbLine
 10
-98.49845000000001
 20
-83.458168
 30
0.0
 11
-98.49845000000001
 21
-82.958168
 31
0.0
  0
LINE
  5
253
330
1D
100
AcDbEntity
  8
型材断面
  6
Continuous
100
AcDbLine
 10
-96.665115
 20
-82.79150300000001
 30
0.0
 11
-98.49845000000001
 21
-82.958168
 31
0.0
  0
LINE
  5
254
330
1D
100
AcDbEntity
  8
型材断面
  6
Continuous
100
AcDbLine
 10
-98.49845000000001
 20
-82.958168
 30
0.0
 11
-98.49845000000001
 21
-83.458168
 31
0.0
  0
LINE
  5
255
330
1D
100
AcDbEntity
  8
型材断面
  6
Continuous
100
AcDbLine
 10
-97.665115
 20
-83.458168
 30
0.0
 11
-97.665115
 21
-83.79150300000001
 31
0.0
  0
LWPOLYLINE
  5
256
330
1D
100
AcDbEntity
  8
型材断面
  6
Continuous
100
AcDbPolyline
 90
        3
 70
     0
 43
0.0
 10
-96.531778
 20
-80.62459699999999
 10
-96.531778
 20
-80.974835
 10
-96.66511
 20
-81.10816800000001
  0
LINE
  5
25B
330
1D
100
AcDbEntity
  8
型材断面
  6
Continuous
100
AcDbLine
 10
-96.665115
 20
-82.79150300000001
 30
0.0
 11
-96.665115
 21
-81.108172
 31
0.0
  0
LINE
  5
25C
330
1D
100
AcDbEntity
  8
型材断面
  6
Continuous
100
AcDbLine
 10
22.534893
 20
-80.974835
 30
0.0
 11
-96.531778
 21
-80.974835
 31
0.0
  0
LINE
  5
25D
330
1D
100
AcDbEntity
  8
型材断面
  6
Continuous
100
AcDbLine
 10
22.668225
 20
-81.10816800000001
 30
0.0
 11
-96.66511
 21
-81.10816800000001
 31
0.0
  0
LINE
  5
25E
330
1D
100
AcDbEntity
  8
型材断面
  6
Continuous
100
AcDbLine
 10
22.66823
 20
-82.79150300000001
 30
0.0
 11
-96.665115
 21
-82.79150300000001
 31
0.0
  0
LINE
  5
25F
330
1D
100
AcDbEntity
  8
型材断面
  6
Continuous
100
AcDbLine
 10
24.501565
 20
-82.958168
 30
0.0
 11
-98.49845000000001
 21
-82.958168
 31
0.0
  0
LINE
  5
260
330
1D
100
AcDbEntity
  8
型材断面
  6
Continuous
100
AcDbLine
 10
24.501565
 20
-83.458168
 30
0.0
 11
-98.49845000000001
 21
-83.458168
 31
0.0
  0
LINE
  5
261
330
1D
100
AcDbEntity
  8
型材断面
  6
Continuous
100
AcDbLine
 10
23.66823
 20
-83.7915
 30
0.0
 11
-97.665115
 21
-83.7915
 31
0.0
  0
TEXT
  5
262
330
1D
100
AcDbEntity
  8
文字
  6
Continuous
100
AcDbText
 10
-133.4
 20
98.84999999999999
 30
0.0
 40
3.0
  1
は排水穴位置を示す
  7
TextStyle03
 72
     5
 11
-103.4
 21
98.84999999999999
 31
0.0
100
AcDbText
  0
TEXT
  5
263
330
1D
100
AcDbEntity
  8
文字
  6
Continuous
100
AcDbText
 10
137.0
 20
-86.09999999999999
 30
0.0
 40
3.0
  1
網入り6.8t
  7
TextStyle03
 72
     5
 11
153.6875
 21
-86.09999999999999
 31
0.0
100
AcDbText
  0
TEXT
  5
264
330
1D
100
AcDbEntity
  8
文字
  6
Continuous
100
AcDbText
 10
143.675
 20
-90.77500000000001
 30
0.0
 40
3.0
  1
×３枚
  7
TextStyle03
 72
     5
 11
153.425
 21
-90.77500000000001
 31
0.0
100
AcDbText
  0
TEXT
  5
265
330
1D
100
AcDbEntity
  8
文字
  6
Continuous
100
AcDbText
 10
-132.9
 20
23.975
 30
0.0
 40
3.0
  1
アンカーピッチ
 50
90.0
  7
TextStyle03
 72
     5
 11
-132.9
 21
47.225
 31
0.0
100
AcDbText
  0
TEXT
  5
266
330
1D
100
AcDbEntity
  8
文字
  6
Continuous
100
AcDbText
 10
-84.175
 20
93.675
 30
0.0
 40
3.0
  1
アンカーピッチ
  7
TextStyle03
 72
     5
 11
-60.925
 21
93.675
 31
0.0
100
AcDbText
  0
TEXT
  5
267
330
1D
100
AcDbEntity
  8
文字
  6
Continuous
100
AcDbText
 10
-137.125
 20
92.5
 30
0.0
 40
3.0
  1
アンカー数量　１４ヶ所
  7
TextStyle03
 72
     5
 11
-100.375
 21
92.5
 31
0.0
100
AcDbText
  0
TEXT
  5
268
330
1D
100
AcDbEntity
  8
文字
  6
Continuous
100
AcDbText
 10
77.65000000000001
 20
104.325
 30
0.0
 40
5.0
  1
ＮＳコード：ＮＳＫＬ
  7
TextStyle03
 72
     5
 11
133.275
 21
104.325
 31
0.0
100
AcDbText
  0
TEXT
  5
269
330
1D
100
AcDbEntity
  8
文字
  6
Continuous
100
AcDbText
 10
78.09999999999999
 20
125.25
 30
0.0
 40
5.0
  1
シリーズ：ＴＤ１ＫＬ
  7
TextStyle03
 72
     5
 11
133.725
 21
125.25
 31
0.0
100
AcDbText
  0
TEXT
  5
26A
330
1D
100
AcDbEntity
  8
文字
  6
Continuous
100
AcDbText
 10
78.09999999999999
 20
119.625
 30
0.0
 40
5.0
  1
　　　　　（固定）1300×3500タイプ
  7
TextStyle03
 72
     5
 11
173.1
 21
119.625
 31
0.0
100
AcDbText
  0
TEXT
  5
26B
330
1D
100
AcDbEntity
  8
文字
  6
Continuous
100
AcDbText
 10
78.09999999999999
 20
114.0
 30
0.0
 40
5.0
  1
図面名　：外観姿図
  7
TextStyle03
 72
     5
 11
128.1
 21
114.0
 31
0.0
100
AcDbText
  0
TEXT
  5
26C
330
1D
100
AcDbEntity
  8
文字
  6
Continuous
100
AcDbText
 10
78.09999999999999
 20
108.375
 30
0.0
 40
5.0
  1
　　　　　　
  7
TextStyle03
 72
     5
 11
111.225
 21
108.375
 31
0.0
100
AcDbText
  0
INSERT
  5
26D
330
1D
100
AcDbEntity
  8
寸法
  6
Continuous
100
AcDbBlockReference
  2
*U1
 10
0.0
 20
0.0
 30
0.0
  0
INSERT
  5
26E
330
1D
100
AcDbEntity
  8
寸法
  6
Continuous
100
AcDbBlockReference
  2
*U2
 10
0.0
 20
0.0
 30
0.0
  0
INSERT
  5
26F
330
1D
100
AcDbEntity
  8
寸法
  6
Continuous
100
AcDbBlockReference
  2
*U4
 10
0.0
 20
0.0
 30
0.0
  0
INSERT
  5
270
330
1D
100
AcDbEntity
  8
寸法
  6
Continuous
100
AcDbBlockReference
  2
*U5
 10
0.0
 20
0.0
 30
0.0
  0
INSERT
  5
271
330
1D
100
AcDbEntity
  8
寸法
  6
Continuous
100
AcDbBlockReference
  2
*U6
 10
0.0
 20
0.0
 30
0.0
  0
INSERT
  5
272
330
1D
100
AcDbEntity
  8
寸法
  6
Continuous
100
AcDbBlockReference
  2
*U7
 10
0.0
 20
0.0
 30
0.0
  0
INSERT
  5
273
330
1D
100
AcDbEntity
  8
寸法
  6
Continuous
100
AcDbBlockReference
  2
*U8
 10
0.0
 20
0.0
 30
0.0
  0
INSERT
  5
274
330
1D
100
AcDbEntity
  8
寸法
  6
Continuous
100
AcDbBlockReference
  2
*U9
 10
0.0
 20
0.0
 30
0.0
  0
INSERT
  5
275
330
1D
100
AcDbEntity
  8
寸法
  6
Continuous
100
AcDbBlockReference
  2
*U10
 10
0.0
 20
0.0
 30
0.0
  0
INSERT
  5
276
330
1D
100
AcDbEntity
  8
寸法
  6
Continuous
100
AcDbBlockReference
  2
*U11
 10
0.0
 20
0.0
 30
0.0
  0
INSERT
  5
277
330
1D
100
AcDbEntity
  8
寸法
  6
Continuous
100
AcDbBlockReference
  2
*U12
 10
0.0
 20
0.0
 30
0.0
  0
INSERT
  5
278
330
1D
100
AcDbEntity
  8
寸法
  6
Continuous
100
AcDbBlockReference
  2
*U13
 10
0.0
 20
0.0
 30
0.0
  0
INSERT
  5
279
330
1D
100
AcDbEntity
  8
寸法
  6
Continuous
100
AcDbBlockReference
  2
*U14
 10
0.0
 20
0.0
 30
0.0
  0
INSERT
  5
27A
330
1D
100
AcDbEntity
  8
寸法
  6
Continuous
100
AcDbBlockReference
  2
*U15
 10
0.0
 20
0.0
 30
0.0
  0
INSERT
  5
27B
330
1D
100
AcDbEntity
  8
寸法
  6
Continuous
100
AcDbBlockReference
  2
*U16
 10
0.0
 20
0.0
 30
0.0
  0
INSERT
  5
27C
330
1D
100
AcDbEntity
  8
寸法
  6
Continuous
100
AcDbBlockReference
  2
*U17
 10
0.0
 20
0.0
 30
0.0
  0
INSERT
  5
27D
330
1D
100
AcDbEntity
  8
寸法
  6
Continuous
100
AcDbBlockReference
  2
*U18
 10
0.0
 20
0.0
 30
0.0
  0
INSERT
  5
27E
330
1D
100
AcDbEntity
  8
寸法
  6
Continuous
100
AcDbBlockReference
  2
*U19
 10
0.0
 20
0.0
 30
0.0
  0
LINE
  5
27F
330
1D
100
AcDbEntity
  8
別途部材
  6
Continuous
100
AcDbLine
 10
23.401557
 20
11.33238
 30
0.0
 11
23.001557
 21
11.73238
 31
0.0
  0
LINE
  5
280
330
1D
100
AcDbEntity
  8
別途部材
  6
Continuous
100
AcDbLine
 10
21.33489
 20
13.399048
 30
0.0
 11
13.275635
 21
21.458305
 31
0.0
  0
LINE
  5
281
330
1D
100
AcDbEntity
  8
別途部材
  6
Continuous
100
AcDbLine
 10
23.001557
 20
11.73238
 30
0.0
 11
23.001557
 21
35.065715
 31
0.0
  0
LINE
  5
282
330
1D
100
AcDbEntity
  8
別途部材
  6
Continuous
100
AcDbLine
 10
23.401557
 20
11.33238
 30
0.0
 11
23.401557
 21
35.065715
 31
0.0
  0
LINE
  5
283
330
1D
100
AcDbEntity
  8
別途部材
  6
Continuous
100
AcDbLine
 10
23.401557
 20
58.79905
 30
0.0
 11
23.001557
 21
58.39905
 31
0.0
  0
LINE
  5
284
330
1D
100
AcDbEntity
  8
別途部材
  6
Continuous
100
AcDbLine
 10
21.33489
 20
56.732382
 30
0.0
 11
13.275635
 21
48.673125
 31
0.0
  0
LINE
  5
285
330
1D
100
AcDbEntity
  8
別途部材
  6
Continuous
100
AcDbLine
 10
23.001557
 20
58.39905
 30
0.0
 11
23.001557
 21
35.065715
 31
0.0
  0
LINE
  5
286
330
1D
100
AcDbEntity
  8
別途部材
  6
Continuous
100
AcDbLine
 10
23.401557
 20
58.79905
 30
0.0
 11
23.401557
 21
35.065715
 31
0.0
  0
LINE
  5
287
330
1D
100
AcDbEntity
  8
別途部材
  6
Continuous
100
AcDbLine
 10
23.401557
 20
58.79905
 30
0.0
 11
-36.998442
 21
58.79905
 31
0.0
  0
LINE
  5
288
330
1D
100
AcDbEntity
  8
別途部材
  6
Continuous
100
AcDbLine
 10
23.001557
 20
58.39905
 30
0.0
 11
-36.998442
 21
58.39905
 31
0.0
  0
LINE
  5
289
330
1D
100
AcDbEntity
  8
別途部材
  6
Continuous
100
AcDbLine
 10
23.001557
 20
11.73238
 30
0.0
 11
-36.998442
 21
11.73238
 31
0.0
  0
LINE
  5
28A
330
1D
100
AcDbEntity
  8
別途部材
  6
Continuous
100
AcDbLine
 10
23.401557
 20
11.33238
 30
0.0
 11
-36.998442
 21
11.33238
 31
0.0
  0
LINE
  5
28B
330
1D
100
AcDbEntity
  8
別途部材
  6
Continuous
100
AcDbLine
 10
-97.398442
 20
11.33238
 30
0.0
 11
-96.998442
 21
11.73238
 31
0.0
  0
LINE
  5
28C
330
1D
100
AcDbEntity
  8
別途部材
  6
Continuous
100
AcDbLine
 10
-95.33177499999999
 20
13.399048
 30
0.0
 11
-87.27252
 21
21.458305
 31
0.0
  0
LINE
  5
28D
330
1D
100
AcDbEntity
  8
別途部材
  6
Continuous
100
AcDbLine
 10
-96.998442
 20
11.73238
 30
0.0
 11
-96.998442
 21
35.065715
 31
0.0
  0
LINE
  5
28E
330
1D
100
AcDbEntity
  8
別途部材
  6
Continuous
100
AcDbLine
 10
-97.398442
 20
11.33238
 30
0.0
 11
-97.398442
 21
35.065715
 31
0.0
  0
LINE
  5
28F
330
1D
100
AcDbEntity
  8
別途部材
  6
Continuous
100
AcDbLine
 10
-97.398442
 20
58.79905
 30
0.0
 11
-96.998442
 21
58.39905
 31
0.0
  0
LINE
  5
290
330
1D
100
AcDbEntity
  8
別途部材
  6
Continuous
100
AcDbLine
 10
-95.33177499999999
 20
56.732382
 30
0.0
 11
-87.27252
 21
48.673125
 31
0.0
  0
LINE
  5
291
330
1D
100
AcDbEntity
  8
別途部材
  6
Continuous
100
AcDbLine
 10
-96.998442
 20
58.39905
 30
0.0
 11
-96.998442
 21
35.065715
 31
0.0
  0
LINE
  5
292
330
1D
100
AcDbEntity
  8
別途部材
  6
Continuous
100
AcDbLine
 10
-97.398442
 20
58.79905
 30
0.0
 11
-97.398442
 21
35.065715
 31
0.0
  0
LINE
  5
293
330
1D
100
AcDbEntity
  8
別途部材
  6
Continuous
100
AcDbLine
 10
-97.398442
 20
58.79905
 30
0.0
 11
-36.998442
 21
58.79905
 31
0.0
  0
LINE
  5
294
330
1D
100
AcDbEntity
  8
別途部材
  6
Continuous
100
AcDbLine
 10
-96.998442
 20
58.39905
 30
0.0
 11
-36.998442
 21
58.39905
 31
0.0
  0
LINE
  5
295
330
1D
100
AcDbEntity
  8
別途部材
  6
Continuous
100
AcDbLine
 10
-96.998442
 20
11.73238
 30
0.0
 11
-36.998442
 21
11.73238
 31
0.0
  0
LINE
  5
296
330
1D
100
AcDbEntity
  8
別途部材
  6
Continuous
100
AcDbLine
 10
-97.398442
 20
11.33238
 30
0.0
 11
-36.998442
 21
11.33238
 31
0.0
  0
LINE
  5
297
330
1D
100
AcDbEntity
  8
別途部材
  6
Continuous
 62
    96
100
AcDbLine
 10
110.868155
 20
11.73238
 30
0.0
 11
111.868155
 21
11.33238
 31
0.0
  0
LINE
  5
298
330
1D
100
AcDbEntity
  8
別途部材
  6
Continuous
100
AcDbLine
 10
111.868155
 20
11.33238
 30
0.0
 11
111.868155
 21
35.065715
 31
0.0
  0
LINE
  5
299
330
1D
100
AcDbEntity
  8
別途部材
  6
Continuous
 62
    96
100
AcDbLine
 10
110.868155
 20
11.73238
 30
0.0
 11
110.868155
 21
35.065715
 31
0.0
  0
LINE
  5
29A
330
1D
100
AcDbEntity
  8
別途部材
  6
Continuous
 62
    96
100
AcDbLine
 10
110.868155
 20
58.39905
 30
0.0
 11
111.868155
 21
58.79905
 31
0.0
  0
LINE
  5
29B
330
1D
100
AcDbEntity
  8
別途部材
  6
Continuous
100
AcDbLine
 10
111.868155
 20
58.79905
 30
0.0
 11
111.868155
 21
35.065715
 31
0.0
  0
LINE
  5
29C
330
1D
100
AcDbEntity
  8
別途部材
  6
Continuous
 62
    96
100
AcDbLine
 10
110.868155
 20
58.39905
 30
0.0
 11
110.868155
 21
35.065715
 31
0.0
  0
ARC
  5
29D
330
1D
100
AcDbEntity
  8
別途部材
  6
Continuous
100
AcDbCircle
 10
125.153867
 20
35.065713
 30
0.0
 40
25.95238
100
AcDbArc
 50
123.398485
 51
236.601515
  0
INSERT
  5
29E
330
1D
100
AcDbEntity
  8
別途部材
  6
Continuous
100
AcDbBlockReference
  2
*U3
 10
0.0
 20
0.0
 30
0.0
  0
INSERT
  5
29F
330
1D
100
AcDbEntity
  8
別途部材
  6
DOT
100
AcDbBlockReference
  2
*U20
 10
0.0
 20
0.0
 30
0.0
  0
INSERT
  5
2A0
330
1D
100
AcDbEntity
  8
別途部材
  6
DOT
100
AcDbBlockReference
  2
*U21
 10
0.0
 20
0.0
 30
0.0
  0
INSERT
  5
2A1
330
1D
100
AcDbEntity
  8
別途部材
  6
DOT
100
AcDbBlockReference
  2
*U22
 10
0.0
 20
0.0
 30
0.0
  0
INSERT
  5
2A2
330
1D
100
AcDbEntity
  8
別途部材
  6
DOT
100
AcDbBlockReference
  2
*U23
 10
0.0
 20
0.0
 30
0.0
  0
LINE
  5
2A3
330
1D
100
AcDbEntity
  8
曲げ物
  6
Continuous
100
AcDbLine
 10
117.471168
 20
-49.533713
 30
0.0
 11
117.471168
 21
-92.53371300000001
 31
0.0
  0
LINE
  5
2A4
330
1D
100
AcDbEntity
  8
曲げ物
  6
Continuous
100
AcDbLine
 10
155.537835
 20
-92.53371300000001
 30
0.0
 11
117.471168
 21
-92.53371300000001
 31
0.0
  0
LINE
  5
2A5
330
1D
100
AcDbEntity
  8
曲げ物
  6
Continuous
100
AcDbLine
 10
117.471168
 20
-49.533713
 30
0.0
 11
155.537835
 21
-49.533713
 31
0.0
  0
LINE
  5
2A6
330
1D
100
AcDbEntity
  8
曲げ物
  6
Continuous
100
AcDbLine
 10
155.537835
 20
-92.53371300000001
 30
0.0
 11
155.537835
 21
-49.533713
 31
0.0
  0
ENDSEC
  0
SECTION
  2
OBJECTS
  0
DICTIONARY
  5
C
330
0
100
AcDbDictionary
281
     1
  3
ACAD_GROUP
350
D
  3
ACAD_LAYOUT
350
1A
  3
ACAD_MLINESTYLE
350
17
  3
ACAD_PLOTSETTINGS
350
19
  3
ACAD_PLOTSTYLENAME
350
E
  0
DICTIONARY
  5
D
102
{ACAD_REACTORS
330
C
102
}
330
C
100
AcDbDictionary
281
     1
  0
DICTIONARY
  5
1A
102
{ACAD_REACTORS
330
C
102
}
330
C
100
AcDbDictionary
281
     1
  3
Layout1
350
1C
  3
Model
350
1E
  0
DICTIONARY
  5
17
102
{ACAD_REACTORS
330
C
102
}
330
C
100
AcDbDictionary
281
     1
  3
Standard
350
18
  0
DICTIONARY
  5
19
102
{ACAD_REACTORS
330
C
102
}
330
C
100
AcDbDictionary
281
     1
  0
ACDBDICTIONARYWDFLT
  5
E
102
{ACAD_REACTORS
330
C
102
}
330
C
100
AcDbDictionary
281
     1
  3
Normal
350
F
100
AcDbDictionaryWithDefault
340
F
  0
LAYOUT
  5
1C
102
{ACAD_REACTORS
330
1A
102
}
330
1A
100
AcDbPlotSettings
  1

  2

  4

  6

 40
0.0
 41
0.0
 42
0.0
 43
0.0
 44
0.0
 45
0.0
 46
0.0
 47
0.0
 48
0.0
 49
0.0
140
0.0
141
0.0
142
1.0
143
1.0
 70
   688
 72
     0
 73
     0
 74
     5
  7

 75
    16
 76
     0
 77
     2
 78
   300
147
1.0
148
0.0
149
0.0
100
AcDbLayout
  1
Layout1
 70
     1
 71
     1
 10
0.0
 20
0.0
 11
12.0
 21
9.0
 12
0.0
 22
0.0
 32
0.0
 14
1.000000000000000E+20
 24
1.000000000000000E+20
 34
1.000000000000000E+20
 15
-1.000000000000000E+20
 25
-1.000000000000000E+20
 35
-1.000000000000000E+20
146
0.0
 13
0.0
 23
0.0
 33
0.0
 16
1.0
 26
0.0
 36
0.0
 17
0.0
 27
1.0
 37
0.0
 76
     0
330
1B
  0
LAYOUT
  5
1E
102
{ACAD_REACTORS
330
1A
102
}
330
1A
100
AcDbPlotSettings
  1

  2

  4

  6

 40
0.0
 41
0.0
 42
0.0
 43
0.0
 44
0.0
 45
0.0
 46
0.0
 47
0.0
 48
0.0
 49
0.0
140
0.0
141
0.0
142
1.0
143
1.0
 70
  1712
 72
     0
 73
     0
 74
     0
  7

 75
     0
 76
     0
 77
     2
 78
   300
147
1.0
148
0.0
149
0.0
100
AcDbLayout
  1
Model
 70
     1
 71
     0
 10
0.0
 20
0.0
 11
0.0
 21
0.0
 12
0.0
 22
0.0
 32
0.0
 14
-210.0
 24
-148.5
 34
0.0
 15
210.0
 25
148.5
 35
0.0
146
0.0
 13
0.0
 23
0.0
 33
0.0
 16
1.0
 26
0.0
 36
0.0
 17
0.0
 27
1.0
 37
0.0
 76
     0
330
1D
  0
MLINESTYLE
  5
18
102
{ACAD_REACTORS
330
17
102
}
330
17
100
AcDbMlineStyle
  2
Standard
 70
     0
  3

 62
   256
 51
90.0
 52
90.0
 71
     2
 49
0.5
 62
   256
  6
BYLAYER
 49
-0.5
 62
   256
  6
BYLAYER
  0
ACDBPLACEHOLDER
  5
F
102
{ACAD_REACTORS
330
E
102
}
330
E
  0
ENDSEC
  0
EOF
