  0
SECTION
  2
HEADER
  9
$ACADVER
  1
AC1018
  9
$ACADMAINTVER
 70
     0
  9
$DWGCODEPAGE
  3
ANSI_932
  9
$INSBASE
 10
0.0
 20
0.0
 30
0.0
  9
$EXTMIN
 10
-210.0
 20
-148.5
 30
0.0
  9
$EXTMAX
 10
210.0
 20
148.5
 30
0.0
  9
$LIMMIN
 10
0.0
 20
0.0
  9
$LIMMAX
 10
12.0
 20
9.0
  9
$ORTHOMODE
 70
     0
  9
$REGENMODE
 70
     1
  9
$FILLMODE
 70
     1
  9
$QTEXTMODE
 70
     0
  9
$MIRRTEXT
 70
     1
  9
$LTSCALE
 40
10.0
  9
$ATTMODE
 70
     1
  9
$TEXTSIZE
 40
0.2
  9
$TRACEWID
 40
0.05
  9
$TEXTSTYLE
  7
STANDARD
  9
$CLAYER
  8
0
  9
$CELTYPE
  6
ByBlock
  9
$CECOLOR
 62
   256
  9
$CELTSCALE
 40
1.0
  9
$DISPSILH
 70
     0
  9
$DIMSCALE
 40
1.0
  9
$DIMASZ
 40
0.18
  9
$DIMEXO
 40
0.0625
  9
$DIMDLI
 40
0.38
  9
$DIMRND
 40
0.0
  9
$DIMDLE
 40
0.0
  9
$DIMEXE
 40
0.18
  9
$DIMTP
 40
0.0
  9
$DIMTM
 40
0.0
  9
$DIMTXT
 40
0.18
  9
$DIMCEN
 40
0.09
  9
$DIMTSZ
 40
0.0
  9
$DIMTOL
 70
     0
  9
$DIMLIM
 70
     0
  9
$DIMTIH
 70
     1
  9
$DIMTOH
 70
     1
  9
$DIMSE1
 70
     0
  9
$DIMSE2
 70
     0
  9
$DIMTAD
 70
     0
  9
$DIMZIN
 70
     0
  9
$DIMBLK
  1

  9
$DIMASO
 70
     1
  9
$DIMSHO
 70
     1
  9
$DIMPOST
  1

  9
$DIMAPOST
  1

  9
$DIMALT
 70
     0
  9
$DIMALTD
 70
     2
  9
$DIMALTF
 40
25.4
  9
$DIMLFAC
 40
1.0
  9
$DIMTOFL
 70
     0
  9
$DIMTVP
 40
0.0
  9
$DIMTIX
 70
     0
  9
$DIMSOXD
 70
     0
  9
$DIMSAH
 70
     0
  9
$DIMBLK1
  1

  9
$DIMBLK2
  1

  9
$DIMSTYLE
  2
Standard
  9
$DIMCLRD
 70
     0
  9
$DIMCLRE
 70
     0
  9
$DIMCLRT
 70
     0
  9
$DIMTFAC
 40
1.0
  9
$DIMGAP
 40
0.09
  9
$DIMJUST
 70
     0
  9
$DIMSD1
 70
     0
  9
$DIMSD2
 70
     0
  9
$DIMTOLJ
 70
     1
  9
$DIMTZIN
 70
     0
  9
$DIMALTZ
 70
     0
  9
$DIMALTTZ
 70
     0
  9
$DIMUPT
 70
     0
  9
$DIMDEC
 70
     4
  9
$DIMTDEC
 70
     4
  9
$DIMALTU
 70
     2
  9
$DIMALTTD
 70
     2
  9
$DIMTXSTY
  7
STANDARD
  9
$DIMAUNIT
 70
     0
  9
$DIMADEC
 70
     0
  9
$DIMALTRND
 40
0.0
  9
$DIMAZIN
 70
     0
  9
$DIMDSEP
 70
    46
  9
$DIMATFIT
 70
     3
  9
$DIMFRAC
 70
     0
  9
$DIMLDRBLK
  1

  9
$DIMLUNIT
 70
     2
  9
$DIMLWD
 70
    -2
  9
$DIMLWE
 70
    -2
  9
$DIMTMOVE
 70
     0
  9
$LUNITS
 70
     2
  9
$LUPREC
 70
     4
  9
$SKETCHINC
 40
0.1
  9
$FILLETRAD
 40
0.5
  9
$AUNITS
 70
     0
  9
$AUPREC
 70
     0
  9
$MENU
  1
.
  9
$ELEVATION
 40
0.0
  9
$PELEVATION
 40
0.0
  9
$THICKNESS
 40
0.0
  9
$LIMCHECK
 70
     0
  9
$CHAMFERA
 40
0.5
  9
$CHAMFERB
 40
0.5
  9
$CHAMFERC
 40
1.0
  9
$CHAMFERD
 40
0.0
  9
$SKPOLY
 70
     0
  9
$TDCREATE
 40
2460242.40975544
  9
$TDUCREATE
 40
2460242.03475544
  9
$TDUPDATE
 40
2460242.409755452
  9
$TDUUPDATE
 40
2460242.034755452
  9
$TDINDWG
 40
0.0000000116
  9
$TDUSRTIMER
 40
0.0000000116
  9
$USRTIMER
 70
     1
  9
$ANGBASE
 50
0.0
  9
$ANGDIR
 70
     0
  9
$PDMODE
 70
    32
  9
$PDSIZE
 40
1.5
  9
$PLINEWID
 40
0.0
  9
$SPLFRAME
 70
     0
  9
$SPLINETYPE
 70
     6
  9
$SPLINESEGS
 70
     8
  9
$HANDSEED
  5
284
  9
$SURFTAB1
 70
     6
  9
$SURFTAB2
 70
     6
  9
$SURFTYPE
 70
     6
  9
$SURFU
 70
     6
  9
$SURFV
 70
     6
  9
$UCSBASE
  2

  9
$UCSNAME
  2

  9
$UCSORG
 10
0.0
 20
0.0
 30
0.0
  9
$UCSXDIR
 10
1.0
 20
0.0
 30
0.0
  9
$UCSYDIR
 10
0.0
 20
1.0
 30
0.0
  9
$UCSORTHOREF
  2

  9
$UCSORTHOVIEW
 70
     0
  9
$UCSORGTOP
 10
0.0
 20
0.0
 30
0.0
  9
$UCSORGBOTTOM
 10
0.0
 20
0.0
 30
0.0
  9
$UCSORGLEFT
 10
0.0
 20
0.0
 30
0.0
  9
$UCSORGRIGHT
 10
0.0
 20
0.0
 30
0.0
  9
$UCSORGFRONT
 10
0.0
 20
0.0
 30
0.0
  9
$UCSORGBACK
 10
0.0
 20
0.0
 30
0.0
  9
$PUCSBASE
  2

  9
$PUCSNAME
  2

  9
$PUCSORG
 10
0.0
 20
0.0
 30
0.0
  9
$PUCSXDIR
 10
1.0
 20
0.0
 30
0.0
  9
$PUCSYDIR
 10
0.0
 20
1.0
 30
0.0
  9
$PUCSORTHOREF
  2

  9
$PUCSORTHOVIEW
 70
     0
  9
$PUCSORGTOP
 10
0.0
 20
0.0
 30
0.0
  9
$PUCSORGBOTTOM
 10
0.0
 20
0.0
 30
0.0
  9
$PUCSORGLEFT
 10
0.0
 20
0.0
 30
0.0
  9
$PUCSORGRIGHT
 10
0.0
 20
0.0
 30
0.0
  9
$PUCSORGFRONT
 10
0.0
 20
0.0
 30
0.0
  9
$PUCSORGBACK
 10
0.0
 20
0.0
 30
0.0
  9
$USERI1
 70
     0
  9
$USERI2
 70
     0
  9
$USERI3
 70
     0
  9
$USERI4
 70
     0
  9
$USERI5
 70
     0
  9
$USERR1
 40
0.0
  9
$USERR2
 40
0.0
  9
$USERR3
 40
0.0
  9
$USERR4
 40
0.0
  9
$USERR5
 40
0.0
  9
$WORLDVIEW
 70
     1
  9
$SHADEDGE
 70
     3
  9
$SHADEDIF
 70
    70
  9
$TILEMODE
 70
     1
  9
$MAXACTVP
 70
    64
  9
$PINSBASE
 10
0.0
 20
0.0
 30
0.0
  9
$PLIMCHECK
 70
     0
  9
$PEXTMIN
 10
1.000000000000000E+20
 20
1.000000000000000E+20
 30
1.000000000000000E+20
  9
$PEXTMAX
 10
-1.000000000000000E+20
 20
-1.000000000000000E+20
 30
-1.000000000000000E+20
  9
$PLIMMIN
 10
0.0
 20
0.0
  9
$PLIMMAX
 10
12.0
 20
9.0
  9
$UNITMODE
 70
     0
  9
$VISRETAIN
 70
     1
  9
$PLINEGEN
 70
     0
  9
$PSLTSCALE
 70
     1
  9
$TREEDEPTH
 70
  3020
  9
$CMLSTYLE
  2
Standard
  9
$CMLJUST
 70
     0
  9
$CMLSCALE
 40
1.0
  9
$PROXYGRAPHICS
 70
     1
  9
$MEASUREMENT
 70
     0
  9
$CELWEIGHT
370
    -1
  9
$ENDCAPS
280
     0
  9
$JOINSTYLE
280
     0
  9
$LWDISPLAY
290
     0
  9
$INSUNITS
 70
     0
  9
$HYPERLINKBASE
  1

  9
$STYLESHEET
  1

  9
$XEDIT
290
     1
  9
$CEPSNTYPE
380
     0
  9
$PSTYLEMODE
290
     1
  9
$FINGERPRINTGUID
  2
{0794CDEE-8FC5-456E-94A4-B890982967AD}
  9
$VERSIONGUID
  2
{FAEB1C32-E019-11D5-929B-00C0DF256EC4}
  9
$EXTNAMES
290
     1
  9
$PSVPSCALE
 40
0.0
  9
$OLESTARTUP
290
     0
  9
$SORTENTS
280
   127
  9
$INDEXCTL
280
     0
  9
$HIDETEXT
280
     1
  9
$XCLIPFRAME
290
     0
  9
$HALOGAP
280
     0
  9
$OBSCOLOR
 70
   257
  9
$OBSLTYPE
280
     0
  9
$INTERSECTIONDISPLAY
280
     0
  9
$INTERSECTIONCOLOR
 70
   257
  9
$DIMASSOC
280
     2
  9
$PROJECTNAME
  1

  0
ENDSEC
  0
SECTION
  2
CLASSES
  0
CLASS
  1
ACDBDICTIONARYWDFLT
  2
AcDbDictionaryWithDefault
  3
ObjectDBX Classes
 90
        0
 91
        3
280
     0
281
     0
  0
ENDSEC
  0
SECTION
  2
TABLES
  0
TABLE
  2
VPORT
  5
8
330
0
100
AcDbSymbolTable
 70
     1
  0
VPORT
  5
27F
330
8
100
AcDbSymbolTableRecord
100
AcDbViewportTableRecord
  2
*Active
 70
     0
 10
0.0
 20
0.0
 11
1.0
 21
1.0
 12
10.42990654205607
 22
4.5
 13
0.0
 23
0.0
 14
0.5
 24
0.5
 15
0.5
 25
0.5
 16
0.0
 26
0.0
 36
1.0
 17
0.0
 27
0.0
 37
0.0
 40
9.0
 41
1.972972972850329
 42
50.0
 43
0.0
 44
0.0
 50
0.0
 51
0.0
 71
     0
 72
   100
 73
     1
 74
     3
 75
     0
 76
     0
 77
     0
 78
     0
281
     0
 65
     1
110
0.0
120
0.0
130
0.0
111
1.0
121
0.0
131
0.0
112
0.0
122
1.0
132
0.0
 79
     0
146
0.0
  0
ENDTAB
  0
TABLE
  2
LTYPE
  5
5
330
0
100
AcDbSymbolTable
 70
     9
  0
LTYPE
  5
14
330
5
100
AcDbSymbolTableRecord
100
AcDbLinetypeTableRecord
  2
ByBlock
 70
     0
  3

 72
    65
 73
     0
 40
0.0
  0
LTYPE
  5
15
330
5
100
AcDbSymbolTableRecord
100
AcDbLinetypeTableRecord
  2
ByLayer
 70
     0
  3

 72
    65
 73
     0
 40
0.0
  0
LTYPE
  5
16
330
5
100
AcDbSymbolTableRecord
100
AcDbLinetypeTableRecord
  2
CONTINUOUS
 70
     0
  3
実線
 72
    65
 73
     0
 40
0.0
  0
LTYPE
  5
21
330
5
100
AcDbSymbolTableRecord
100
AcDbLinetypeTableRecord
  2
DASHED
 70
     0
  3
破線A
 72
    65
 73
     2
 40
0.6000000000000001
 49
0.4
 74
     0
 49
-0.2
 74
     0
  0
LTYPE
  5
22
330
5
100
AcDbSymbolTableRecord
100
AcDbLinetypeTableRecord
  2
DASHEDX2
 70
     0
  3
破線B
 72
    65
 73
     2
 40
1.3
 49
0.9
 74
     0
 49
-0.4
 74
     0
  0
LTYPE
  5
23
330
5
100
AcDbSymbolTableRecord
100
AcDbLinetypeTableRecord
  2
DASHDOT
 70
     0
  3
１点鎖線A
 72
    65
 73
     4
 40
0.5375
 49
0.375
 74
     0
 49
-0.05
 74
     0
 49
0.0625
 74
     0
 49
-0.05
 74
     0
  0
LTYPE
  5
24
330
5
100
AcDbSymbolTableRecord
100
AcDbLinetypeTableRecord
  2
DASHDOTX2
 70
     0
  3
１点鎖線B
 72
    65
 73
     4
 40
1.075
 49
0.75
 74
     0
 49
-0.1
 74
     0
 49
0.125
 74
     0
 49
-0.1
 74
     0
  0
LTYPE
  5
25
330
5
100
AcDbSymbolTableRecord
100
AcDbLinetypeTableRecord
  2
DIVIDE2
 70
     0
  3
２点鎖線A
 72
    65
 73
     6
 40
0.5125
 49
0.3
 74
     0
 49
-0.0375
 74
     0
 49
0.05
 74
     0
 49
-0.0375
 74
     0
 49
0.05
 74
     0
 49
-0.0375
 74
     0
  0
LTYPE
  5
26
330
5
100
AcDbSymbolTableRecord
100
AcDbLinetypeTableRecord
  2
DIVIDE
 70
     0
  3
２点鎖線B
 72
    65
 73
     6
 40
1.05
 49
0.55
 74
     0
 49
-0.1
 74
     0
 49
0.1
 74
     0
 49
-0.1
 74
     0
 49
0.1
 74
     0
 49
-0.1
 74
     0
  0
LTYPE
  5
27
330
5
100
AcDbSymbolTableRecord
100
AcDbLinetypeTableRecord
  2
DOT
 70
     0
  3
点線A
 72
    65
 73
     2
 40
0.1125
 49
0.0625
 74
     0
 49
-0.05
 74
     0
  0
LTYPE
  5
28
330
5
100
AcDbSymbolTableRecord
100
AcDbLinetypeTableRecord
  2
DOTX2
 70
     0
  3
点線B
 72
    65
 73
     2
 40
0.275
 49
0.15
 74
     0
 49
-0.125
 74
     0
  0
ENDTAB
  0
TABLE
  2
LAYER
  5
2
330
0
100
AcDbSymbolTable
 70
    34
  0
LAYER
  5
10
330
2
100
AcDbSymbolTableRecord
100
AcDbLayerTableRecord
  2
0
 70
     0
 62
    17
  6
CONTINUOUS
370
    -3
390
F
  0
LAYER
  5
2F
330
2
100
AcDbSymbolTableRecord
100
AcDbLayerTableRecord
  2
通り芯
 70
     0
 62
    15
  6
CONTINUOUS
370
    -3
390
F
  0
LAYER
  5
30
330
2
100
AcDbSymbolTableRecord
100
AcDbLayerTableRecord
  2
補助線
 70
     0
 62
    16
  6
DOT
370
    -3
390
F
  0
LAYER
  5
31
330
2
100
AcDbSymbolTableRecord
100
AcDbLayerTableRecord
  2
躯体
 70
     0
 62
    31
  6
CONTINUOUS
370
    -3
390
F
  0
LAYER
  5
32
330
2
100
AcDbSymbolTableRecord
100
AcDbLayerTableRecord
  2
型材
 70
     0
 62
    32
  6
CONTINUOUS
370
    -3
390
F
  0
LAYER
  5
33
330
2
100
AcDbSymbolTableRecord
100
AcDbLayerTableRecord
  2
型材断面
 70
     0
 62
    47
  6
CONTINUOUS
370
    -3
390
F
  0
LAYER
  5
34
330
2
100
AcDbSymbolTableRecord
100
AcDbLayerTableRecord
  2
ガラス
 70
     0
 62
    48
  6
CONTINUOUS
370
    -3
390
F
  0
LAYER
  5
35
330
2
100
AcDbSymbolTableRecord
100
AcDbLayerTableRecord
  2
ゴム等
 70
     0
 62
    63
  6
CONTINUOUS
370
    -3
390
F
  0
LAYER
  5
36
330
2
100
AcDbSymbolTableRecord
100
AcDbLayerTableRecord
  2
ボルト／ビス
 70
     0
 62
    64
  6
CONTINUOUS
370
    -3
390
F
  0
LAYER
  5
37
330
2
100
AcDbSymbolTableRecord
100
AcDbLayerTableRecord
  2
文字
 70
     0
 62
    79
  6
CONTINUOUS
370
    -3
390
F
  0
LAYER
  5
38
330
2
100
AcDbSymbolTableRecord
100
AcDbLayerTableRecord
  2
寸法
 70
     0
 62
    80
  6
CONTINUOUS
370
    -3
390
F
  0
LAYER
  5
39
330
2
100
AcDbSymbolTableRecord
100
AcDbLayerTableRecord
  2
ﾊｯﾁﾝｸﾞ
 70
     0
 62
    95
  6
CONTINUOUS
370
    -3
390
F
  0
LAYER
  5
3A
330
2
100
AcDbSymbolTableRecord
100
AcDbLayerTableRecord
  2
別途部材
 70
     0
 62
    96
  6
CONTINUOUS
370
    -3
390
F
  0
LAYER
  5
3B
330
2
100
AcDbSymbolTableRecord
100
AcDbLayerTableRecord
  2
曲げ物
 70
     0
 62
   111
  6
CONTINUOUS
370
    -3
390
F
  0
LAYER
  5
3C
330
2
100
AcDbSymbolTableRecord
100
AcDbLayerTableRecord
  2
鉄骨等
 70
     0
 62
   112
  6
CONTINUOUS
370
    -3
390
F
  0
LAYER
  5
3D
330
2
100
AcDbSymbolTableRecord
100
AcDbLayerTableRecord
  2
St
 70
     0
 62
   127
  6
CONTINUOUS
370
    -3
390
F
  0
LAYER
  5
3E
330
2
100
AcDbSymbolTableRecord
100
AcDbLayerTableRecord
  2
その他部品等
 70
     0
 62
   128
  6
CONTINUOUS
370
    -3
390
F
  0
LAYER
  5
3F
330
2
100
AcDbSymbolTableRecord
100
AcDbLayerTableRecord
  2
ｶﾞｽｹｯﾄ
 70
     0
 62
   143
  6
CONTINUOUS
370
    -3
390
F
  0
LAYER
  5
40
330
2
100
AcDbSymbolTableRecord
100
AcDbLayerTableRecord
  2
ｽｹｯﾁ
 70
     0
 62
    14
  6
CONTINUOUS
370
    -3
390
F
  0
LAYER
  5
42
330
2
100
AcDbSymbolTableRecord
100
AcDbLayerTableRecord
  2
1
 70
     0
 62
    30
  6
CONTINUOUS
370
    -3
390
F
  0
LAYER
  5
43
330
2
100
AcDbSymbolTableRecord
100
AcDbLayerTableRecord
  2
4
 70
     0
 62
    33
  6
CONTINUOUS
370
    -3
390
F
  0
LAYER
  5
44
330
2
100
AcDbSymbolTableRecord
100
AcDbLayerTableRecord
  2
ﾚｲﾔ3
 70
     0
 62
    46
  6
CONTINUOUS
370
    -3
390
F
  0
LAYER
  5
45
330
2
100
AcDbSymbolTableRecord
100
AcDbLayerTableRecord
  2
外形線
 70
     0
 62
    49
  6
CONTINUOUS
370
    -3
390
F
  0
LAYER
  5
46
330
2
100
AcDbSymbolTableRecord
100
AcDbLayerTableRecord
  2
部品
 70
     0
 62
    14
  6
CONTINUOUS
370
    -3
390
F
  0
LAYER
  5
47
330
2
100
AcDbSymbolTableRecord
100
AcDbLayerTableRecord
  2
サッシ芯
 70
     0
 62
    17
  6
DASHDOTX2
370
    -3
390
F
  0
LAYER
  5
48
330
2
100
AcDbSymbolTableRecord
100
AcDbLayerTableRecord
  2
寸法線
 70
     0
 62
    62
  6
CONTINUOUS
370
    -3
390
F
  0
LAYER
  5
49
330
2
100
AcDbSymbolTableRecord
100
AcDbLayerTableRecord
  2
姿図外形線
 70
     0
 62
    65
  6
CONTINUOUS
370
    -3
390
F
  0
LAYER
  5
4A
330
2
100
AcDbSymbolTableRecord
100
AcDbLayerTableRecord
  2
姿補助線
 70
     0
 62
    30
  6
CONTINUOUS
370
    -3
390
F
  0
LAYER
  5
4B
330
2
100
AcDbSymbolTableRecord
100
AcDbLayerTableRecord
  2
透視線
 70
     0
 62
    78
  6
DOT
370
    -3
390
F
  0
LAYER
  5
4C
330
2
100
AcDbSymbolTableRecord
100
AcDbLayerTableRecord
  2
用紙
 70
     0
 62
    81
  6
CONTINUOUS
370
    -3
390
F
  0
LAYER
  5
4D
330
2
100
AcDbSymbolTableRecord
100
AcDbLayerTableRecord
  2
実線図枠
 70
     0
 62
    94
  6
CONTINUOUS
370
    -3
390
F
  0
LAYER
  5
4E
330
2
100
AcDbSymbolTableRecord
100
AcDbLayerTableRecord
  2
補助図枠
 70
     0
 62
    97
  6
CONTINUOUS
370
    -3
390
F
  0
LAYER
  5
4F
330
2
100
AcDbSymbolTableRecord
100
AcDbLayerTableRecord
  2
建具記号
 70
     0
 62
   110
  6
CONTINUOUS
370
    -3
390
F
  0
LAYER
  5
50
330
2
100
AcDbSymbolTableRecord
100
AcDbLayerTableRecord
  2
補助文字
 70
     0
 62
   113
  6
CONTINUOUS
370
    -3
390
F
  0
ENDTAB
  0
TABLE
  2
STYLE
  5
3
330
0
100
AcDbSymbolTable
 70
    10
  0
STYLE
  5
11
330
3
100
AcDbSymbolTableRecord
100
AcDbTextStyleTableRecord
  2
STANDARD
 70
     0
 40
1.0
 41
1.0
 50
0.0
 71
     0
 42
1.0
  3
TXT
  4
BIGFONT
  0
STYLE
  5
52
330
3
100
AcDbSymbolTableRecord
100
AcDbTextStyleTableRecord
  2
TATE
 70
     4
 40
1.0
 41
1.0
 50
0.0
 71
     0
 42
1.0
  3
TXT
  4
BIGFONT
  0
STYLE
  5
53
330
3
100
AcDbSymbolTableRecord
100
AcDbTextStyleTableRecord
  2
TextStyle03
 70
     0
 40
1.0
 41
1.0
 50
0.0
 71
     0
 42
1.0
  3
MONOTXT
  4
BIGFONT
  0
STYLE
  5
54
330
3
100
AcDbSymbolTableRecord
100
AcDbTextStyleTableRecord
  2
TextStyle04
 70
     0
 40
1.0
 41
1.0
 50
0.0
 71
     0
 42
1.0
  3
MONOTXT
  4
BIGFONT
  0
STYLE
  5
55
330
3
100
AcDbSymbolTableRecord
100
AcDbTextStyleTableRecord
  2
TextStyle05
 70
     0
 40
1.0
 41
1.0
 50
0.0
 71
     0
 42
1.0
  3
MONOTXT
  4
BIGFONT
  0
STYLE
  5
56
330
3
100
AcDbSymbolTableRecord
100
AcDbTextStyleTableRecord
  2
TextStyle06
 70
     0
 40
1.0
 41
1.0
 50
0.0
 71
     0
 42
1.0
  3
MONOTXT
  4
BIGFONT
  0
STYLE
  5
57
330
3
100
AcDbSymbolTableRecord
100
AcDbTextStyleTableRecord
  2
TextStyle07
 70
     0
 40
1.0
 41
1.0
 50
0.0
 71
     0
 42
1.0
  3
MONOTXT
  4
BIGFONT
  0
STYLE
  5
58
330
3
100
AcDbSymbolTableRecord
100
AcDbTextStyleTableRecord
  2
TextStyle08
 70
     0
 40
1.0
 41
1.0
 50
0.0
 71
     0
 42
1.0
  3
MONOTXT
  4
BIGFONT
  0
STYLE
  5
59
330
3
100
AcDbSymbolTableRecord
100
AcDbTextStyleTableRecord
  2
TextStyle09
 70
     0
 40
1.0
 41
1.0
 50
0.0
 71
     0
 42
1.0
  3
MONOTXT
  4
BIGFONT
  0
STYLE
  5
5A
330
3
100
AcDbSymbolTableRecord
100
AcDbTextStyleTableRecord
  2
TextStyle10
 70
     0
 40
1.0
 41
1.0
 50
0.0
 71
     0
 42
1.0
  3
MONOTXT
  4
BIGFONT
  0
ENDTAB
  0
TABLE
  2
VIEW
  5
6
330
0
100
AcDbSymbolTable
 70
     0
  0
ENDTAB
  0
TABLE
  2
UCS
  5
7
330
0
100
AcDbSymbolTable
 70
     0
  0
ENDTAB
  0
TABLE
  2
APPID
  5
9
330
0
100
AcDbSymbolTable
 70
     1
  0
APPID
  5
12
330
9
100
AcDbSymbolTableRecord
100
AcDbRegAppTableRecord
  2
ACAD
 70
     0
  0
ENDTAB
  0
TABLE
  2
DIMSTYLE
  5
A
330
0
100
AcDbSymbolTable
 70
     1
100
AcDbDimStyleTable
  0
DIMSTYLE
105
5B
330
A
100
AcDbSymbolTableRecord
100
AcDbDimStyleTableRecord
  2
Standard
 70
     0
340
11
  0
ENDTAB
  0
TABLE
  2
BLOCK_RECORD
  5
1
330
0
100
AcDbSymbolTable
 70
    24
  0
BLOCK_RECORD
  5
1D
330
1
100
AcDbSymbolTableRecord
100
AcDbBlockTableRecord
  2
*Model_Space
340
1E
  0
BLOCK_RECORD
  5
1B
330
1
100
AcDbSymbolTableRecord
100
AcDbBlockTableRecord
  2
*Paper_Space
340
1C
  0
BLOCK_RECORD
  5
5D
330
1
100
AcDbSymbolTableRecord
100
AcDbBlockTableRecord
  2
*U0
340
0
102
{BLKREFS
331
1D5
102
}
  0
BLOCK_RECORD
  5
66
330
1
100
AcDbSymbolTableRecord
100
AcDbBlockTableRecord
  2
*U1
340
0
102
{BLKREFS
331
244
102
}
  0
BLOCK_RECORD
  5
6D
330
1
100
AcDbSymbolTableRecord
100
AcDbBlockTableRecord
  2
*U2
340
0
102
{BLKREFS
331
245
102
}
  0
BLOCK_RECORD
  5
76
330
1
100
AcDbSymbolTableRecord
100
AcDbBlockTableRecord
  2
*U3
340
0
102
{BLKREFS
331
246
102
}
  0
BLOCK_RECORD
  5
7E
330
1
100
AcDbSymbolTableRecord
100
AcDbBlockTableRecord
  2
*U4
340
0
102
{BLKREFS
331
247
102
}
  0
BLOCK_RECORD
  5
85
330
1
100
AcDbSymbolTableRecord
100
AcDbBlockTableRecord
  2
*U5
340
0
102
{BLKREFS
331
248
102
}
  0
BLOCK_RECORD
  5
8E
330
1
100
AcDbSymbolTableRecord
100
AcDbBlockTableRecord
  2
*U6
340
0
102
{BLKREFS
331
276
102
}
  0
BLOCK_RECORD
  5
101
330
1
100
AcDbSymbolTableRecord
100
AcDbBlockTableRecord
  2
*U7
340
0
102
{BLKREFS
331
249
102
}
  0
BLOCK_RECORD
  5
10A
330
1
100
AcDbSymbolTableRecord
100
AcDbBlockTableRecord
  2
*U8
340
0
102
{BLKREFS
331
24A
102
}
  0
BLOCK_RECORD
  5
113
330
1
100
AcDbSymbolTableRecord
100
AcDbBlockTableRecord
  2
*U9
340
0
102
{BLKREFS
331
24B
102
}
  0
BLOCK_RECORD
  5
11C
330
1
100
AcDbSymbolTableRecord
100
AcDbBlockTableRecord
  2
*U10
340
0
102
{BLKREFS
331
24C
102
}
  0
BLOCK_RECORD
  5
123
330
1
100
AcDbSymbolTableRecord
100
AcDbBlockTableRecord
  2
*U11
340
0
102
{BLKREFS
331
24D
102
}
  0
BLOCK_RECORD
  5
12C
330
1
100
AcDbSymbolTableRecord
100
AcDbBlockTableRecord
  2
*U12
340
0
102
{BLKREFS
331
24E
102
}
  0
BLOCK_RECORD
  5
133
330
1
100
AcDbSymbolTableRecord
100
AcDbBlockTableRecord
  2
*U13
340
0
102
{BLKREFS
331
24F
102
}
  0
BLOCK_RECORD
  5
13A
330
1
100
AcDbSymbolTableRecord
100
AcDbBlockTableRecord
  2
*U14
340
0
102
{BLKREFS
331
250
102
}
  0
BLOCK_RECORD
  5
142
330
1
100
AcDbSymbolTableRecord
100
AcDbBlockTableRecord
  2
*U15
340
0
102
{BLKREFS
331
251
102
}
  0
BLOCK_RECORD
  5
14A
330
1
100
AcDbSymbolTableRecord
100
AcDbBlockTableRecord
  2
*U16
340
0
102
{BLKREFS
331
252
102
}
  0
BLOCK_RECORD
  5
152
330
1
100
AcDbSymbolTableRecord
100
AcDbBlockTableRecord
  2
*U17
340
0
102
{BLKREFS
331
253
102
}
  0
BLOCK_RECORD
  5
15A
330
1
100
AcDbSymbolTableRecord
100
AcDbBlockTableRecord
  2
*U18
340
0
102
{BLKREFS
331
254
102
}
  0
BLOCK_RECORD
  5
163
330
1
100
AcDbSymbolTableRecord
100
AcDbBlockTableRecord
  2
*U19
340
0
102
{BLKREFS
331
255
102
}
  0
BLOCK_RECORD
  5
16C
330
1
100
AcDbSymbolTableRecord
100
AcDbBlockTableRecord
  2
*U20
340
0
102
{BLKREFS
331
277
102
}
  0
BLOCK_RECORD
  5
185
330
1
100
AcDbSymbolTableRecord
100
AcDbBlockTableRecord
  2
*U21
340
0
102
{BLKREFS
331
278
102
}
  0
BLOCK_RECORD
  5
19E
330
1
100
AcDbSymbolTableRecord
100
AcDbBlockTableRecord
  2
*U22
340
0
102
{BLKREFS
331
279
102
}
  0
BLOCK_RECORD
  5
1B7
330
1
100
AcDbSymbolTableRecord
100
AcDbBlockTableRecord
  2
*U23
340
0
102
{BLKREFS
331
27A
102
}
  0
ENDTAB
  0
ENDSEC
  0
SECTION
  2
BLOCKS
  0
BLOCK
  5
280
330
1D
100
AcDbEntity
  8
0
100
AcDbBlockBegin
  2
*Model_Space
 70
     0
 71
     0
 10
0.0
 20
0.0
 30
0.0
  3
*Model_Space
  1

  0
ENDBLK
  5
281
330
1D
100
AcDbEntity
  8
0
100
AcDbBlockEnd
  0
BLOCK
  5
282
330
1B
100
AcDbEntity
 67
     1
  8
0
100
AcDbBlockBegin
  2
*Paper_Space
 70
     0
 71
     0
 10
0.0
 20
0.0
 30
0.0
  3
*Paper_Space
  1

  0
ENDBLK
  5
283
330
1B
100
AcDbEntity
 67
     1
  8
0
100
AcDbBlockEnd
  0
BLOCK
  5
5C
330
5D
100
AcDbEntity
  8
0
100
AcDbBlockBegin
  2
*U0
 70
     1
 71
     0
 10
0.0
 20
0.0
 30
0.0
  3
*U0
  1

  0
LINE
  5
5E
330
5D
100
AcDbEntity
  8
型材断面
  6
Continuous
100
AcDbLine
 10
195.0
 20
133.5
 30
0.0
 11
195.0
 21
-133.5
 31
0.0
  0
LINE
  5
5F
330
5D
100
AcDbEntity
  8
型材断面
  6
Continuous
100
AcDbLine
 10
195.0
 20
-133.5
 30
0.0
 11
-185.0
 21
-133.5
 31
0.0
  0
LINE
  5
60
330
5D
100
AcDbEntity
  8
型材断面
  6
Continuous
100
AcDbLine
 10
-185.0
 20
-133.5
 30
0.0
 11
-185.0
 21
133.5
 31
0.0
  0
LINE
  5
61
330
5D
100
AcDbEntity
  8
型材断面
  6
Continuous
100
AcDbLine
 10
195.0
 20
133.5
 30
0.0
 11
-185.0
 21
133.5
 31
0.0
  0
LINE
  5
62
330
5D
100
AcDbEntity
  8
型材断面
  6
Continuous
100
AcDbLine
 10
145.0
 20
-133.5
 30
0.0
 11
145.0
 21
-118.5
 31
0.0
  0
LINE
  5
63
330
5D
100
AcDbEntity
  8
型材断面
  6
Continuous
100
AcDbLine
 10
195.0
 20
-118.5
 30
0.0
 11
145.0
 21
-118.5
 31
0.0
  0
ENDBLK
  5
64
330
5D
100
AcDbEntity
  8
0
100
AcDbBlockEnd
  0
BLOCK
  5
65
330
66
100
AcDbEntity
  8
0
100
AcDbBlockBegin
  2
*U1
 70
     1
 71
     0
 10
0.0
 20
0.0
 30
0.0
  3
*U1
  1

  0
LINE
  5
67
330
66
100
AcDbEntity
  8
寸法
  6
ByBlock
 62
     0
100
AcDbLine
 10
-37.30308
 20
-62.95793
 30
0.0
 11
10.999902
 21
-62.95793
 31
0.0
  0
LINE
  5
68
330
66
100
AcDbEntity
  8
寸法
  6
ByBlock
 62
     0
100
AcDbLine
 10
10.999902
 20
-79.62459699999999
 30
0.0
 11
10.999902
 21
-62.95793
 31
0.0
  0
POINT
  5
69
330
66
100
AcDbEntity
  8
寸法
 62
     0
100
AcDbPoint
 10
10.999902
 20
-62.95793
 30
0.0
  0
TEXT
  5
6A
330
66
100
AcDbEntity
  8
寸法
  6
Continuous
 62
     0
100
AcDbText
 10
10.65
 20
-73.7375
 30
0.0
 40
3.0
  1
500
 50
90.0
  7
TextStyle03
 72
     5
 11
10.65
 21
-68.8625
 31
0.0
100
AcDbText
  0
ENDBLK
  5
6B
330
66
100
AcDbEntity
  8
0
100
AcDbBlockEnd
  0
BLOCK
  5
6C
330
6D
100
AcDbEntity
  8
0
100
AcDbBlockBegin
  2
*U2
 70
     1
 71
     0
 10
0.0
 20
0.0
 30
0.0
  3
*U2
  1

  0
LINE
  5
6E
330
6D
100
AcDbEntity
  8
寸法
  6
ByBlock
 62
     0
100
AcDbLine
 10
32.39956
 20
64.756625
 30
0.0
 11
31.662717
 21
64.756625
 31
0.0
  0
LINE
  5
6F
330
6D
100
AcDbEntity
  8
寸法
  6
ByBlock
 62
     0
100
AcDbLine
 10
32.39956
 20
-1.910042
 30
0.0
 11
31.662717
 21
-1.910042
 31
0.0
  0
LINE
  5
70
330
6D
100
AcDbEntity
  8
寸法
  6
ByBlock
 62
     0
100
AcDbLine
 10
31.662717
 20
64.756625
 30
0.0
 11
31.662717
 21
-1.910042
 31
0.0
  0
POINT
  5
71
330
6D
100
AcDbEntity
  8
寸法
 62
     0
100
AcDbPoint
 10
31.662717
 20
64.756625
 30
0.0
  0
POINT
  5
72
330
6D
100
AcDbEntity
  8
寸法
 62
     0
100
AcDbPoint
 10
31.662717
 20
-1.910042
 30
0.0
  0
TEXT
  5
73
330
6D
100
AcDbEntity
  8
寸法
  6
Continuous
 62
     0
100
AcDbText
 10
31.3
 20
19.68125
 30
0.0
 40
3.0
  1
呼称寸法　2000
 50
90.0
  7
TextStyle03
 72
     5
 11
31.3
 21
43.11875
 31
0.0
100
AcDbText
  0
ENDBLK
  5
74
330
6D
100
AcDbEntity
  8
0
100
AcDbBlockEnd
  0
BLOCK
  5
75
330
76
100
AcDbEntity
  8
0
100
AcDbBlockBegin
  2
*U3
 70
     1
 71
     0
 10
0.0
 20
0.0
 30
0.0
  3
*U3
  1

  0
LINE
  5
77
330
76
100
AcDbEntity
  8
寸法
  6
ByBlock
 62
     0
100
AcDbLine
 10
67.89685
 20
32.42329
 30
0.0
 11
67.89685
 21
86.58839999999999
 31
0.0
  0
LINE
  5
78
330
76
100
AcDbEntity
  8
寸法
  6
ByBlock
 62
     0
100
AcDbLine
 10
84.563517
 20
86.58839999999999
 30
0.0
 11
67.89685
 21
86.58839999999999
 31
0.0
  0
POINT
  5
79
330
76
100
AcDbEntity
  8
寸法
 62
     0
100
AcDbPoint
 10
84.563517
 20
86.58839999999999
 30
0.0
  0
POINT
  5
7A
330
76
100
AcDbEntity
  8
寸法
 62
     0
100
AcDbPoint
 10
67.89685
 20
86.58839999999999
 30
0.0
  0
TEXT
  5
7B
330
76
100
AcDbEntity
  8
寸法
  6
Continuous
 62
     0
100
AcDbText
 10
73.8125
 20
86.95
 30
0.0
 40
3.0
  1
500
  7
TextStyle03
 72
     5
 11
78.6875
 21
86.95
 31
0.0
100
AcDbText
  0
ENDBLK
  5
7C
330
76
100
AcDbEntity
  8
0
100
AcDbBlockEnd
  0
BLOCK
  5
7D
330
7E
100
AcDbEntity
  8
0
100
AcDbBlockBegin
  2
*U4
 70
     1
 71
     0
 10
0.0
 20
0.0
 30
0.0
  3
*U4
  1

  0
LINE
  5
7F
330
7E
100
AcDbEntity
  8
寸法
  6
ByBlock
 62
     0
100
AcDbLine
 10
-4.969747
 20
-29.63158
 30
0.0
 11
-88.30307999999999
 21
-29.63158
 31
0.0
  0
POINT
  5
80
330
7E
100
AcDbEntity
  8
寸法
 62
     0
100
AcDbPoint
 10
-4.969747
 20
-29.63158
 30
0.0
  0
POINT
  5
81
330
7E
100
AcDbEntity
  8
寸法
 62
     0
100
AcDbPoint
 10
-88.30307999999999
 20
-29.63158
 30
0.0
  0
TEXT
  5
82
330
7E
100
AcDbEntity
  8
寸法
  6
Continuous
 62
     0
100
AcDbText
 10
-58.34375
 20
-29.275
 30
0.0
 40
3.0
  1
呼称寸法　2500
  7
TextStyle03
 72
     5
 11
-34.90625
 21
-29.275
 31
0.0
100
AcDbText
  0
ENDBLK
  5
83
330
7E
100
AcDbEntity
  8
0
100
AcDbBlockEnd
  0
BLOCK
  5
84
330
85
100
AcDbEntity
  8
0
100
AcDbBlockBegin
  2
*U5
 70
     1
 71
     0
 10
0.0
 20
0.0
 30
0.0
  3
*U5
  1

  0
LINE
  5
86
330
85
100
AcDbEntity
  8
寸法
  6
ByBlock
 62
     0
100
AcDbLine
 10
-71.63641300000001
 20
-5.54017
 30
0.0
 11
-71.63641300000001
 21
-10.057895
 31
0.0
  0
LINE
  5
87
330
85
100
AcDbEntity
  8
寸法
  6
ByBlock
 62
     0
100
AcDbLine
 10
-21.636417
 20
-5.54017
 30
0.0
 11
-21.636417
 21
-10.057895
 31
0.0
  0
LINE
  5
88
330
85
100
AcDbEntity
  8
寸法
  6
ByBlock
 62
     0
100
AcDbLine
 10
-71.63641300000001
 20
-10.057895
 30
0.0
 11
-21.636417
 21
-10.057895
 31
0.0
  0
POINT
  5
89
330
85
100
AcDbEntity
  8
寸法
 62
     0
100
AcDbPoint
 10
-71.63641300000001
 20
-10.057895
 30
0.0
  0
POINT
  5
8A
330
85
100
AcDbEntity
  8
寸法
 62
     0
100
AcDbPoint
 10
-21.636417
 20
-10.057895
 30
0.0
  0
TEXT
  5
8B
330
85
100
AcDbEntity
  8
寸法
  6
Continuous
 62
     0
100
AcDbText
 10
-49.93125
 20
-9.699999999999999
 30
0.0
 40
3.0
  1
1500
  7
TextStyle03
 72
     5
 11
-43.36875
 21
-9.699999999999999
 31
0.0
100
AcDbText
  0
ENDBLK
  5
8C
330
85
100
AcDbEntity
  8
0
100
AcDbBlockEnd
  0
BLOCK
  5
8D
330
8E
100
AcDbEntity
  8
0
100
AcDbBlockBegin
  2
*U6
 70
     1
 71
     0
 10
0.0
 20
0.0
 30
0.0
  3
*U6
  1

  0
LINE
  5
8F
330
8E
100
AcDbEntity
  8
別途部材
  6
Continuous
 62
    96
100
AcDbLine
 10
-89.969747
 20
-79.62459699999999
 30
0.0
 11
-90.369747
 21
-80.62459699999999
 31
0.0
  0
LINE
  5
90
330
8E
100
AcDbEntity
  8
別途部材
  6
Continuous
100
AcDbLine
 10
-90.369747
 20
-80.62459699999999
 30
0.0
 11
-46.636413
 21
-80.62459699999999
 31
0.0
  0
LINE
  5
91
330
8E
100
AcDbEntity
  8
別途部材
  6
Continuous
 62
    96
100
AcDbLine
 10
-89.969747
 20
-79.62459699999999
 30
0.0
 11
-46.636413
 21
-79.62459699999999
 31
0.0
  0
LINE
  5
92
330
8E
100
AcDbEntity
  8
別途部材
  6
Continuous
100
AcDbLine
 10
-47.136413
 20
-79.62459699999999
 30
0.0
 11
-47.136413
 21
-61.95793
 31
0.0
  0
LINE
  5
93
330
8E
100
AcDbEntity
  8
別途部材
  6
Continuous
100
AcDbLine
 10
-50.136413
 20
-79.62459699999999
 30
0.0
 11
-50.136413
 21
-61.95793
 31
0.0
  0
LINE
  5
94
330
8E
100
AcDbEntity
  8
別途部材
  6
Continuous
100
AcDbLine
 10
-47.136413
 20
-61.95793
 30
0.0
 11
-48.136413
 21
-62.95793
 31
0.0
  0
LINE
  5
95
330
8E
100
AcDbEntity
  8
別途部材
  6
Continuous
100
AcDbLine
 10
-51.136413
 20
-79.62459699999999
 30
0.0
 11
-51.136413
 21
-61.95793
 31
0.0
  0
LINE
  5
96
330
8E
100
AcDbEntity
  8
別途部材
  6
Continuous
100
AcDbLine
 10
-49.136413
 20
-62.95793
 30
0.0
 11
-50.136413
 21
-61.95793
 31
0.0
  0
LINE
  5
97
330
8E
100
AcDbEntity
  8
別途部材
  6
Continuous
100
AcDbLine
 10
-51.136413
 20
-61.95793
 30
0.0
 11
-52.136413
 21
-62.95793
 31
0.0
  0
LINE
  5
98
330
8E
100
AcDbEntity
  8
別途部材
  6
Continuous
100
AcDbLine
 10
-50.136413
 20
-61.95793
 30
0.0
 11
-51.136413
 21
-61.95793
 31
0.0
  0
LINE
  5
99
330
8E
100
AcDbEntity
  8
別途部材
  6
Continuous
100
AcDbLine
 10
-53.136413
 20
-62.95793
 30
0.0
 11
-54.136413
 21
-61.95793
 31
0.0
  0
LINE
  5
9A
330
8E
100
AcDbEntity
  8
別途部材
  6
Continuous
100
AcDbLine
 10
-55.136413
 20
-61.95793
 30
0.0
 11
-56.136413
 21
-62.95793
 31
0.0
  0
LINE
  5
9B
330
8E
100
AcDbEntity
  8
別途部材
  6
Continuous
100
AcDbLine
 10
-54.136413
 20
-61.95793
 30
0.0
 11
-55.136413
 21
-61.95793
 31
0.0
  0
LINE
  5
9C
330
8E
100
AcDbEntity
  8
別途部材
  6
Continuous
100
AcDbLine
 10
-49.136413
 20
-79.62459699999999
 30
0.0
 11
-49.136413
 21
-62.95793
 31
0.0
  0
LINE
  5
9D
330
8E
100
AcDbEntity
  8
別途部材
  6
Continuous
100
AcDbLine
 10
-52.136413
 20
-79.62459699999999
 30
0.0
 11
-52.136413
 21
-62.95793
 31
0.0
  0
LINE
  5
9E
330
8E
100
AcDbEntity
  8
別途部材
  6
Continuous
100
AcDbLine
 10
-53.136413
 20
-79.62459699999999
 30
0.0
 11
-53.136413
 21
-62.95793
 31
0.0
  0
LINE
  5
9F
330
8E
100
AcDbEntity
  8
別途部材
  6
Continuous
100
AcDbLine
 10
-54.136413
 20
-79.62459699999999
 30
0.0
 11
-54.136413
 21
-61.95793
 31
0.0
  0
LINE
  5
A0
330
8E
100
AcDbEntity
  8
別途部材
  6
Continuous
100
AcDbLine
 10
-55.136413
 20
-79.62459699999999
 30
0.0
 11
-55.136413
 21
-61.95793
 31
0.0
  0
LINE
  5
A1
330
8E
100
AcDbEntity
  8
別途部材
  6
Continuous
100
AcDbLine
 10
-56.136413
 20
-79.62459699999999
 30
0.0
 11
-56.136413
 21
-62.95793
 31
0.0
  0
LINE
  5
A2
330
8E
100
AcDbEntity
  8
別途部材
  6
Continuous
100
AcDbLine
 10
-52.136413
 20
-62.95793
 30
0.0
 11
-53.136413
 21
-62.95793
 31
0.0
  0
LINE
  5
A3
330
8E
100
AcDbEntity
  8
別途部材
  6
Continuous
100
AcDbLine
 10
-48.136413
 20
-79.62459699999999
 30
0.0
 11
-48.136413
 21
-62.95793
 31
0.0
  0
LINE
  5
A4
330
8E
100
AcDbEntity
  8
別途部材
  6
Continuous
100
AcDbLine
 10
-49.136413
 20
-62.95793
 30
0.0
 11
-48.136413
 21
-62.95793
 31
0.0
  0
LINE
  5
A5
330
8E
100
AcDbEntity
  8
別途部材
  6
Continuous
100
AcDbLine
 10
-47.136413
 20
-61.95793
 30
0.0
 11
-46.136413
 21
-61.95793
 31
0.0
  0
LINE
  5
A6
330
8E
100
AcDbEntity
  8
別途部材
  6
Continuous
100
AcDbLine
 10
-58.136413
 20
-79.62459699999999
 30
0.0
 11
-58.136413
 21
-61.95793
 31
0.0
  0
LINE
  5
A7
330
8E
100
AcDbEntity
  8
別途部材
  6
Continuous
100
AcDbLine
 10
-59.136413
 20
-79.62459699999999
 30
0.0
 11
-59.136413
 21
-61.95793
 31
0.0
  0
LINE
  5
A8
330
8E
100
AcDbEntity
  8
別途部材
  6
Continuous
100
AcDbLine
 10
-57.136413
 20
-62.95793
 30
0.0
 11
-58.136413
 21
-61.95793
 31
0.0
  0
LINE
  5
A9
330
8E
100
AcDbEntity
  8
別途部材
  6
Continuous
100
AcDbLine
 10
-59.136413
 20
-61.95793
 30
0.0
 11
-60.136413
 21
-62.95793
 31
0.0
  0
LINE
  5
AA
330
8E
100
AcDbEntity
  8
別途部材
  6
Continuous
100
AcDbLine
 10
-58.136413
 20
-61.95793
 30
0.0
 11
-59.136413
 21
-61.95793
 31
0.0
  0
LINE
  5
AB
330
8E
100
AcDbEntity
  8
別途部材
  6
Continuous
100
AcDbLine
 10
-61.136413
 20
-62.95793
 30
0.0
 11
-62.136413
 21
-61.95793
 31
0.0
  0
LINE
  5
AC
330
8E
100
AcDbEntity
  8
別途部材
  6
Continuous
100
AcDbLine
 10
-63.136413
 20
-61.95793
 30
0.0
 11
-64.13641300000001
 21
-62.95793
 31
0.0
  0
LINE
  5
AD
330
8E
100
AcDbEntity
  8
別途部材
  6
Continuous
100
AcDbLine
 10
-62.136413
 20
-61.95793
 30
0.0
 11
-63.136413
 21
-61.95793
 31
0.0
  0
LINE
  5
AE
330
8E
100
AcDbEntity
  8
別途部材
  6
Continuous
100
AcDbLine
 10
-57.136413
 20
-79.62459699999999
 30
0.0
 11
-57.136413
 21
-62.95793
 31
0.0
  0
LINE
  5
AF
330
8E
100
AcDbEntity
  8
別途部材
  6
Continuous
100
AcDbLine
 10
-60.136413
 20
-79.62459699999999
 30
0.0
 11
-60.136413
 21
-62.95793
 31
0.0
  0
LINE
  5
B0
330
8E
100
AcDbEntity
  8
別途部材
  6
Continuous
100
AcDbLine
 10
-61.136413
 20
-79.62459699999999
 30
0.0
 11
-61.136413
 21
-62.95793
 31
0.0
  0
LINE
  5
B1
330
8E
100
AcDbEntity
  8
別途部材
  6
Continuous
100
AcDbLine
 10
-62.136413
 20
-79.62459699999999
 30
0.0
 11
-62.136413
 21
-61.95793
 31
0.0
  0
LINE
  5
B2
330
8E
100
AcDbEntity
  8
別途部材
  6
Continuous
100
AcDbLine
 10
-63.136413
 20
-79.62459699999999
 30
0.0
 11
-63.136413
 21
-61.95793
 31
0.0
  0
LINE
  5
B3
330
8E
100
AcDbEntity
  8
別途部材
  6
Continuous
100
AcDbLine
 10
-64.13641300000001
 20
-79.62459699999999
 30
0.0
 11
-64.13641300000001
 21
-62.95793
 31
0.0
  0
LINE
  5
B4
330
8E
100
AcDbEntity
  8
別途部材
  6
Continuous
100
AcDbLine
 10
-60.136413
 20
-62.95793
 30
0.0
 11
-61.136413
 21
-62.95793
 31
0.0
  0
LINE
  5
B5
330
8E
100
AcDbEntity
  8
別途部材
  6
Continuous
100
AcDbLine
 10
-57.136413
 20
-62.95793
 30
0.0
 11
-56.136413
 21
-62.95793
 31
0.0
  0
LINE
  5
B6
330
8E
100
AcDbEntity
  8
別途部材
  6
Continuous
100
AcDbLine
 10
-66.13641300000001
 20
-79.62459699999999
 30
0.0
 11
-66.13641300000001
 21
-61.95793
 31
0.0
  0
LINE
  5
B7
330
8E
100
AcDbEntity
  8
別途部材
  6
Continuous
100
AcDbLine
 10
-67.13641300000001
 20
-79.62459699999999
 30
0.0
 11
-67.13641300000001
 21
-61.95793
 31
0.0
  0
LINE
  5
B8
330
8E
100
AcDbEntity
  8
別途部材
  6
Continuous
100
AcDbLine
 10
-65.13641300000001
 20
-62.95793
 30
0.0
 11
-66.13641300000001
 21
-61.95793
 31
0.0
  0
LINE
  5
B9
330
8E
100
AcDbEntity
  8
別途部材
  6
Continuous
100
AcDbLine
 10
-67.13641300000001
 20
-61.95793
 30
0.0
 11
-68.13641300000001
 21
-62.95793
 31
0.0
  0
LINE
  5
BA
330
8E
100
AcDbEntity
  8
別途部材
  6
Continuous
100
AcDbLine
 10
-66.13641300000001
 20
-61.95793
 30
0.0
 11
-67.13641300000001
 21
-61.95793
 31
0.0
  0
LINE
  5
BB
330
8E
100
AcDbEntity
  8
別途部材
  6
Continuous
100
AcDbLine
 10
-69.13641300000001
 20
-62.95793
 30
0.0
 11
-70.13641300000001
 21
-61.95793
 31
0.0
  0
LINE
  5
BC
330
8E
100
AcDbEntity
  8
別途部材
  6
Continuous
100
AcDbLine
 10
-71.13641300000001
 20
-61.95793
 30
0.0
 11
-72.13641300000001
 21
-62.95793
 31
0.0
  0
LINE
  5
BD
330
8E
100
AcDbEntity
  8
別途部材
  6
Continuous
100
AcDbLine
 10
-70.13641300000001
 20
-61.95793
 30
0.0
 11
-71.13641300000001
 21
-61.95793
 31
0.0
  0
LINE
  5
BE
330
8E
100
AcDbEntity
  8
別途部材
  6
Continuous
100
AcDbLine
 10
-65.13641300000001
 20
-79.62459699999999
 30
0.0
 11
-65.13641300000001
 21
-62.95793
 31
0.0
  0
LINE
  5
BF
330
8E
100
AcDbEntity
  8
別途部材
  6
Continuous
100
AcDbLine
 10
-68.13641300000001
 20
-79.62459699999999
 30
0.0
 11
-68.13641300000001
 21
-62.95793
 31
0.0
  0
LINE
  5
C0
330
8E
100
AcDbEntity
  8
別途部材
  6
Continuous
100
AcDbLine
 10
-69.13641300000001
 20
-79.62459699999999
 30
0.0
 11
-69.13641300000001
 21
-62.95793
 31
0.0
  0
LINE
  5
C1
330
8E
100
AcDbEntity
  8
別途部材
  6
Continuous
100
AcDbLine
 10
-70.13641300000001
 20
-79.62459699999999
 30
0.0
 11
-70.13641300000001
 21
-61.95793
 31
0.0
  0
LINE
  5
C2
330
8E
100
AcDbEntity
  8
別途部材
  6
Continuous
100
AcDbLine
 10
-71.13641300000001
 20
-79.62459699999999
 30
0.0
 11
-71.13641300000001
 21
-61.95793
 31
0.0
  0
LINE
  5
C3
330
8E
100
AcDbEntity
  8
別途部材
  6
Continuous
100
AcDbLine
 10
-72.13641300000001
 20
-79.62459699999999
 30
0.0
 11
-72.13641300000001
 21
-62.95793
 31
0.0
  0
LINE
  5
C4
330
8E
100
AcDbEntity
  8
別途部材
  6
Continuous
100
AcDbLine
 10
-68.13641300000001
 20
-62.95793
 30
0.0
 11
-69.13641300000001
 21
-62.95793
 31
0.0
  0
LINE
  5
C5
330
8E
100
AcDbEntity
  8
別途部材
  6
Continuous
100
AcDbLine
 10
-65.13641300000001
 20
-62.95793
 30
0.0
 11
-64.13641300000001
 21
-62.95793
 31
0.0
  0
ARC
  5
C6
330
8E
100
AcDbEntity
  8
別途部材
  6
Continuous
100
AcDbCircle
 10
-71.63641300000001
 20
-79.62459699999999
 30
0.0
 40
16.666667
100
AcDbArc
 50
91.719131
 51
180.0
  0
LINE
  5
C7
330
8E
100
AcDbEntity
  8
別途部材
  6
Continuous
 62
    96
100
AcDbLine
 10
-3.30308
 20
-79.62459699999999
 30
0.0
 11
-2.90308
 21
-80.62459699999999
 31
0.0
  0
LINE
  5
C8
330
8E
100
AcDbEntity
  8
別途部材
  6
Continuous
100
AcDbLine
 10
-2.90308
 20
-80.62459699999999
 30
0.0
 11
-46.636413
 21
-80.62459699999999
 31
0.0
  0
LINE
  5
C9
330
8E
100
AcDbEntity
  8
別途部材
  6
Continuous
 62
    96
100
AcDbLine
 10
-3.30308
 20
-79.62459699999999
 30
0.0
 11
-46.636413
 21
-79.62459699999999
 31
0.0
  0
LINE
  5
CA
330
8E
100
AcDbEntity
  8
別途部材
  6
Continuous
100
AcDbLine
 10
-46.136413
 20
-79.62459699999999
 30
0.0
 11
-46.136413
 21
-61.95793
 31
0.0
  0
LINE
  5
CB
330
8E
100
AcDbEntity
  8
別途部材
  6
Continuous
100
AcDbLine
 10
-43.136413
 20
-79.62459699999999
 30
0.0
 11
-43.136413
 21
-61.95793
 31
0.0
  0
LINE
  5
CC
330
8E
100
AcDbEntity
  8
別途部材
  6
Continuous
100
AcDbLine
 10
-46.136413
 20
-61.95793
 30
0.0
 11
-45.136413
 21
-62.95793
 31
0.0
  0
LINE
  5
CD
330
8E
100
AcDbEntity
  8
別途部材
  6
Continuous
100
AcDbLine
 10
-42.136413
 20
-79.62459699999999
 30
0.0
 11
-42.136413
 21
-61.95793
 31
0.0
  0
LINE
  5
CE
330
8E
100
AcDbEntity
  8
別途部材
  6
Continuous
100
AcDbLine
 10
-44.136413
 20
-62.95793
 30
0.0
 11
-43.136413
 21
-61.95793
 31
0.0
  0
LINE
  5
CF
330
8E
100
AcDbEntity
  8
別途部材
  6
Continuous
100
AcDbLine
 10
-42.136413
 20
-61.95793
 30
0.0
 11
-41.136413
 21
-62.95793
 31
0.0
  0
LINE
  5
D0
330
8E
100
AcDbEntity
  8
別途部材
  6
Continuous
100
AcDbLine
 10
-43.136413
 20
-61.95793
 30
0.0
 11
-42.136413
 21
-61.95793
 31
0.0
  0
LINE
  5
D1
330
8E
100
AcDbEntity
  8
別途部材
  6
Continuous
100
AcDbLine
 10
-40.136413
 20
-62.95793
 30
0.0
 11
-39.136413
 21
-61.95793
 31
0.0
  0
LINE
  5
D2
330
8E
100
AcDbEntity
  8
別途部材
  6
Continuous
100
AcDbLine
 10
-38.136413
 20
-61.95793
 30
0.0
 11
-37.136413
 21
-62.95793
 31
0.0
  0
LINE
  5
D3
330
8E
100
AcDbEntity
  8
別途部材
  6
Continuous
100
AcDbLine
 10
-39.136413
 20
-61.95793
 30
0.0
 11
-38.136413
 21
-61.95793
 31
0.0
  0
LINE
  5
D4
330
8E
100
AcDbEntity
  8
別途部材
  6
Continuous
100
AcDbLine
 10
-44.136413
 20
-79.62459699999999
 30
0.0
 11
-44.136413
 21
-62.95793
 31
0.0
  0
LINE
  5
D5
330
8E
100
AcDbEntity
  8
別途部材
  6
Continuous
100
AcDbLine
 10
-41.136413
 20
-79.62459699999999
 30
0.0
 11
-41.136413
 21
-62.95793
 31
0.0
  0
LINE
  5
D6
330
8E
100
AcDbEntity
  8
別途部材
  6
Continuous
100
AcDbLine
 10
-40.136413
 20
-79.62459699999999
 30
0.0
 11
-40.136413
 21
-62.95793
 31
0.0
  0
LINE
  5
D7
330
8E
100
AcDbEntity
  8
別途部材
  6
Continuous
100
AcDbLine
 10
-39.136413
 20
-79.62459699999999
 30
0.0
 11
-39.136413
 21
-61.95793
 31
0.0
  0
LINE
  5
D8
330
8E
100
AcDbEntity
  8
別途部材
  6
Continuous
100
AcDbLine
 10
-38.136413
 20
-79.62459699999999
 30
0.0
 11
-38.136413
 21
-61.95793
 31
0.0
  0
LINE
  5
D9
330
8E
100
AcDbEntity
  8
別途部材
  6
Continuous
100
AcDbLine
 10
-37.136413
 20
-79.62459699999999
 30
0.0
 11
-37.136413
 21
-62.95793
 31
0.0
  0
LINE
  5
DA
330
8E
100
AcDbEntity
  8
別途部材
  6
Continuous
100
AcDbLine
 10
-41.136413
 20
-62.95793
 30
0.0
 11
-40.136413
 21
-62.95793
 31
0.0
  0
LINE
  5
DB
330
8E
100
AcDbEntity
  8
別途部材
  6
Continuous
100
AcDbLine
 10
-45.136413
 20
-79.62459699999999
 30
0.0
 11
-45.136413
 21
-62.95793
 31
0.0
  0
LINE
  5
DC
330
8E
100
AcDbEntity
  8
別途部材
  6
Continuous
100
AcDbLine
 10
-44.136413
 20
-62.95793
 30
0.0
 11
-45.136413
 21
-62.95793
 31
0.0
  0
LINE
  5
DD
330
8E
100
AcDbEntity
  8
別途部材
  6
Continuous
100
AcDbLine
 10
-46.136413
 20
-61.95793
 30
0.0
 11
-47.136413
 21
-61.95793
 31
0.0
  0
LINE
  5
DE
330
8E
100
AcDbEntity
  8
別途部材
  6
Continuous
100
AcDbLine
 10
-35.136413
 20
-79.62459699999999
 30
0.0
 11
-35.136413
 21
-61.95793
 31
0.0
  0
LINE
  5
DF
330
8E
100
AcDbEntity
  8
別途部材
  6
Continuous
100
AcDbLine
 10
-34.136413
 20
-79.62459699999999
 30
0.0
 11
-34.136413
 21
-61.95793
 31
0.0
  0
LINE
  5
E0
330
8E
100
AcDbEntity
  8
別途部材
  6
Continuous
100
AcDbLine
 10
-36.136413
 20
-62.95793
 30
0.0
 11
-35.136413
 21
-61.95793
 31
0.0
  0
LINE
  5
E1
330
8E
100
AcDbEntity
  8
別途部材
  6
Continuous
100
AcDbLine
 10
-34.136413
 20
-61.95793
 30
0.0
 11
-33.136413
 21
-62.95793
 31
0.0
  0
LINE
  5
E2
330
8E
100
AcDbEntity
  8
別途部材
  6
Continuous
100
AcDbLine
 10
-35.136413
 20
-61.95793
 30
0.0
 11
-34.136413
 21
-61.95793
 31
0.0
  0
LINE
  5
E3
330
8E
100
AcDbEntity
  8
別途部材
  6
Continuous
100
AcDbLine
 10
-32.136413
 20
-62.95793
 30
0.0
 11
-31.136413
 21
-61.95793
 31
0.0
  0
LINE
  5
E4
330
8E
100
AcDbEntity
  8
別途部材
  6
Continuous
100
AcDbLine
 10
-30.136413
 20
-61.95793
 30
0.0
 11
-29.136413
 21
-62.95793
 31
0.0
  0
LINE
  5
E5
330
8E
100
AcDbEntity
  8
別途部材
  6
Continuous
100
AcDbLine
 10
-31.136413
 20
-61.95793
 30
0.0
 11
-30.136413
 21
-61.95793
 31
0.0
  0
LINE
  5
E6
330
8E
100
AcDbEntity
  8
別途部材
  6
Continuous
100
AcDbLine
 10
-36.136413
 20
-79.62459699999999
 30
0.0
 11
-36.136413
 21
-62.95793
 31
0.0
  0
LINE
  5
E7
330
8E
100
AcDbEntity
  8
別途部材
  6
Continuous
100
AcDbLine
 10
-33.136413
 20
-79.62459699999999
 30
0.0
 11
-33.136413
 21
-62.95793
 31
0.0
  0
LINE
  5
E8
330
8E
100
AcDbEntity
  8
別途部材
  6
Continuous
100
AcDbLine
 10
-32.136413
 20
-79.62459699999999
 30
0.0
 11
-32.136413
 21
-62.95793
 31
0.0
  0
LINE
  5
E9
330
8E
100
AcDbEntity
  8
別途部材
  6
Continuous
100
AcDbLine
 10
-31.136413
 20
-79.62459699999999
 30
0.0
 11
-31.136413
 21
-61.95793
 31
0.0
  0
LINE
  5
EA
330
8E
100
AcDbEntity
  8
別途部材
  6
Continuous
100
AcDbLine
 10
-30.136413
 20
-79.62459699999999
 30
0.0
 11
-30.136413
 21
-61.95793
 31
0.0
  0
LINE
  5
EB
330
8E
100
AcDbEntity
  8
別途部材
  6
Continuous
100
AcDbLine
 10
-29.136413
 20
-79.62459699999999
 30
0.0
 11
-29.136413
 21
-62.95793
 31
0.0
  0
LINE
  5
EC
330
8E
100
AcDbEntity
  8
別途部材
  6
Continuous
100
AcDbLine
 10
-33.136413
 20
-62.95793
 30
0.0
 11
-32.136413
 21
-62.95793
 31
0.0
  0
LINE
  5
ED
330
8E
100
AcDbEntity
  8
別途部材
  6
Continuous
100
AcDbLine
 10
-36.136413
 20
-62.95793
 30
0.0
 11
-37.136413
 21
-62.95793
 31
0.0
  0
LINE
  5
EE
330
8E
100
AcDbEntity
  8
別途部材
  6
Continuous
100
AcDbLine
 10
-27.136413
 20
-79.62459699999999
 30
0.0
 11
-27.136413
 21
-61.95793
 31
0.0
  0
LINE
  5
EF
330
8E
100
AcDbEntity
  8
別途部材
  6
Continuous
100
AcDbLine
 10
-26.136413
 20
-79.62459699999999
 30
0.0
 11
-26.136413
 21
-61.95793
 31
0.0
  0
LINE
  5
F0
330
8E
100
AcDbEntity
  8
別途部材
  6
Continuous
100
AcDbLine
 10
-28.136413
 20
-62.95793
 30
0.0
 11
-27.136413
 21
-61.95793
 31
0.0
  0
LINE
  5
F1
330
8E
100
AcDbEntity
  8
別途部材
  6
Continuous
100
AcDbLine
 10
-26.136413
 20
-61.95793
 30
0.0
 11
-25.136413
 21
-62.95793
 31
0.0
  0
LINE
  5
F2
330
8E
100
AcDbEntity
  8
別途部材
  6
Continuous
100
AcDbLine
 10
-27.136413
 20
-61.95793
 30
0.0
 11
-26.136413
 21
-61.95793
 31
0.0
  0
LINE
  5
F3
330
8E
100
AcDbEntity
  8
別途部材
  6
Continuous
100
AcDbLine
 10
-24.136413
 20
-62.95793
 30
0.0
 11
-23.136413
 21
-61.95793
 31
0.0
  0
LINE
  5
F4
330
8E
100
AcDbEntity
  8
別途部材
  6
Continuous
100
AcDbLine
 10
-22.136413
 20
-61.95793
 30
0.0
 11
-21.136413
 21
-62.95793
 31
0.0
  0
LINE
  5
F5
330
8E
100
AcDbEntity
  8
別途部材
  6
Continuous
100
AcDbLine
 10
-23.136413
 20
-61.95793
 30
0.0
 11
-22.136413
 21
-61.95793
 31
0.0
  0
LINE
  5
F6
330
8E
100
AcDbEntity
  8
別途部材
  6
Continuous
100
AcDbLine
 10
-28.136413
 20
-79.62459699999999
 30
0.0
 11
-28.136413
 21
-62.95793
 31
0.0
  0
LINE
  5
F7
330
8E
100
AcDbEntity
  8
別途部材
  6
Continuous
100
AcDbLine
 10
-25.136413
 20
-79.62459699999999
 30
0.0
 11
-25.136413
 21
-62.95793
 31
0.0
  0
LINE
  5
F8
330
8E
100
AcDbEntity
  8
別途部材
  6
Continuous
100
AcDbLine
 10
-24.136413
 20
-79.62459699999999
 30
0.0
 11
-24.136413
 21
-62.95793
 31
0.0
  0
LINE
  5
F9
330
8E
100
AcDbEntity
  8
別途部材
  6
Continuous
100
AcDbLine
 10
-23.136413
 20
-79.62459699999999
 30
0.0
 11
-23.136413
 21
-61.95793
 31
0.0
  0
LINE
  5
FA
330
8E
100
AcDbEntity
  8
別途部材
  6
Continuous
100
AcDbLine
 10
-22.136413
 20
-79.62459699999999
 30
0.0
 11
-22.136413
 21
-61.95793
 31
0.0
  0
LINE
  5
FB
330
8E
100
AcDbEntity
  8
別途部材
  6
Continuous
100
AcDbLine
 10
-21.136413
 20
-79.62459699999999
 30
0.0
 11
-21.136413
 21
-62.95793
 31
0.0
  0
LINE
  5
FC
330
8E
100
AcDbEntity
  8
別途部材
  6
Continuous
100
AcDbLine
 10
-25.136413
 20
-62.95793
 30
0.0
 11
-24.136413
 21
-62.95793
 31
0.0
  0
LINE
  5
FD
330
8E
100
AcDbEntity
  8
別途部材
  6
Continuous
100
AcDbLine
 10
-28.136413
 20
-62.95793
 30
0.0
 11
-29.136413
 21
-62.95793
 31
0.0
  0
ARC
  5
FE
330
8E
100
AcDbEntity
  8
別途部材
  6
Continuous
100
AcDbCircle
 10
-21.636413
 20
-79.62459699999999
 30
0.0
 40
16.666667
100
AcDbArc
 50
0.0
 51
88.280869
  0
ENDBLK
  5
FF
330
8E
100
AcDbEntity
  8
0
100
AcDbBlockEnd
  0
BLOCK
  5
100
330
101
100
AcDbEntity
  8
0
100
AcDbBlockBegin
  2
*U7
 70
     1
 71
     0
 10
0.0
 20
0.0
 30
0.0
  3
*U7
  1

  0
LINE
  5
102
330
101
100
AcDbEntity
  8
寸法
  6
ByBlock
 62
     0
100
AcDbLine
 10
84.563517
 20
69.42328999999999
 30
0.0
 11
84.563517
 21
86.58839999999999
 31
0.0
  0
LINE
  5
103
330
101
100
AcDbEntity
  8
寸法
  6
ByBlock
 62
     0
100
AcDbLine
 10
88.39709000000001
 20
71.089957
 30
0.0
 11
88.39709000000001
 21
86.58839999999999
 31
0.0
  0
LINE
  5
104
330
101
100
AcDbEntity
  8
寸法
  6
ByBlock
 62
     0
100
AcDbLine
 10
84.563517
 20
86.58839999999999
 30
0.0
 11
88.39709000000001
 21
86.58839999999999
 31
0.0
  0
POINT
  5
105
330
101
100
AcDbEntity
  8
寸法
 62
     0
100
AcDbPoint
 10
84.563517
 20
86.58839999999999
 30
0.0
  0
POINT
  5
106
330
101
100
AcDbEntity
  8
寸法
 62
     0
100
AcDbPoint
 10
88.39709000000001
 20
86.58839999999999
 30
0.0
  0
TEXT
  5
107
330
101
100
AcDbEntity
  8
寸法
  6
Continuous
 62
     0
100
AcDbText
 10
89.08750000000001
 20
86.95
 30
0.0
 40
3.0
  1
115
  7
TextStyle03
 72
     5
 11
93.96250000000001
 21
86.95
 31
0.0
100
AcDbText
  0
ENDBLK
  5
108
330
101
100
AcDbEntity
  8
0
100
AcDbBlockEnd
  0
BLOCK
  5
109
330
10A
100
AcDbEntity
  8
0
100
AcDbBlockBegin
  2
*U8
 70
     1
 71
     0
 10
0.0
 20
0.0
 30
0.0
  3
*U8
  1

  0
LINE
  5
10B
330
10A
100
AcDbEntity
  8
寸法
  6
ByBlock
 62
     0
100
AcDbLine
 10
-0.30308
 20
-79.62459699999999
 30
0.0
 11
10.999902
 21
-79.62459699999999
 31
0.0
  0
LINE
  5
10C
330
10A
100
AcDbEntity
  8
寸法
  6
ByBlock
 62
     0
100
AcDbLine
 10
1.363587
 20
-83.45817
 30
0.0
 11
10.999902
 21
-83.45817
 31
0.0
  0
LINE
  5
10D
330
10A
100
AcDbEntity
  8
寸法
  6
ByBlock
 62
     0
100
AcDbLine
 10
10.999902
 20
-79.62459699999999
 30
0.0
 11
10.999902
 21
-83.45817
 31
0.0
  0
POINT
  5
10E
330
10A
100
AcDbEntity
  8
寸法
 62
     0
100
AcDbPoint
 10
10.999902
 20
-79.62459699999999
 30
0.0
  0
POINT
  5
10F
330
10A
100
AcDbEntity
  8
寸法
 62
     0
100
AcDbPoint
 10
10.999902
 20
-83.45817
 30
0.0
  0
TEXT
  5
110
330
10A
100
AcDbEntity
  8
寸法
  6
Continuous
 62
     0
100
AcDbText
 10
10.6
 20
-89.03749999999999
 30
0.0
 40
3.0
  1
115
 50
90.0
  7
TextStyle03
 72
     5
 11
10.6
 21
-84.16249999999999
 31
0.0
100
AcDbText
  0
ENDBLK
  5
111
330
10A
100
AcDbEntity
  8
0
100
AcDbBlockEnd
  0
BLOCK
  5
112
330
113
100
AcDbEntity
  8
0
100
AcDbBlockBegin
  2
*U9
 70
     1
 71
     0
 10
0.0
 20
0.0
 30
0.0
  3
*U9
  1

  0
LINE
  5
114
330
113
100
AcDbEntity
  8
寸法
  6
ByBlock
 62
     0
100
AcDbLine
 10
-91.30307999999999
 20
8.08996
 30
0.0
 11
-120.792158
 21
8.08996
 31
0.0
  0
LINE
  5
115
330
113
100
AcDbEntity
  8
寸法
  6
ByBlock
 62
     0
100
AcDbLine
 10
-91.30307999999999
 20
31.423293
 30
0.0
 11
-120.792158
 21
31.423293
 31
0.0
  0
LINE
  5
116
330
113
100
AcDbEntity
  8
寸法
  6
ByBlock
 62
     0
100
AcDbLine
 10
-120.792158
 20
8.08996
 30
0.0
 11
-120.792158
 21
31.423293
 31
0.0
  0
POINT
  5
117
330
113
100
AcDbEntity
  8
寸法
 62
     0
100
AcDbPoint
 10
-120.792158
 20
8.08996
 30
0.0
  0
POINT
  5
118
330
113
100
AcDbEntity
  8
寸法
 62
     0
100
AcDbPoint
 10
-120.792158
 20
31.423293
 30
0.0
  0
TEXT
  5
119
330
113
100
AcDbEntity
  8
寸法
  6
Continuous
 62
     0
100
AcDbText
 10
-121.175
 20
17.3125
 30
0.0
 40
3.0
  1
700
 50
90.0
  7
TextStyle03
 72
     5
 11
-121.175
 21
22.1875
 31
0.0
100
AcDbText
  0
ENDBLK
  5
11A
330
113
100
AcDbEntity
  8
0
100
AcDbBlockEnd
  0
BLOCK
  5
11B
330
11C
100
AcDbEntity
  8
0
100
AcDbBlockBegin
  2
*U10
 70
     1
 71
     0
 10
0.0
 20
0.0
 30
0.0
  3
*U10
  1

  0
LINE
  5
11D
330
11C
100
AcDbEntity
  8
寸法
  6
ByBlock
 62
     0
100
AcDbLine
 10
-91.30307999999999
 20
54.756625
 30
0.0
 11
-120.792158
 21
54.756625
 31
0.0
  0
LINE
  5
11E
330
11C
100
AcDbEntity
  8
寸法
  6
ByBlock
 62
     0
100
AcDbLine
 10
-120.792158
 20
31.423293
 30
0.0
 11
-120.792158
 21
54.756625
 31
0.0
  0
POINT
  5
11F
330
11C
100
AcDbEntity
  8
寸法
 62
     0
100
AcDbPoint
 10
-120.792158
 20
54.756625
 30
0.0
  0
TEXT
  5
120
330
11C
100
AcDbEntity
  8
寸法
  6
Continuous
 62
     0
100
AcDbText
 10
-121.175
 20
40.6375
 30
0.0
 40
3.0
  1
700
 50
90.0
  7
TextStyle03
 72
     5
 11
-121.175
 21
45.5125
 31
0.0
100
AcDbText
  0
ENDBLK
  5
121
330
11C
100
AcDbEntity
  8
0
100
AcDbBlockEnd
  0
BLOCK
  5
122
330
123
100
AcDbEntity
  8
0
100
AcDbBlockBegin
  2
*U11
 70
     1
 71
     0
 10
0.0
 20
0.0
 30
0.0
  3
*U11
  1

  0
LINE
  5
124
330
123
100
AcDbEntity
  8
寸法
  6
ByBlock
 62
     0
100
AcDbLine
 10
-81.636415
 20
67.756625
 30
0.0
 11
-81.636415
 21
97.504245
 31
0.0
  0
LINE
  5
125
330
123
100
AcDbEntity
  8
寸法
  6
ByBlock
 62
     0
100
AcDbLine
 10
-58.303082
 20
67.756625
 30
0.0
 11
-58.303082
 21
97.504245
 31
0.0
  0
LINE
  5
126
330
123
100
AcDbEntity
  8
寸法
  6
ByBlock
 62
     0
100
AcDbLine
 10
-81.636415
 20
97.504245
 30
0.0
 11
-58.303082
 21
97.504245
 31
0.0
  0
POINT
  5
127
330
123
100
AcDbEntity
  8
寸法
 62
     0
100
AcDbPoint
 10
-81.636415
 20
97.504245
 30
0.0
  0
POINT
  5
128
330
123
100
AcDbEntity
  8
寸法
 62
     0
100
AcDbPoint
 10
-58.303082
 20
97.504245
 30
0.0
  0
TEXT
  5
129
330
123
100
AcDbEntity
  8
寸法
  6
Continuous
 62
     0
100
AcDbText
 10
-72.41249999999999
 20
97.875
 30
0.0
 40
3.0
  1
700
  7
TextStyle03
 72
     5
 11
-67.53749999999999
 21
97.875
 31
0.0
100
AcDbText
  0
ENDBLK
  5
12A
330
123
100
AcDbEntity
  8
0
100
AcDbBlockEnd
  0
BLOCK
  5
12B
330
12C
100
AcDbEntity
  8
0
100
AcDbBlockBegin
  2
*U12
 70
     1
 71
     0
 10
0.0
 20
0.0
 30
0.0
  3
*U12
  1

  0
LINE
  5
12D
330
12C
100
AcDbEntity
  8
寸法
  6
ByBlock
 62
     0
100
AcDbLine
 10
-34.969747
 20
67.756625
 30
0.0
 11
-34.969747
 21
97.504245
 31
0.0
  0
LINE
  5
12E
330
12C
100
AcDbEntity
  8
寸法
  6
ByBlock
 62
     0
100
AcDbLine
 10
-58.303082
 20
97.504245
 30
0.0
 11
-34.969747
 21
97.504245
 31
0.0
  0
POINT
  5
12F
330
12C
100
AcDbEntity
  8
寸法
 62
     0
100
AcDbPoint
 10
-34.969747
 20
97.504245
 30
0.0
  0
TEXT
  5
130
330
12C
100
AcDbEntity
  8
寸法
  6
Continuous
 62
     0
100
AcDbText
 10
-49.0875
 20
97.875
 30
0.0
 40
3.0
  1
700
  7
TextStyle03
 72
     5
 11
-44.2125
 21
97.875
 31
0.0
100
AcDbText
  0
ENDBLK
  5
131
330
12C
100
AcDbEntity
  8
0
100
AcDbBlockEnd
  0
BLOCK
  5
132
330
133
100
AcDbEntity
  8
0
100
AcDbBlockBegin
  2
*U13
 70
     1
 71
     0
 10
0.0
 20
0.0
 30
0.0
  3
*U13
  1

  0
LINE
  5
134
330
133
100
AcDbEntity
  8
寸法
  6
ByBlock
 62
     0
100
AcDbLine
 10
-11.636415
 20
67.756625
 30
0.0
 11
-11.636415
 21
97.504245
 31
0.0
  0
LINE
  5
135
330
133
100
AcDbEntity
  8
寸法
  6
ByBlock
 62
     0
100
AcDbLine
 10
-34.969747
 20
97.504245
 30
0.0
 11
-11.636415
 21
97.504245
 31
0.0
  0
POINT
  5
136
330
133
100
AcDbEntity
  8
寸法
 62
     0
100
AcDbPoint
 10
-11.636415
 20
97.504245
 30
0.0
  0
TEXT
  5
137
330
133
100
AcDbEntity
  8
寸法
  6
Continuous
 62
     0
100
AcDbText
 10
-25.7375
 20
97.875
 30
0.0
 40
3.0
  1
700
  7
TextStyle03
 72
     5
 11
-20.8625
 21
97.875
 31
0.0
100
AcDbText
  0
ENDBLK
  5
138
330
133
100
AcDbEntity
  8
0
100
AcDbBlockEnd
  0
BLOCK
  5
139
330
13A
100
AcDbEntity
  8
0
100
AcDbBlockBegin
  2
*U14
 70
     1
 71
     0
 10
0.0
 20
0.0
 30
0.0
  3
*U14
  1

  0
LINE
  5
13B
330
13A
100
AcDbEntity
  8
寸法
  6
ByBlock
 62
     0
100
AcDbLine
 10
-1.80308
 20
-79.95817
 30
0.0
 11
-1.80308
 21
-29.63158
 31
0.0
  0
LINE
  5
13C
330
13A
100
AcDbEntity
  8
寸法
  6
ByBlock
 62
     0
100
AcDbLine
 10
-4.969747
 20
-29.63158
 30
0.0
 11
-1.80308
 21
-29.63158
 31
0.0
  0
POINT
  5
13D
330
13A
100
AcDbEntity
  8
寸法
 62
     0
100
AcDbPoint
 10
-4.969747
 20
-29.63158
 30
0.0
  0
POINT
  5
13E
330
13A
100
AcDbEntity
  8
寸法
 62
     0
100
AcDbPoint
 10
-1.80308
 20
-29.63158
 30
0.0
  0
TEXT
  5
13F
330
13A
100
AcDbEntity
  8
寸法
  6
Continuous
 62
     0
100
AcDbText
 10
-4.99375
 20
-29.275
 30
0.0
 40
3.0
  1
95
  7
TextStyle03
 72
     5
 11
-1.80625
 21
-29.275
 31
0.0
100
AcDbText
  0
ENDBLK
  5
140
330
13A
100
AcDbEntity
  8
0
100
AcDbBlockEnd
  0
BLOCK
  5
141
330
142
100
AcDbEntity
  8
0
100
AcDbBlockBegin
  2
*U15
 70
     1
 71
     0
 10
0.0
 20
0.0
 30
0.0
  3
*U15
  1

  0
LINE
  5
143
330
142
100
AcDbEntity
  8
寸法
  6
ByBlock
 62
     0
100
AcDbLine
 10
-91.46975000000001
 20
-79.95817
 30
0.0
 11
-91.46975000000001
 21
-29.63158
 31
0.0
  0
LINE
  5
144
330
142
100
AcDbEntity
  8
寸法
  6
ByBlock
 62
     0
100
AcDbLine
 10
-88.30307999999999
 20
-29.63158
 30
0.0
 11
-91.46975000000001
 21
-29.63158
 31
0.0
  0
POINT
  5
145
330
142
100
AcDbEntity
  8
寸法
 62
     0
100
AcDbPoint
 10
-88.30307999999999
 20
-29.63158
 30
0.0
  0
POINT
  5
146
330
142
100
AcDbEntity
  8
寸法
 62
     0
100
AcDbPoint
 10
-91.46975000000001
 20
-29.63158
 30
0.0
  0
TEXT
  5
147
330
142
100
AcDbEntity
  8
寸法
  6
Continuous
 62
     0
100
AcDbText
 10
-91.49375000000001
 20
-29.275
 30
0.0
 40
3.0
  1
95
  7
TextStyle03
 72
     5
 11
-88.30625000000001
 21
-29.275
 31
0.0
100
AcDbText
  0
ENDBLK
  5
148
330
142
100
AcDbEntity
  8
0
100
AcDbBlockEnd
  0
BLOCK
  5
149
330
14A
100
AcDbEntity
  8
0
100
AcDbBlockBegin
  2
*U16
 70
     1
 71
     0
 10
0.0
 20
0.0
 30
0.0
  3
*U16
  1

  0
LINE
  5
14B
330
14A
100
AcDbEntity
  8
寸法
  6
ByBlock
 62
     0
100
AcDbLine
 10
84.89709000000001
 20
-5.076705
 30
0.0
 11
31.662717
 21
-5.076705
 31
0.0
  0
LINE
  5
14C
330
14A
100
AcDbEntity
  8
寸法
  6
ByBlock
 62
     0
100
AcDbLine
 10
31.662717
 20
-1.910042
 30
0.0
 11
31.662717
 21
-5.076705
 31
0.0
  0
POINT
  5
14D
330
14A
100
AcDbEntity
  8
寸法
 62
     0
100
AcDbPoint
 10
31.662717
 20
-1.910042
 30
0.0
  0
POINT
  5
14E
330
14A
100
AcDbEntity
  8
寸法
 62
     0
100
AcDbPoint
 10
31.662717
 20
-5.076705
 30
0.0
  0
TEXT
  5
14F
330
14A
100
AcDbEntity
  8
寸法
  6
Continuous
 62
     0
100
AcDbText
 10
31.275
 20
-5.09375
 30
0.0
 40
3.0
  1
95
 50
90.0
  7
TextStyle03
 72
     5
 11
31.275
 21
-1.90625
 31
0.0
100
AcDbText
  0
ENDBLK
  5
150
330
14A
100
AcDbEntity
  8
0
100
AcDbBlockEnd
  0
BLOCK
  5
151
330
152
100
AcDbEntity
  8
0
100
AcDbBlockBegin
  2
*U17
 70
     1
 71
     0
 10
0.0
 20
0.0
 30
0.0
  3
*U17
  1

  0
LINE
  5
153
330
152
100
AcDbEntity
  8
寸法
  6
ByBlock
 62
     0
100
AcDbLine
 10
84.89709000000001
 20
67.92328999999999
 30
0.0
 11
31.662717
 21
67.92328999999999
 31
0.0
  0
LINE
  5
154
330
152
100
AcDbEntity
  8
寸法
  6
ByBlock
 62
     0
100
AcDbLine
 10
31.662717
 20
64.756625
 30
0.0
 11
31.662717
 21
67.92328999999999
 31
0.0
  0
POINT
  5
155
330
152
100
AcDbEntity
  8
寸法
 62
     0
100
AcDbPoint
 10
31.662717
 20
64.756625
 30
0.0
  0
POINT
  5
156
330
152
100
AcDbEntity
  8
寸法
 62
     0
100
AcDbPoint
 10
31.662717
 20
67.92328999999999
 30
0.0
  0
TEXT
  5
157
330
152
100
AcDbEntity
  8
寸法
  6
Continuous
 62
     0
100
AcDbText
 10
31.275
 20
64.73125
 30
0.0
 40
3.0
  1
95
 50
90.0
  7
TextStyle03
 72
     5
 11
31.275
 21
67.91875
 31
0.0
100
AcDbText
  0
ENDBLK
  5
158
330
152
100
AcDbEntity
  8
0
100
AcDbBlockEnd
  0
BLOCK
  5
159
330
15A
100
AcDbEntity
  8
0
100
AcDbBlockBegin
  2
*U18
 70
     1
 71
     0
 10
0.0
 20
0.0
 30
0.0
  3
*U18
  1

  0
LINE
  5
15B
330
15A
100
AcDbEntity
  8
寸法
  6
ByBlock
 62
     0
100
AcDbLine
 10
158.537835
 20
-49.367047
 30
0.0
 11
165.404422
 21
-49.367047
 31
0.0
  0
LINE
  5
15C
330
15A
100
AcDbEntity
  8
寸法
  6
ByBlock
 62
     0
100
AcDbLine
 10
158.537835
 20
-82.00038000000001
 30
0.0
 11
165.404422
 21
-82.00038000000001
 31
0.0
  0
LINE
  5
15D
330
15A
100
AcDbEntity
  8
寸法
  6
ByBlock
 62
     0
100
AcDbLine
 10
165.404422
 20
-49.367047
 30
0.0
 11
165.404422
 21
-82.00038000000001
 31
0.0
  0
POINT
  5
15E
330
15A
100
AcDbEntity
  8
寸法
 62
     0
100
AcDbPoint
 10
165.404422
 20
-49.367047
 30
0.0
  0
POINT
  5
15F
330
15A
100
AcDbEntity
  8
寸法
 62
     0
100
AcDbPoint
 10
165.404422
 20
-82.00038000000001
 30
0.0
  0
TEXT
  5
160
330
15A
100
AcDbEntity
  8
寸法
  6
Continuous
 62
     0
100
AcDbText
 10
165.025
 20
-68.95
 30
0.0
 40
4.0
  1
979
 50
90.0
  7
TextStyle03
 72
     5
 11
165.025
 21
-62.45
 31
0.0
100
AcDbText
  0
ENDBLK
  5
161
330
15A
100
AcDbEntity
  8
0
100
AcDbBlockEnd
  0
BLOCK
  5
162
330
163
100
AcDbEntity
  8
0
100
AcDbBlockBegin
  2
*U19
 70
     1
 71
     0
 10
0.0
 20
0.0
 30
0.0
  3
*U19
  1

  0
LINE
  5
164
330
163
100
AcDbEntity
  8
寸法
  6
ByBlock
 62
     0
100
AcDbLine
 10
114.57117
 20
-46.367047
 30
0.0
 11
114.57117
 21
-41.368167
 31
0.0
  0
LINE
  5
165
330
163
100
AcDbEntity
  8
寸法
  6
ByBlock
 62
     0
100
AcDbLine
 10
155.537835
 20
-46.367047
 30
0.0
 11
155.537835
 21
-41.368167
 31
0.0
  0
LINE
  5
166
330
163
100
AcDbEntity
  8
寸法
  6
ByBlock
 62
     0
100
AcDbLine
 10
114.57117
 20
-41.368167
 30
0.0
 11
155.537835
 21
-41.368167
 31
0.0
  0
POINT
  5
167
330
163
100
AcDbEntity
  8
寸法
 62
     0
100
AcDbPoint
 10
114.57117
 20
-41.368167
 30
0.0
  0
POINT
  5
168
330
163
100
AcDbEntity
  8
寸法
 62
     0
100
AcDbPoint
 10
155.537835
 20
-41.368167
 30
0.0
  0
TEXT
  5
169
330
163
100
AcDbEntity
  8
寸法
  6
Continuous
 62
     0
100
AcDbText
 10
130.675
 20
-41.0
 30
0.0
 40
4.0
  1
1229
  7
TextStyle03
 72
     5
 11
139.425
 21
-41.0
 31
0.0
100
AcDbText
  0
ENDBLK
  5
16A
330
163
100
AcDbEntity
  8
0
100
AcDbBlockEnd
  0
BLOCK
  5
16B
330
16C
100
AcDbEntity
  8
0
100
AcDbBlockBegin
  2
*U20
 70
     1
 71
     0
 10
0.0
 20
0.0
 30
0.0
  3
*U20
  1

  0
LINE
  5
16D
330
16C
100
AcDbEntity
  8
ボルト／ビス
  6
Continuous
100
AcDbLine
 10
-88.96975000000001
 20
-79.62459699999999
 30
0.0
 11
-88.96975000000001
 21
-79.15792999999999
 31
0.0
  0
LINE
  5
16E
330
16C
100
AcDbEntity
  8
ボルト／ビス
  6
Continuous
100
AcDbLine
 10
-89.336415
 20
-79.62459699999999
 30
0.0
 11
-89.336415
 21
-79.55793
 31
0.0
  0
LINE
  5
16F
330
16C
100
AcDbEntity
  8
ボルト／ビス
  6
Continuous
100
AcDbLine
 10
-89.336415
 20
-79.55793
 30
0.0
 11
-88.603082
 21
-79.55793
 31
0.0
  0
LINE
  5
170
330
16C
100
AcDbEntity
  8
ボルト／ビス
  6
Continuous
100
AcDbLine
 10
-88.603082
 20
-79.55793
 30
0.0
 11
-88.603082
 21
-79.62459699999999
 31
0.0
  0
LINE
  5
171
330
16C
100
AcDbEntity
  8
ボルト／ビス
  6
Continuous
100
AcDbLine
 10
-89.336415
 20
-79.62459699999999
 30
0.0
 11
-88.603082
 21
-79.62459699999999
 31
0.0
  0
LINE
  5
172
330
16C
100
AcDbEntity
  8
ボルト／ビス
  6
Continuous
100
AcDbLine
 10
-89.26975
 20
-79.524597
 30
0.0
 11
-89.26975
 21
-79.55793
 31
0.0
  0
LINE
  5
173
330
16C
100
AcDbEntity
  8
ボルト／ビス
  6
Continuous
100
AcDbLine
 10
-89.26975
 20
-79.524597
 30
0.0
 11
-88.66974999999999
 21
-79.524597
 31
0.0
  0
LINE
  5
174
330
16C
100
AcDbEntity
  8
ボルト／ビス
  6
Continuous
100
AcDbLine
 10
-88.66974999999999
 20
-79.524597
 30
0.0
 11
-88.66974999999999
 21
-79.55793
 31
0.0
  0
LINE
  5
175
330
16C
100
AcDbEntity
  8
ボルト／ビス
  6
Continuous
 62
    64
100
AcDbLine
 10
-89.13012500000001
 20
-79.324597
 30
0.0
 11
-89.1622
 21
-79.33627199999999
 31
0.0
  0
ARC
  5
176
330
16C
100
AcDbEntity
  8
ボルト／ビス
  6
Continuous
 62
    64
100
AcDbCircle
 10
-89.114085
 20
-79.429576
 30
0.0
 40
0.104978
100
AcDbArc
 50
62.721967
 51
90.0
  0
ARC
  5
177
330
16C
100
AcDbEntity
  8
ボルト／ビス
  6
Continuous
 62
    64
100
AcDbCircle
 10
-88.969748
 20
-79.72699900000001
 30
0.0
 40
0.402402
100
AcDbArc
 50
76.165002
 51
103.834985
  0
LINE
  5
178
330
16C
100
AcDbEntity
  8
ボルト／ビス
  6
Continuous
 62
    64
100
AcDbLine
 10
-88.809375
 20
-79.324597
 30
0.0
 11
-88.7773
 21
-79.33627199999999
 31
0.0
  0
ARC
  5
179
330
16C
100
AcDbEntity
  8
ボルト／ビス
  6
Continuous
 62
    64
100
AcDbCircle
 10
-88.82541000000001
 20
-79.429576
 30
0.0
 40
0.104978
100
AcDbArc
 50
90.0
 51
117.278033
  0
LINE
  5
17A
330
16C
100
AcDbEntity
  8
ボルト／ビス
  6
Continuous
 62
    64
100
AcDbLine
 10
-89.13012500000001
 20
-79.324597
 30
0.0
 11
-88.809375
 21
-79.324597
 31
0.0
  0
LINE
  5
17B
330
16C
100
AcDbEntity
  8
ボルト／ビス
  6
Continuous
 62
    64
100
AcDbLine
 10
-88.7773
 20
-79.33627199999999
 30
0.0
 11
-88.7773
 21
-79.45793000000001
 31
0.0
  0
LINE
  5
17C
330
16C
100
AcDbEntity
  8
ボルト／ビス
  6
Continuous
 62
    64
100
AcDbLine
 10
-88.873525
 20
-79.33627199999999
 30
0.0
 11
-88.873525
 21
-79.45793000000001
 31
0.0
  0
LINE
  5
17D
330
16C
100
AcDbEntity
  8
ボルト／ビス
  6
Continuous
 62
    64
100
AcDbLine
 10
-89.1622
 20
-79.33627199999999
 30
0.0
 11
-89.1622
 21
-79.45793000000001
 31
0.0
  0
LINE
  5
17E
330
16C
100
AcDbEntity
  8
ボルト／ビス
  6
Continuous
 62
    64
100
AcDbLine
 10
-89.065975
 20
-79.33627199999999
 30
0.0
 11
-89.065975
 21
-79.45793000000001
 31
0.0
  0
LINE
  5
17F
330
16C
100
AcDbEntity
  8
ボルト／ビス
  6
Continuous
100
AcDbLine
 10
-89.1622
 20
-79.45793000000001
 30
0.0
 11
-88.7773
 21
-79.45793000000001
 31
0.0
  0
LINE
  5
180
330
16C
100
AcDbEntity
  8
ボルト／ビス
  6
Continuous
100
AcDbLine
 10
-89.16974999999999
 20
-79.45793000000001
 30
0.0
 11
-89.16974999999999
 21
-79.524597
 31
0.0
  0
LINE
  5
181
330
16C
100
AcDbEntity
  8
ボルト／ビス
  6
Continuous
100
AcDbLine
 10
-89.16974999999999
 20
-79.45793000000001
 30
0.0
 11
-88.76975
 21
-79.45793000000001
 31
0.0
  0
LINE
  5
182
330
16C
100
AcDbEntity
  8
ボルト／ビス
  6
Continuous
100
AcDbLine
 10
-88.76975
 20
-79.45793000000001
 30
0.0
 11
-88.76975
 21
-79.524597
 31
0.0
  0
ENDBLK
  5
183
330
16C
100
AcDbEntity
  8
0
100
AcDbBlockEnd
  0
BLOCK
  5
184
330
185
100
AcDbEntity
  8
0
100
AcDbBlockBegin
  2
*U21
 70
     1
 71
     0
 10
0.0
 20
0.0
 30
0.0
  3
*U21
  1

  0
LINE
  5
186
330
185
100
AcDbEntity
  8
ボルト／ビス
  6
Continuous
100
AcDbLine
 10
-4.30308
 20
-79.62459699999999
 30
0.0
 11
-4.30308
 21
-79.15792999999999
 31
0.0
  0
LINE
  5
187
330
185
100
AcDbEntity
  8
ボルト／ビス
  6
Continuous
100
AcDbLine
 10
-4.669745
 20
-79.62459699999999
 30
0.0
 11
-4.669745
 21
-79.55793
 31
0.0
  0
LINE
  5
188
330
185
100
AcDbEntity
  8
ボルト／ビス
  6
Continuous
100
AcDbLine
 10
-4.669745
 20
-79.55793
 30
0.0
 11
-3.936413
 21
-79.55793
 31
0.0
  0
LINE
  5
189
330
185
100
AcDbEntity
  8
ボルト／ビス
  6
Continuous
100
AcDbLine
 10
-3.936413
 20
-79.55793
 30
0.0
 11
-3.936413
 21
-79.62459699999999
 31
0.0
  0
LINE
  5
18A
330
185
100
AcDbEntity
  8
ボルト／ビス
  6
Continuous
100
AcDbLine
 10
-4.669745
 20
-79.62459699999999
 30
0.0
 11
-3.936413
 21
-79.62459699999999
 31
0.0
  0
LINE
  5
18B
330
185
100
AcDbEntity
  8
ボルト／ビス
  6
Continuous
100
AcDbLine
 10
-4.60308
 20
-79.524597
 30
0.0
 11
-4.60308
 21
-79.55793
 31
0.0
  0
LINE
  5
18C
330
185
100
AcDbEntity
  8
ボルト／ビス
  6
Continuous
100
AcDbLine
 10
-4.60308
 20
-79.524597
 30
0.0
 11
-4.00308
 21
-79.524597
 31
0.0
  0
LINE
  5
18D
330
185
100
AcDbEntity
  8
ボルト／ビス
  6
Continuous
100
AcDbLine
 10
-4.00308
 20
-79.524597
 30
0.0
 11
-4.00308
 21
-79.55793
 31
0.0
  0
LINE
  5
18E
330
185
100
AcDbEntity
  8
ボルト／ビス
  6
Continuous
 62
    64
100
AcDbLine
 10
-4.463455
 20
-79.324597
 30
0.0
 11
-4.49553
 21
-79.33627199999999
 31
0.0
  0
ARC
  5
18F
330
185
100
AcDbEntity
  8
ボルト／ビス
  6
Continuous
 62
    64
100
AcDbCircle
 10
-4.447415
 20
-79.429576
 30
0.0
 40
0.104978
100
AcDbArc
 50
62.721967
 51
90.0
  0
ARC
  5
190
330
185
100
AcDbEntity
  8
ボルト／ビス
  6
Continuous
 62
    64
100
AcDbCircle
 10
-4.303078
 20
-79.72699900000001
 30
0.0
 40
0.402402
100
AcDbArc
 50
76.165002
 51
103.834985
  0
LINE
  5
191
330
185
100
AcDbEntity
  8
ボルト／ビス
  6
Continuous
 62
    64
100
AcDbLine
 10
-4.142705
 20
-79.324597
 30
0.0
 11
-4.11063
 21
-79.33627199999999
 31
0.0
  0
ARC
  5
192
330
185
100
AcDbEntity
  8
ボルト／ビス
  6
Continuous
 62
    64
100
AcDbCircle
 10
-4.15874
 20
-79.429576
 30
0.0
 40
0.104978
100
AcDbArc
 50
90.0
 51
117.278033
  0
LINE
  5
193
330
185
100
AcDbEntity
  8
ボルト／ビス
  6
Continuous
 62
    64
100
AcDbLine
 10
-4.463455
 20
-79.324597
 30
0.0
 11
-4.142705
 21
-79.324597
 31
0.0
  0
LINE
  5
194
330
185
100
AcDbEntity
  8
ボルト／ビス
  6
Continuous
 62
    64
100
AcDbLine
 10
-4.11063
 20
-79.33627199999999
 30
0.0
 11
-4.11063
 21
-79.45793000000001
 31
0.0
  0
LINE
  5
195
330
185
100
AcDbEntity
  8
ボルト／ビス
  6
Continuous
 62
    64
100
AcDbLine
 10
-4.206855
 20
-79.33627199999999
 30
0.0
 11
-4.206855
 21
-79.45793000000001
 31
0.0
  0
LINE
  5
196
330
185
100
AcDbEntity
  8
ボルト／ビス
  6
Continuous
 62
    64
100
AcDbLine
 10
-4.49553
 20
-79.33627199999999
 30
0.0
 11
-4.49553
 21
-79.45793000000001
 31
0.0
  0
LINE
  5
197
330
185
100
AcDbEntity
  8
ボルト／ビス
  6
Continuous
 62
    64
100
AcDbLine
 10
-4.399305
 20
-79.33627199999999
 30
0.0
 11
-4.399305
 21
-79.45793000000001
 31
0.0
  0
LINE
  5
198
330
185
100
AcDbEntity
  8
ボルト／ビス
  6
Continuous
100
AcDbLine
 10
-4.49553
 20
-79.45793000000001
 30
0.0
 11
-4.11063
 21
-79.45793000000001
 31
0.0
  0
LINE
  5
199
330
185
100
AcDbEntity
  8
ボルト／ビス
  6
Continuous
100
AcDbLine
 10
-4.50308
 20
-79.45793000000001
 30
0.0
 11
-4.50308
 21
-79.524597
 31
0.0
  0
LINE
  5
19A
330
185
100
AcDbEntity
  8
ボルト／ビス
  6
Continuous
100
AcDbLine
 10
-4.50308
 20
-79.45793000000001
 30
0.0
 11
-4.10308
 21
-79.45793000000001
 31
0.0
  0
LINE
  5
19B
330
185
100
AcDbEntity
  8
ボルト／ビス
  6
Continuous
100
AcDbLine
 10
-4.10308
 20
-79.45793000000001
 30
0.0
 11
-4.10308
 21
-79.524597
 31
0.0
  0
ENDBLK
  5
19C
330
185
100
AcDbEntity
  8
0
100
AcDbBlockEnd
  0
BLOCK
  5
19D
330
19E
100
AcDbEntity
  8
0
100
AcDbBlockBegin
  2
*U22
 70
     1
 71
     0
 10
0.0
 20
0.0
 30
0.0
  3
*U22
  1

  0
LINE
  5
19F
330
19E
100
AcDbEntity
  8
ボルト／ビス
  6
Continuous
100
AcDbLine
 10
84.563517
 20
-2.57671
 30
0.0
 11
84.09685
 21
-2.57671
 31
0.0
  0
LINE
  5
1A0
330
19E
100
AcDbEntity
  8
ボルト／ビス
  6
Continuous
100
AcDbLine
 10
84.563517
 20
-2.943375
 30
0.0
 11
84.49685
 21
-2.943375
 31
0.0
  0
LINE
  5
1A1
330
19E
100
AcDbEntity
  8
ボルト／ビス
  6
Continuous
100
AcDbLine
 10
84.49685
 20
-2.943375
 30
0.0
 11
84.49685
 21
-2.210042
 31
0.0
  0
LINE
  5
1A2
330
19E
100
AcDbEntity
  8
ボルト／ビス
  6
Continuous
100
AcDbLine
 10
84.49685
 20
-2.210042
 30
0.0
 11
84.563517
 21
-2.210042
 31
0.0
  0
LINE
  5
1A3
330
19E
100
AcDbEntity
  8
ボルト／ビス
  6
Continuous
100
AcDbLine
 10
84.563517
 20
-2.943375
 30
0.0
 11
84.563517
 21
-2.210042
 31
0.0
  0
LINE
  5
1A4
330
19E
100
AcDbEntity
  8
ボルト／ビス
  6
Continuous
100
AcDbLine
 10
84.463517
 20
-2.87671
 30
0.0
 11
84.49685
 21
-2.87671
 31
0.0
  0
LINE
  5
1A5
330
19E
100
AcDbEntity
  8
ボルト／ビス
  6
Continuous
100
AcDbLine
 10
84.463517
 20
-2.87671
 30
0.0
 11
84.463517
 21
-2.27671
 31
0.0
  0
LINE
  5
1A6
330
19E
100
AcDbEntity
  8
ボルト／ビス
  6
Continuous
100
AcDbLine
 10
84.463517
 20
-2.27671
 30
0.0
 11
84.49685
 21
-2.27671
 31
0.0
  0
LINE
  5
1A7
330
19E
100
AcDbEntity
  8
ボルト／ビス
  6
Continuous
 62
    64
100
AcDbLine
 10
84.26351699999999
 20
-2.737085
 30
0.0
 11
84.275193
 21
-2.76916
 31
0.0
  0
ARC
  5
1A8
330
19E
100
AcDbEntity
  8
ボルト／ビス
  6
Continuous
 62
    64
100
AcDbCircle
 10
84.36849599999999
 20
-2.721046
 30
0.0
 40
0.104978
100
AcDbArc
 50
152.721967
 51
180.0
  0
ARC
  5
1A9
330
19E
100
AcDbEntity
  8
ボルト／ビス
  6
Continuous
 62
    64
100
AcDbCircle
 10
84.66592
 20
-2.576709
 30
0.0
 40
0.402402
100
AcDbArc
 50
166.165002
 51
193.834985
  0
LINE
  5
1AA
330
19E
100
AcDbEntity
  8
ボルト／ビス
  6
Continuous
 62
    64
100
AcDbLine
 10
84.26351699999999
 20
-2.416335
 30
0.0
 11
84.275193
 21
-2.38426
 31
0.0
  0
ARC
  5
1AB
330
19E
100
AcDbEntity
  8
ボルト／ビス
  6
Continuous
 62
    64
100
AcDbCircle
 10
84.36849599999999
 20
-2.432371
 30
0.0
 40
0.104978
100
AcDbArc
 50
180.0
 51
207.278033
  0
LINE
  5
1AC
330
19E
100
AcDbEntity
  8
ボルト／ビス
  6
Continuous
 62
    64
100
AcDbLine
 10
84.26351699999999
 20
-2.737085
 30
0.0
 11
84.26351699999999
 21
-2.416335
 31
0.0
  0
LINE
  5
1AD
330
19E
100
AcDbEntity
  8
ボルト／ビス
  6
Continuous
 62
    64
100
AcDbLine
 10
84.275193
 20
-2.38426
 30
0.0
 11
84.39685
 21
-2.38426
 31
0.0
  0
LINE
  5
1AE
330
19E
100
AcDbEntity
  8
ボルト／ビス
  6
Continuous
 62
    64
100
AcDbLine
 10
84.275193
 20
-2.480485
 30
0.0
 11
84.39685
 21
-2.480485
 31
0.0
  0
LINE
  5
1AF
330
19E
100
AcDbEntity
  8
ボルト／ビス
  6
Continuous
 62
    64
100
AcDbLine
 10
84.275193
 20
-2.76916
 30
0.0
 11
84.39685
 21
-2.76916
 31
0.0
  0
LINE
  5
1B0
330
19E
100
AcDbEntity
  8
ボルト／ビス
  6
Continuous
 62
    64
100
AcDbLine
 10
84.275193
 20
-2.672935
 30
0.0
 11
84.39685
 21
-2.672935
 31
0.0
  0
LINE
  5
1B1
330
19E
100
AcDbEntity
  8
ボルト／ビス
  6
Continuous
100
AcDbLine
 10
84.39685
 20
-2.76916
 30
0.0
 11
84.39685
 21
-2.38426
 31
0.0
  0
LINE
  5
1B2
330
19E
100
AcDbEntity
  8
ボルト／ビス
  6
Continuous
100
AcDbLine
 10
84.39685
 20
-2.77671
 30
0.0
 11
84.463517
 21
-2.77671
 31
0.0
  0
LINE
  5
1B3
330
19E
100
AcDbEntity
  8
ボルト／ビス
  6
Continuous
100
AcDbLine
 10
84.39685
 20
-2.77671
 30
0.0
 11
84.39685
 21
-2.37671
 31
0.0
  0
LINE
  5
1B4
330
19E
100
AcDbEntity
  8
ボルト／ビス
  6
Continuous
100
AcDbLine
 10
84.39685
 20
-2.37671
 30
0.0
 11
84.463517
 21
-2.37671
 31
0.0
  0
ENDBLK
  5
1B5
330
19E
100
AcDbEntity
  8
0
100
AcDbBlockEnd
  0
BLOCK
  5
1B6
330
1B7
100
AcDbEntity
  8
0
100
AcDbBlockBegin
  2
*U23
 70
     1
 71
     0
 10
0.0
 20
0.0
 30
0.0
  3
*U23
  1

  0
LINE
  5
1B8
330
1B7
100
AcDbEntity
  8
ボルト／ビス
  6
Continuous
100
AcDbLine
 10
84.563517
 20
65.42328999999999
 30
0.0
 11
84.09685
 21
65.42328999999999
 31
0.0
  0
LINE
  5
1B9
330
1B7
100
AcDbEntity
  8
ボルト／ビス
  6
Continuous
100
AcDbLine
 10
84.563517
 20
65.056625
 30
0.0
 11
84.49685
 21
65.056625
 31
0.0
  0
LINE
  5
1BA
330
1B7
100
AcDbEntity
  8
ボルト／ビス
  6
Continuous
100
AcDbLine
 10
84.49685
 20
65.056625
 30
0.0
 11
84.49685
 21
65.789957
 31
0.0
  0
LINE
  5
1BB
330
1B7
100
AcDbEntity
  8
ボルト／ビス
  6
Continuous
100
AcDbLine
 10
84.49685
 20
65.789957
 30
0.0
 11
84.563517
 21
65.789957
 31
0.0
  0
LINE
  5
1BC
330
1B7
100
AcDbEntity
  8
ボルト／ビス
  6
Continuous
100
AcDbLine
 10
84.563517
 20
65.056625
 30
0.0
 11
84.563517
 21
65.789957
 31
0.0
  0
LINE
  5
1BD
330
1B7
100
AcDbEntity
  8
ボルト／ビス
  6
Continuous
100
AcDbLine
 10
84.463517
 20
65.12329
 30
0.0
 11
84.49685
 21
65.12329
 31
0.0
  0
LINE
  5
1BE
330
1B7
100
AcDbEntity
  8
ボルト／ビス
  6
Continuous
100
AcDbLine
 10
84.463517
 20
65.12329
 30
0.0
 11
84.463517
 21
65.72329000000001
 31
0.0
  0
LINE
  5
1BF
330
1B7
100
AcDbEntity
  8
ボルト／ビス
  6
Continuous
100
AcDbLine
 10
84.463517
 20
65.72329000000001
 30
0.0
 11
84.49685
 21
65.72329000000001
 31
0.0
  0
LINE
  5
1C0
330
1B7
100
AcDbEntity
  8
ボルト／ビス
  6
Continuous
 62
    64
100
AcDbLine
 10
84.26351699999999
 20
65.26291500000001
 30
0.0
 11
84.275193
 21
65.23084
 31
0.0
  0
ARC
  5
1C1
330
1B7
100
AcDbEntity
  8
ボルト／ビス
  6
Continuous
 62
    64
100
AcDbCircle
 10
84.36849599999999
 20
65.278954
 30
0.0
 40
0.104978
100
AcDbArc
 50
152.721967
 51
180.0
  0
ARC
  5
1C2
330
1B7
100
AcDbEntity
  8
ボルト／ビス
  6
Continuous
 62
    64
100
AcDbCircle
 10
84.66592
 20
65.42329100000001
 30
0.0
 40
0.402402
100
AcDbArc
 50
166.165002
 51
193.834985
  0
LINE
  5
1C3
330
1B7
100
AcDbEntity
  8
ボルト／ビス
  6
Continuous
 62
    64
100
AcDbLine
 10
84.26351699999999
 20
65.583665
 30
0.0
 11
84.275193
 21
65.61574
 31
0.0
  0
ARC
  5
1C4
330
1B7
100
AcDbEntity
  8
ボルト／ビス
  6
Continuous
 62
    64
100
AcDbCircle
 10
84.36849599999999
 20
65.567629
 30
0.0
 40
0.104978
100
AcDbArc
 50
180.0
 51
207.278033
  0
LINE
  5
1C5
330
1B7
100
AcDbEntity
  8
ボルト／ビス
  6
Continuous
 62
    64
100
AcDbLine
 10
84.26351699999999
 20
65.26291500000001
 30
0.0
 11
84.26351699999999
 21
65.583665
 31
0.0
  0
LINE
  5
1C6
330
1B7
100
AcDbEntity
  8
ボルト／ビス
  6
Continuous
 62
    64
100
AcDbLine
 10
84.275193
 20
65.61574
 30
0.0
 11
84.39685
 21
65.61574
 31
0.0
  0
LINE
  5
1C7
330
1B7
100
AcDbEntity
  8
ボルト／ビス
  6
Continuous
 62
    64
100
AcDbLine
 10
84.275193
 20
65.519515
 30
0.0
 11
84.39685
 21
65.519515
 31
0.0
  0
LINE
  5
1C8
330
1B7
100
AcDbEntity
  8
ボルト／ビス
  6
Continuous
 62
    64
100
AcDbLine
 10
84.275193
 20
65.23084
 30
0.0
 11
84.39685
 21
65.23084
 31
0.0
  0
LINE
  5
1C9
330
1B7
100
AcDbEntity
  8
ボルト／ビス
  6
Continuous
 62
    64
100
AcDbLine
 10
84.275193
 20
65.32706500000001
 30
0.0
 11
84.39685
 21
65.32706500000001
 31
0.0
  0
LINE
  5
1CA
330
1B7
100
AcDbEntity
  8
ボルト／ビス
  6
Continuous
100
AcDbLine
 10
84.39685
 20
65.23084
 30
0.0
 11
84.39685
 21
65.61574
 31
0.0
  0
LINE
  5
1CB
330
1B7
100
AcDbEntity
  8
ボルト／ビス
  6
Continuous
100
AcDbLine
 10
84.39685
 20
65.22329000000001
 30
0.0
 11
84.463517
 21
65.22329000000001
 31
0.0
  0
LINE
  5
1CC
330
1B7
100
AcDbEntity
  8
ボルト／ビス
  6
Continuous
100
AcDbLine
 10
84.39685
 20
65.22329000000001
 30
0.0
 11
84.39685
 21
65.62329
 31
0.0
  0
LINE
  5
1CD
330
1B7
100
AcDbEntity
  8
ボルト／ビス
  6
Continuous
100
AcDbLine
 10
84.39685
 20
65.62329
 30
0.0
 11
84.463517
 21
65.62329
 31
0.0
  0
ENDBLK
  5
1CE
330
1B7
100
AcDbEntity
  8
0
100
AcDbBlockEnd
  0
ENDSEC
  0
SECTION
  2
ENTITIES
  0
LWPOLYLINE
  5
1CF
330
1D
100
AcDbEntity
  8
通り芯
  6
Continuous
100
AcDbPolyline
 90
        4
 70
     1
 43
0.0
 10
-210.0
 20
-148.5
 10
210.0
 20
-148.5
 10
210.0
 20
148.5
 10
-210.0
 20
148.5
  0
INSERT
  5
1D5
330
1D
100
AcDbEntity
  8
型材断面
  6
Continuous
100
AcDbBlockReference
  2
*U0
 10
0.0
 20
0.0
 30
0.0
  0
LINE
  5
1D6
330
1D
100
AcDbEntity
  8
型材断面
  6
DASHDOT
100
AcDbLine
 10
-4.969747
 20
64.756625
 30
0.0
 11
-4.969747
 21
-87.251428
 31
0.0
  0
LINE
  5
1D7
330
1D
100
AcDbEntity
  8
型材断面
  6
DASHDOT
100
AcDbLine
 10
-46.636415
 20
64.756625
 30
0.0
 11
-46.636415
 21
-87.251428
 31
0.0
  0
LINE
  5
1D8
330
1D
100
AcDbEntity
  8
型材断面
  6
DASHDOT
100
AcDbLine
 10
-88.30307999999999
 20
64.756625
 30
0.0
 11
-88.30307999999999
 21
-87.251428
 31
0.0
  0
LINE
  5
1D9
330
1D
100
AcDbEntity
  8
型材断面
  6
DOT
100
AcDbLine
 10
-88.303082
 20
32.673293
 30
0.0
 11
-56.286415
 21
32.673293
 31
0.0
  0
LINE
  5
1DA
330
1D
100
AcDbEntity
  8
型材断面
  6
DOT
100
AcDbLine
 10
-88.303082
 20
30.173293
 30
0.0
 11
-56.286415
 21
30.173293
 31
0.0
  0
LINE
  5
1DB
330
1D
100
AcDbEntity
  8
型材断面
  6
DASHDOT
100
AcDbLine
 10
92.707015
 20
-1.910042
 30
0.0
 11
-88.30307999999999
 21
-1.910042
 31
0.0
  0
LINE
  5
1DC
330
1D
100
AcDbEntity
  8
型材断面
  6
DASHDOT
100
AcDbLine
 10
92.707015
 20
31.423293
 30
0.0
 11
-88.30307999999999
 21
31.423293
 31
0.0
  0
LINE
  5
1DD
330
1D
100
AcDbEntity
  8
型材断面
  6
DASHDOT
100
AcDbLine
 10
92.707015
 20
64.756625
 30
0.0
 11
-88.30307999999999
 21
64.756625
 31
0.0
  0
LINE
  5
1DE
330
1D
100
AcDbEntity
  8
型材断面
  6
DOT
100
AcDbLine
 10
-45.386415
 20
-1.910042
 30
0.0
 11
-45.386415
 21
64.756625
 31
0.0
  0
LINE
  5
1DF
330
1D
100
AcDbEntity
  8
型材断面
  6
DOT
100
AcDbLine
 10
-47.886415
 20
-1.910042
 30
0.0
 11
-47.886415
 21
64.756625
 31
0.0
  0
LINE
  5
1E0
330
1D
100
AcDbEntity
  8
型材断面
  6
DOT
100
AcDbLine
 10
-70.45308
 20
32.673293
 30
0.0
 11
-47.886415
 21
32.673293
 31
0.0
  0
LINE
  5
1E1
330
1D
100
AcDbEntity
  8
型材断面
  6
DOT
100
AcDbLine
 10
-70.45308
 20
30.173293
 30
0.0
 11
-47.886415
 21
30.173293
 31
0.0
  0
LINE
  5
1E2
330
1D
100
AcDbEntity
  8
型材断面
  6
DOT
100
AcDbLine
 10
-4.969747
 20
32.673293
 30
0.0
 11
-45.386415
 21
32.673293
 31
0.0
  0
LINE
  5
1E3
330
1D
100
AcDbEntity
  8
型材断面
  6
DOT
100
AcDbLine
 10
-4.969747
 20
30.173293
 30
0.0
 11
-45.386415
 21
30.173293
 31
0.0
  0
LINE
  5
1E4
330
1D
100
AcDbEntity
  8
型材断面
  6
Continuous
100
AcDbLine
 10
-90.93321
 20
31.423293
 30
0.0
 11
-93.523718
 21
32.918923
 31
0.0
  0
LINE
  5
1E5
330
1D
100
AcDbEntity
  8
型材断面
  6
Continuous
100
AcDbLine
 10
-90.93321
 20
31.423293
 30
0.0
 11
-93.523718
 21
29.927663
 31
0.0
  0
LINE
  5
1E6
330
1D
100
AcDbEntity
  8
型材断面
  6
Continuous
100
AcDbLine
 10
-93.523718
 20
29.927663
 30
0.0
 11
-93.523718
 21
32.918923
 31
0.0
  0
LINE
  5
1E7
330
1D
100
AcDbEntity
  8
型材断面
  6
Continuous
100
AcDbLine
 10
-129.155288
 20
109.263973
 30
0.0
 11
-130.650918
 21
106.673465
 31
0.0
  0
LINE
  5
1E8
330
1D
100
AcDbEntity
  8
型材断面
  6
Continuous
100
AcDbLine
 10
-129.155288
 20
109.263973
 30
0.0
 11
-127.659657
 21
106.673465
 31
0.0
  0
LINE
  5
1E9
330
1D
100
AcDbEntity
  8
型材断面
  6
Continuous
100
AcDbLine
 10
-127.659657
 20
106.673465
 30
0.0
 11
-130.650918
 21
106.673465
 31
0.0
  0
LINE
  5
1EA
330
1D
100
AcDbEntity
  8
型材断面
  6
Continuous
100
AcDbLine
 10
-135.177875
 20
105.73487
 30
0.0
 11
-88.936097
 21
105.73487
 31
0.0
  0
LINE
  5
1EB
330
1D
100
AcDbEntity
  8
型材断面
  6
Continuous
100
AcDbLine
 10
-71.63641300000001
 20
-4.54017
 30
0.0
 11
-73.132042
 21
-7.130678
 31
0.0
  0
LINE
  5
1EC
330
1D
100
AcDbEntity
  8
型材断面
  6
Continuous
100
AcDbLine
 10
-71.63641300000001
 20
-4.54017
 30
0.0
 11
-70.140783
 21
-7.130678
 31
0.0
  0
LINE
  5
1ED
330
1D
100
AcDbEntity
  8
型材断面
  6
Continuous
100
AcDbLine
 10
-70.140783
 20
-7.130678
 30
0.0
 11
-73.132042
 21
-7.130678
 31
0.0
  0
LINE
  5
1EE
330
1D
100
AcDbEntity
  8
型材断面
  6
Continuous
100
AcDbLine
 10
-71.63641300000001
 20
67.38675499999999
 30
0.0
 11
-73.132042
 21
69.977262
 31
0.0
  0
LINE
  5
1EF
330
1D
100
AcDbEntity
  8
型材断面
  6
Continuous
100
AcDbLine
 10
-71.63641300000001
 20
67.38675499999999
 30
0.0
 11
-70.140783
 21
69.977262
 31
0.0
  0
LINE
  5
1F0
330
1D
100
AcDbEntity
  8
型材断面
  6
Continuous
100
AcDbLine
 10
-70.140783
 20
69.977262
 30
0.0
 11
-73.132042
 21
69.977262
 31
0.0
  0
LINE
  5
1F1
330
1D
100
AcDbEntity
  8
型材断面
  6
Continuous
100
AcDbLine
 10
-2.33962
 20
31.423293
 30
0.0
 11
0.250887
 21
32.918923
 31
0.0
  0
LINE
  5
1F2
330
1D
100
AcDbEntity
  8
型材断面
  6
Continuous
100
AcDbLine
 10
-2.33962
 20
31.423293
 30
0.0
 11
0.250887
 21
29.927663
 31
0.0
  0
LINE
  5
1F3
330
1D
100
AcDbEntity
  8
型材断面
  6
Continuous
100
AcDbLine
 10
0.250887
 20
29.927663
 30
0.0
 11
0.250887
 21
32.918923
 31
0.0
  0
LINE
  5
1F4
330
1D
100
AcDbEntity
  8
型材断面
  6
Continuous
100
AcDbLine
 10
-21.636417
 20
-4.54017
 30
0.0
 11
-20.140787
 21
-7.130678
 31
0.0
  0
LINE
  5
1F5
330
1D
100
AcDbEntity
  8
型材断面
  6
Continuous
100
AcDbLine
 10
-21.636417
 20
-4.54017
 30
0.0
 11
-23.132048
 21
-7.130678
 31
0.0
  0
LINE
  5
1F6
330
1D
100
AcDbEntity
  8
型材断面
  6
Continuous
100
AcDbLine
 10
-23.132048
 20
-7.130678
 30
0.0
 11
-20.140787
 21
-7.130678
 31
0.0
  0
LINE
  5
1F7
330
1D
100
AcDbEntity
  8
型材断面
  6
Continuous
100
AcDbLine
 10
-21.636417
 20
67.38675499999999
 30
0.0
 11
-20.140787
 21
69.977262
 31
0.0
  0
LINE
  5
1F8
330
1D
100
AcDbEntity
  8
型材断面
  6
Continuous
100
AcDbLine
 10
-21.636417
 20
67.38675499999999
 30
0.0
 11
-23.132048
 21
69.977262
 31
0.0
  0
LINE
  5
1F9
330
1D
100
AcDbEntity
  8
型材断面
  6
Continuous
100
AcDbLine
 10
-23.132048
 20
69.977262
 30
0.0
 11
-20.140787
 21
69.977262
 31
0.0
  0
LINE
  5
1FA
330
1D
100
AcDbEntity
  8
型材断面
  6
Continuous
100
AcDbLine
 10
-135.177875
 20
99.76919700000001
 30
0.0
 11
-88.936097
 21
99.76919700000001
 31
0.0
  0
LINE
  5
1FB
330
1D
100
AcDbEntity
  8
型材断面
  6
Continuous
100
AcDbLine
 10
-90.36975
 20
66.823295
 30
0.0
 11
-91.469745
 21
67.92328999999999
 31
0.0
  0
LINE
  5
1FC
330
1D
100
AcDbEntity
  8
型材断面
  6
Continuous
100
AcDbLine
 10
-90.36975
 20
-3.97671
 30
0.0
 11
-91.469745
 21
-5.076707
 31
0.0
  0
LINE
  5
1FD
330
1D
100
AcDbEntity
  8
型材断面
  6
Continuous
100
AcDbLine
 10
-91.469745
 20
67.92328999999999
 30
0.0
 11
-91.469745
 21
-5.076707
 31
0.0
  0
LINE
  5
1FE
330
1D
100
AcDbEntity
  8
型材断面
  6
Continuous
100
AcDbLine
 10
-91.469745
 20
67.92328999999999
 30
0.0
 11
-1.803082
 21
67.92328999999999
 31
0.0
  0
LINE
  5
1FF
330
1D
100
AcDbEntity
  8
型材断面
  6
Continuous
100
AcDbLine
 10
-2.90308
 20
66.823295
 30
0.0
 11
-1.803082
 21
67.92328999999999
 31
0.0
  0
LINE
  5
200
330
1D
100
AcDbEntity
  8
型材断面
  6
Continuous
100
AcDbLine
 10
-91.469745
 20
-5.076707
 30
0.0
 11
-1.803082
 21
-5.076707
 31
0.0
  0
LINE
  5
201
330
1D
100
AcDbEntity
  8
型材断面
  6
Continuous
100
AcDbLine
 10
-1.803082
 20
67.92328999999999
 30
0.0
 11
-1.803082
 21
-5.076707
 31
0.0
  0
LINE
  5
202
330
1D
100
AcDbEntity
  8
型材断面
  6
Continuous
100
AcDbLine
 10
-2.90308
 20
-3.97671
 30
0.0
 11
-1.803082
 21
-5.076707
 31
0.0
  0
LINE
  5
203
330
1D
100
AcDbEntity
  8
型材断面
  6
Continuous
 62
    14
100
AcDbLine
 10
88.397088
 20
67.923287
 30
0.0
 11
87.897088
 21
67.923287
 31
0.0
  0
LINE
  5
204
330
1D
100
AcDbEntity
  8
型材断面
  6
Continuous
100
AcDbLine
 10
87.730422
 20
66.08995299999999
 30
0.0
 11
87.897088
 21
67.923287
 31
0.0
  0
LINE
  5
205
330
1D
100
AcDbEntity
  8
型材断面
  6
Continuous
100
AcDbLine
 10
87.897088
 20
67.923287
 30
0.0
 11
88.397088
 21
67.923287
 31
0.0
  0
LINE
  5
206
330
1D
100
AcDbEntity
  8
型材断面
  6
Continuous
100
AcDbLine
 10
88.397088
 20
67.08995299999999
 30
0.0
 11
88.730422
 21
67.08995299999999
 31
0.0
  0
LWPOLYLINE
  5
207
330
1D
100
AcDbEntity
  8
型材断面
  6
Continuous
100
AcDbPolyline
 90
        3
 70
     0
 43
0.0
 10
85.563517
 20
65.956625
 10
85.913755
 20
65.956625
 10
86.047088
 20
66.089957
  0
LINE
  5
20C
330
1D
100
AcDbEntity
  8
型材断面
  6
Continuous
100
AcDbLine
 10
87.730422
 20
66.08995299999999
 30
0.0
 11
86.047083
 21
66.08995299999999
 31
0.0
  0
LINE
  5
20D
330
1D
100
AcDbEntity
  8
型材断面
  6
Continuous
 62
    14
100
AcDbLine
 10
88.397088
 20
-5.076703
 30
0.0
 11
87.897088
 21
-5.076703
 31
0.0
  0
LINE
  5
20E
330
1D
100
AcDbEntity
  8
型材断面
  6
Continuous
100
AcDbLine
 10
87.730422
 20
-3.243368
 30
0.0
 11
87.897088
 21
-5.076703
 31
0.0
  0
LINE
  5
20F
330
1D
100
AcDbEntity
  8
型材断面
  6
Continuous
100
AcDbLine
 10
87.897088
 20
-5.076703
 30
0.0
 11
88.397088
 21
-5.076703
 31
0.0
  0
LINE
  5
210
330
1D
100
AcDbEntity
  8
型材断面
  6
Continuous
100
AcDbLine
 10
88.397088
 20
-4.243368
 30
0.0
 11
88.730422
 21
-4.243368
 31
0.0
  0
LWPOLYLINE
  5
211
330
1D
100
AcDbEntity
  8
型材断面
  6
Continuous
100
AcDbPolyline
 90
        3
 70
     0
 43
0.0
 10
85.563517
 20
-3.11004
 10
85.913755
 20
-3.11004
 10
86.047088
 20
-3.243372
  0
LINE
  5
216
330
1D
100
AcDbEntity
  8
型材断面
  6
Continuous
100
AcDbLine
 10
87.730422
 20
-3.243368
 30
0.0
 11
86.047083
 21
-3.243368
 31
0.0
  0
LINE
  5
217
330
1D
100
AcDbEntity
  8
型材断面
  6
Continuous
100
AcDbLine
 10
87.897088
 20
67.923287
 30
0.0
 11
87.897088
 21
-5.076703
 31
0.0
  0
LINE
  5
218
330
1D
100
AcDbEntity
  8
型材断面
  6
Continuous
100
AcDbLine
 10
88.397088
 20
67.923287
 30
0.0
 11
88.397088
 21
-5.076703
 31
0.0
  0
LINE
  5
219
330
1D
100
AcDbEntity
  8
型材断面
  6
Continuous
100
AcDbLine
 10
88.73042
 20
67.08995299999999
 30
0.0
 11
88.73042
 21
-4.243368
 31
0.0
  0
LINE
  5
21A
330
1D
100
AcDbEntity
  8
型材断面
  6
Continuous
100
AcDbLine
 10
87.730422
 20
66.08995299999999
 30
0.0
 11
87.730422
 21
-3.243368
 31
0.0
  0
LINE
  5
21B
330
1D
100
AcDbEntity
  8
型材断面
  6
Continuous
100
AcDbLine
 10
85.913755
 20
65.956625
 30
0.0
 11
85.913755
 21
-3.11004
 31
0.0
  0
LINE
  5
21C
330
1D
100
AcDbEntity
  8
型材断面
  6
Continuous
100
AcDbLine
 10
86.047088
 20
66.089957
 30
0.0
 11
86.047088
 21
-3.243372
 31
0.0
  0
LINE
  5
21D
330
1D
100
AcDbEntity
  8
型材断面
  6
Continuous
100
AcDbLine
 10
85.563517
 20
66.82329
 30
0.0
 11
113.783187
 21
66.82329
 31
0.0
  0
LINE
  5
21E
330
1D
100
AcDbEntity
  8
型材断面
  6
Continuous
100
AcDbLine
 10
85.563517
 20
-3.97671
 30
0.0
 11
115.367358
 21
-3.97671
 31
0.0
  0
LINE
  5
21F
330
1D
100
AcDbEntity
  8
型材断面
  6
Continuous
 62
    14
100
AcDbLine
 10
-1.803082
 20
-83.458168
 30
0.0
 11
-1.803082
 21
-82.958168
 31
0.0
  0
LINE
  5
220
330
1D
100
AcDbEntity
  8
型材断面
  6
Continuous
100
AcDbLine
 10
-3.636417
 20
-82.79150300000001
 30
0.0
 11
-1.803082
 21
-82.958168
 31
0.0
  0
LINE
  5
221
330
1D
100
AcDbEntity
  8
型材断面
  6
Continuous
100
AcDbLine
 10
-1.803082
 20
-82.958168
 30
0.0
 11
-1.803082
 21
-83.458168
 31
0.0
  0
LINE
  5
222
330
1D
100
AcDbEntity
  8
型材断面
  6
Continuous
100
AcDbLine
 10
-2.636417
 20
-83.458168
 30
0.0
 11
-2.636417
 21
-83.79150300000001
 31
0.0
  0
LWPOLYLINE
  5
223
330
1D
100
AcDbEntity
  8
型材断面
  6
Continuous
100
AcDbPolyline
 90
        3
 70
     0
 43
0.0
 10
-3.769745
 20
-80.62459699999999
 10
-3.769745
 20
-80.974835
 10
-3.636413
 20
-81.10816800000001
  0
LINE
  5
228
330
1D
100
AcDbEntity
  8
型材断面
  6
Continuous
100
AcDbLine
 10
-3.636417
 20
-82.79150300000001
 30
0.0
 11
-3.636417
 21
-81.10816199999999
 31
0.0
  0
LINE
  5
229
330
1D
100
AcDbEntity
  8
型材断面
  6
Continuous
 62
    14
100
AcDbLine
 10
-91.46974
 20
-83.458168
 30
0.0
 11
-91.46974
 21
-82.958168
 31
0.0
  0
LINE
  5
22A
330
1D
100
AcDbEntity
  8
型材断面
  6
Continuous
100
AcDbLine
 10
-89.636405
 20
-82.79150300000001
 30
0.0
 11
-91.46974
 21
-82.958168
 31
0.0
  0
LINE
  5
22B
330
1D
100
AcDbEntity
  8
型材断面
  6
Continuous
100
AcDbLine
 10
-91.46974
 20
-82.958168
 30
0.0
 11
-91.46974
 21
-83.458168
 31
0.0
  0
LINE
  5
22C
330
1D
100
AcDbEntity
  8
型材断面
  6
Continuous
100
AcDbLine
 10
-90.636405
 20
-83.458168
 30
0.0
 11
-90.636405
 21
-83.79150300000001
 31
0.0
  0
LWPOLYLINE
  5
22D
330
1D
100
AcDbEntity
  8
型材断面
  6
Continuous
100
AcDbPolyline
 90
        3
 70
     0
 43
0.0
 10
-89.503078
 20
-80.62459699999999
 10
-89.503078
 20
-80.974835
 10
-89.63641
 20
-81.10816800000001
  0
LINE
  5
232
330
1D
100
AcDbEntity
  8
型材断面
  6
Continuous
100
AcDbLine
 10
-89.636405
 20
-82.79150300000001
 30
0.0
 11
-89.636405
 21
-81.10816199999999
 31
0.0
  0
LINE
  5
233
330
1D
100
AcDbEntity
  8
型材断面
  6
Continuous
100
AcDbLine
 10
-1.803082
 20
-82.958168
 30
0.0
 11
-91.46974
 21
-82.958168
 31
0.0
  0
LINE
  5
234
330
1D
100
AcDbEntity
  8
型材断面
  6
Continuous
100
AcDbLine
 10
-1.803082
 20
-83.458168
 30
0.0
 11
-91.46974
 21
-83.458168
 31
0.0
  0
LINE
  5
235
330
1D
100
AcDbEntity
  8
型材断面
  6
Continuous
100
AcDbLine
 10
-2.636417
 20
-83.7915
 30
0.0
 11
-90.636405
 21
-83.7915
 31
0.0
  0
LINE
  5
236
330
1D
100
AcDbEntity
  8
型材断面
  6
Continuous
100
AcDbLine
 10
-3.636417
 20
-82.79150300000001
 30
0.0
 11
-89.636405
 21
-82.79150300000001
 31
0.0
  0
LINE
  5
237
330
1D
100
AcDbEntity
  8
型材断面
  6
Continuous
100
AcDbLine
 10
-3.769745
 20
-80.974835
 30
0.0
 11
-89.503078
 21
-80.974835
 31
0.0
  0
LINE
  5
238
330
1D
100
AcDbEntity
  8
型材断面
  6
Continuous
100
AcDbLine
 10
-3.636413
 20
-81.10816800000001
 30
0.0
 11
-89.63641
 21
-81.10816800000001
 31
0.0
  0
TEXT
  5
239
330
1D
100
AcDbEntity
  8
文字
  6
Continuous
100
AcDbText
 10
-126.35
 20
106.85
 30
0.0
 40
3.0
  1
は排水穴位置を示す
  7
TextStyle03
 72
     5
 11
-96.34999999999999
 21
106.85
 31
0.0
100
AcDbText
  0
TEXT
  5
23A
330
1D
100
AcDbEntity
  8
文字
  6
Continuous
100
AcDbText
 10
-130.075
 20
100.65
 30
0.0
 40
3.0
  1
アンカー数量　１４ヶ所
  7
TextStyle03
 72
     5
 11
-93.325
 21
100.65
 31
0.0
100
AcDbText
  0
TEXT
  5
23B
330
1D
100
AcDbEntity
  8
文字
  6
Continuous
100
AcDbText
 10
137.0
 20
-75.575
 30
0.0
 40
3.0
  1
網入り6.8t
  7
TextStyle03
 72
     5
 11
153.6875
 21
-75.575
 31
0.0
100
AcDbText
  0
TEXT
  5
23C
330
1D
100
AcDbEntity
  8
文字
  6
Continuous
100
AcDbText
 10
143.675
 20
-80.25
 30
0.0
 40
3.0
  1
×４枚
  7
TextStyle03
 72
     5
 11
153.425
 21
-80.25
 31
0.0
100
AcDbText
  0
TEXT
  5
23D
330
1D
100
AcDbEntity
  8
文字
  6
Continuous
100
AcDbText
 10
-127.025
 20
2.025
 30
0.0
 40
3.0
  1
アンカーピッチ
 50
90.0
  7
TextStyle03
 72
     5
 11
-127.025
 21
25.275
 31
0.0
100
AcDbText
  0
TEXT
  5
23E
330
1D
100
AcDbEntity
  8
文字
  6
Continuous
100
AcDbText
 10
-81.675
 20
102.775
 30
0.0
 40
3.0
  1
アンカーピッチ
  7
TextStyle03
 72
     5
 11
-58.425
 21
102.775
 31
0.0
100
AcDbText
  0
TEXT
  5
23F
330
1D
100
AcDbEntity
  8
文字
  6
Continuous
100
AcDbText
 10
77.65000000000001
 20
104.325
 30
0.0
 40
5.0
  1
ＮＳコード：ＮＳＫＬ
  7
TextStyle03
 72
     5
 11
133.275
 21
104.325
 31
0.0
100
AcDbText
  0
TEXT
  5
240
330
1D
100
AcDbEntity
  8
文字
  6
Continuous
100
AcDbText
 10
78.09999999999999
 20
125.25
 30
0.0
 40
5.0
  1
シリーズ：ＴＤ１ＫＬ
  7
TextStyle03
 72
     5
 11
133.725
 21
125.25
 31
0.0
100
AcDbText
  0
TEXT
  5
241
330
1D
100
AcDbEntity
  8
文字
  6
Continuous
100
AcDbText
 10
78.09999999999999
 20
119.625
 30
0.0
 40
5.0
  1
　　　　　（固定）2000×2500タイプ
  7
TextStyle03
 72
     5
 11
173.1
 21
119.625
 31
0.0
100
AcDbText
  0
TEXT
  5
242
330
1D
100
AcDbEntity
  8
文字
  6
Continuous
100
AcDbText
 10
78.09999999999999
 20
114.0
 30
0.0
 40
5.0
  1
図面名　：外観姿図
  7
TextStyle03
 72
     5
 11
128.1
 21
114.0
 31
0.0
100
AcDbText
  0
TEXT
  5
243
330
1D
100
AcDbEntity
  8
文字
  6
Continuous
100
AcDbText
 10
78.09999999999999
 20
108.375
 30
0.0
 40
5.0
  1
　　　　　　
  7
TextStyle03
 72
     5
 11
111.225
 21
108.375
 31
0.0
100
AcDbText
  0
INSERT
  5
244
330
1D
100
AcDbEntity
  8
寸法
  6
Continuous
100
AcDbBlockReference
  2
*U1
 10
0.0
 20
0.0
 30
0.0
  0
INSERT
  5
245
330
1D
100
AcDbEntity
  8
寸法
  6
Continuous
100
AcDbBlockReference
  2
*U2
 10
0.0
 20
0.0
 30
0.0
  0
INSERT
  5
246
330
1D
100
AcDbEntity
  8
寸法
  6
Continuous
100
AcDbBlockReference
  2
*U3
 10
0.0
 20
0.0
 30
0.0
  0
INSERT
  5
247
330
1D
100
AcDbEntity
  8
寸法
  6
Continuous
100
AcDbBlockReference
  2
*U4
 10
0.0
 20
0.0
 30
0.0
  0
INSERT
  5
248
330
1D
100
AcDbEntity
  8
寸法
  6
Continuous
100
AcDbBlockReference
  2
*U5
 10
0.0
 20
0.0
 30
0.0
  0
INSERT
  5
249
330
1D
100
AcDbEntity
  8
寸法
  6
Continuous
100
AcDbBlockReference
  2
*U7
 10
0.0
 20
0.0
 30
0.0
  0
INSERT
  5
24A
330
1D
100
AcDbEntity
  8
寸法
  6
Continuous
100
AcDbBlockReference
  2
*U8
 10
0.0
 20
0.0
 30
0.0
  0
INSERT
  5
24B
330
1D
100
AcDbEntity
  8
寸法
  6
Continuous
100
AcDbBlockReference
  2
*U9
 10
0.0
 20
0.0
 30
0.0
  0
INSERT
  5
24C
330
1D
100
AcDbEntity
  8
寸法
  6
Continuous
100
AcDbBlockReference
  2
*U10
 10
0.0
 20
0.0
 30
0.0
  0
INSERT
  5
24D
330
1D
100
AcDbEntity
  8
寸法
  6
Continuous
100
AcDbBlockReference
  2
*U11
 10
0.0
 20
0.0
 30
0.0
  0
INSERT
  5
24E
330
1D
100
AcDbEntity
  8
寸法
  6
Continuous
100
AcDbBlockReference
  2
*U12
 10
0.0
 20
0.0
 30
0.0
  0
INSERT
  5
24F
330
1D
100
AcDbEntity
  8
寸法
  6
Continuous
100
AcDbBlockReference
  2
*U13
 10
0.0
 20
0.0
 30
0.0
  0
INSERT
  5
250
330
1D
100
AcDbEntity
  8
寸法
  6
Continuous
100
AcDbBlockReference
  2
*U14
 10
0.0
 20
0.0
 30
0.0
  0
INSERT
  5
251
330
1D
100
AcDbEntity
  8
寸法
  6
Continuous
100
AcDbBlockReference
  2
*U15
 10
0.0
 20
0.0
 30
0.0
  0
INSERT
  5
252
330
1D
100
AcDbEntity
  8
寸法
  6
Continuous
100
AcDbBlockReference
  2
*U16
 10
0.0
 20
0.0
 30
0.0
  0
INSERT
  5
253
330
1D
100
AcDbEntity
  8
寸法
  6
Continuous
100
AcDbBlockReference
  2
*U17
 10
0.0
 20
0.0
 30
0.0
  0
INSERT
  5
254
330
1D
100
AcDbEntity
  8
寸法
  6
Continuous
100
AcDbBlockReference
  2
*U18
 10
0.0
 20
0.0
 30
0.0
  0
INSERT
  5
255
330
1D
100
AcDbEntity
  8
寸法
  6
Continuous
100
AcDbBlockReference
  2
*U19
 10
0.0
 20
0.0
 30
0.0
  0
LINE
  5
256
330
1D
100
AcDbEntity
  8
別途部材
  6
Continuous
100
AcDbLine
 10
-2.90308
 20
-3.97671
 30
0.0
 11
-3.30308
 21
-3.57671
 31
0.0
  0
LINE
  5
257
330
1D
100
AcDbEntity
  8
別途部材
  6
Continuous
100
AcDbLine
 10
-4.969747
 20
-1.910042
 30
0.0
 11
-13.029003
 21
6.149215
 31
0.0
  0
LINE
  5
258
330
1D
100
AcDbEntity
  8
別途部材
  6
Continuous
100
AcDbLine
 10
-2.90308
 20
-3.97671
 30
0.0
 11
-2.90308
 21
31.423293
 31
0.0
  0
LINE
  5
259
330
1D
100
AcDbEntity
  8
別途部材
  6
Continuous
100
AcDbLine
 10
-3.30308
 20
-3.57671
 30
0.0
 11
-3.30308
 21
31.423293
 31
0.0
  0
LINE
  5
25A
330
1D
100
AcDbEntity
  8
別途部材
  6
Continuous
100
AcDbLine
 10
-2.90308
 20
66.823295
 30
0.0
 11
-3.30308
 21
66.423295
 31
0.0
  0
LINE
  5
25B
330
1D
100
AcDbEntity
  8
別途部材
  6
Continuous
100
AcDbLine
 10
-4.969747
 20
64.756627
 30
0.0
 11
-13.029003
 21
56.69737
 31
0.0
  0
LINE
  5
25C
330
1D
100
AcDbEntity
  8
別途部材
  6
Continuous
100
AcDbLine
 10
-2.90308
 20
66.823295
 30
0.0
 11
-2.90308
 21
31.423293
 31
0.0
  0
LINE
  5
25D
330
1D
100
AcDbEntity
  8
別途部材
  6
Continuous
100
AcDbLine
 10
-3.30308
 20
66.423295
 30
0.0
 11
-3.30308
 21
31.423293
 31
0.0
  0
LINE
  5
25E
330
1D
100
AcDbEntity
  8
別途部材
  6
Continuous
 62
    96
100
AcDbLine
 10
84.563517
 20
-3.57671
 30
0.0
 11
85.563517
 21
-3.97671
 31
0.0
  0
ARC
  5
25F
330
1D
100
AcDbEntity
  8
別途部材
  6
Continuous
100
AcDbCircle
 10
109.563514
 20
31.42329
 30
0.0
 40
41.666665
100
AcDbArc
 50
180.0
 51
233.130105
  0
ARC
  5
260
330
1D
100
AcDbEntity
  8
別途部材
  6
Continuous
100
AcDbCircle
 10
109.563514
 20
31.423291
 30
0.0
 40
41.666665
100
AcDbArc
 50
126.869895
 51
180.0
  0
LINE
  5
261
330
1D
100
AcDbEntity
  8
別途部材
  6
Continuous
100
AcDbLine
 10
85.563517
 20
-3.97671
 30
0.0
 11
85.563517
 21
31.42329
 31
0.0
  0
LINE
  5
262
330
1D
100
AcDbEntity
  8
別途部材
  6
Continuous
 62
    96
100
AcDbLine
 10
84.563517
 20
-3.57671
 30
0.0
 11
84.563517
 21
31.42329
 31
0.0
  0
LINE
  5
263
330
1D
100
AcDbEntity
  8
別途部材
  6
Continuous
 62
    96
100
AcDbLine
 10
84.563517
 20
66.42328999999999
 30
0.0
 11
85.563517
 21
66.82329
 31
0.0
  0
LINE
  5
264
330
1D
100
AcDbEntity
  8
別途部材
  6
Continuous
100
AcDbLine
 10
85.563517
 20
66.82329
 30
0.0
 11
85.563517
 21
31.42329
 31
0.0
  0
LINE
  5
265
330
1D
100
AcDbEntity
  8
別途部材
  6
Continuous
 62
    96
100
AcDbLine
 10
84.563517
 20
66.42328999999999
 30
0.0
 11
84.563517
 21
31.42329
 31
0.0
  0
LINE
  5
266
330
1D
100
AcDbEntity
  8
別途部材
  6
Continuous
100
AcDbLine
 10
-3.30308
 20
66.423295
 30
0.0
 11
-46.636415
 21
66.423295
 31
0.0
  0
LINE
  5
267
330
1D
100
AcDbEntity
  8
別途部材
  6
Continuous
100
AcDbLine
 10
-2.90308
 20
66.823295
 30
0.0
 11
-46.636415
 21
66.823295
 31
0.0
  0
LINE
  5
268
330
1D
100
AcDbEntity
  8
別途部材
  6
Continuous
100
AcDbLine
 10
-2.90308
 20
-3.97671
 30
0.0
 11
-46.636415
 21
-3.97671
 31
0.0
  0
LINE
  5
269
330
1D
100
AcDbEntity
  8
別途部材
  6
Continuous
100
AcDbLine
 10
-3.30308
 20
-3.57671
 30
0.0
 11
-46.636415
 21
-3.57671
 31
0.0
  0
LINE
  5
26A
330
1D
100
AcDbEntity
  8
別途部材
  6
Continuous
100
AcDbLine
 10
-90.36975
 20
-3.97671
 30
0.0
 11
-89.96975000000001
 21
-3.57671
 31
0.0
  0
LINE
  5
26B
330
1D
100
AcDbEntity
  8
別途部材
  6
Continuous
100
AcDbLine
 10
-88.303082
 20
-1.910042
 30
0.0
 11
-80.24382799999999
 21
6.149215
 31
0.0
  0
LINE
  5
26C
330
1D
100
AcDbEntity
  8
別途部材
  6
Continuous
100
AcDbLine
 10
-90.36975
 20
-3.97671
 30
0.0
 11
-90.36975
 21
31.423293
 31
0.0
  0
LINE
  5
26D
330
1D
100
AcDbEntity
  8
別途部材
  6
Continuous
100
AcDbLine
 10
-89.96975000000001
 20
-3.57671
 30
0.0
 11
-89.96975000000001
 21
31.423293
 31
0.0
  0
LINE
  5
26E
330
1D
100
AcDbEntity
  8
別途部材
  6
Continuous
100
AcDbLine
 10
-90.36975
 20
66.823295
 30
0.0
 11
-89.96975000000001
 21
66.423295
 31
0.0
  0
LINE
  5
26F
330
1D
100
AcDbEntity
  8
別途部材
  6
Continuous
100
AcDbLine
 10
-88.303082
 20
64.756627
 30
0.0
 11
-80.24382799999999
 21
56.69737
 31
0.0
  0
LINE
  5
270
330
1D
100
AcDbEntity
  8
別途部材
  6
Continuous
100
AcDbLine
 10
-90.36975
 20
66.823295
 30
0.0
 11
-90.36975
 21
31.423293
 31
0.0
  0
LINE
  5
271
330
1D
100
AcDbEntity
  8
別途部材
  6
Continuous
100
AcDbLine
 10
-89.96975000000001
 20
66.423295
 30
0.0
 11
-89.96975000000001
 21
31.423293
 31
0.0
  0
LINE
  5
272
330
1D
100
AcDbEntity
  8
別途部材
  6
Continuous
100
AcDbLine
 10
-89.96975000000001
 20
66.423295
 30
0.0
 11
-46.636415
 21
66.423295
 31
0.0
  0
LINE
  5
273
330
1D
100
AcDbEntity
  8
別途部材
  6
Continuous
100
AcDbLine
 10
-90.36975
 20
66.823295
 30
0.0
 11
-46.636415
 21
66.823295
 31
0.0
  0
LINE
  5
274
330
1D
100
AcDbEntity
  8
別途部材
  6
Continuous
100
AcDbLine
 10
-90.36975
 20
-3.97671
 30
0.0
 11
-46.636415
 21
-3.97671
 31
0.0
  0
LINE
  5
275
330
1D
100
AcDbEntity
  8
別途部材
  6
Continuous
100
AcDbLine
 10
-89.96975000000001
 20
-3.57671
 30
0.0
 11
-46.636415
 21
-3.57671
 31
0.0
  0
INSERT
  5
276
330
1D
100
AcDbEntity
  8
別途部材
  6
Continuous
100
AcDbBlockReference
  2
*U6
 10
0.0
 20
0.0
 30
0.0
  0
INSERT
  5
277
330
1D
100
AcDbEntity
  8
別途部材
  6
DOT
100
AcDbBlockReference
  2
*U20
 10
0.0
 20
0.0
 30
0.0
  0
INSERT
  5
278
330
1D
100
AcDbEntity
  8
別途部材
  6
DOT
100
AcDbBlockReference
  2
*U21
 10
0.0
 20
0.0
 30
0.0
  0
INSERT
  5
279
330
1D
100
AcDbEntity
  8
別途部材
  6
DOT
100
AcDbBlockReference
  2
*U22
 10
0.0
 20
0.0
 30
0.0
  0
INSERT
  5
27A
330
1D
100
AcDbEntity
  8
別途部材
  6
DOT
100
AcDbBlockReference
  2
*U23
 10
0.0
 20
0.0
 30
0.0
  0
LINE
  5
27B
330
1D
100
AcDbEntity
  8
曲げ物
  6
Continuous
100
AcDbLine
 10
114.57117
 20
-49.367047
 30
0.0
 11
114.57117
 21
-82.00038000000001
 31
0.0
  0
LINE
  5
27C
330
1D
100
AcDbEntity
  8
曲げ物
  6
Continuous
100
AcDbLine
 10
155.537835
 20
-82.00038000000001
 30
0.0
 11
114.57117
 21
-82.00038000000001
 31
0.0
  0
LINE
  5
27D
330
1D
100
AcDbEntity
  8
曲げ物
  6
Continuous
100
AcDbLine
 10
114.57117
 20
-49.367047
 30
0.0
 11
155.537835
 21
-49.367047
 31
0.0
  0
LINE
  5
27E
330
1D
100
AcDbEntity
  8
曲げ物
  6
Continuous
100
AcDbLine
 10
155.537835
 20
-82.00038000000001
 30
0.0
 11
155.537835
 21
-49.367047
 31
0.0
  0
ENDSEC
  0
SECTION
  2
OBJECTS
  0
DICTIONARY
  5
C
330
0
100
AcDbDictionary
281
     1
  3
ACAD_GROUP
350
D
  3
ACAD_LAYOUT
350
1A
  3
ACAD_MLINESTYLE
350
17
  3
ACAD_PLOTSETTINGS
350
19
  3
ACAD_PLOTSTYLENAME
350
E
  0
DICTIONARY
  5
D
102
{ACAD_REACTORS
330
C
102
}
330
C
100
AcDbDictionary
281
     1
  0
DICTIONARY
  5
1A
102
{ACAD_REACTORS
330
C
102
}
330
C
100
AcDbDictionary
281
     1
  3
Layout1
350
1C
  3
Model
350
1E
  0
DICTIONARY
  5
17
102
{ACAD_REACTORS
330
C
102
}
330
C
100
AcDbDictionary
281
     1
  3
Standard
350
18
  0
DICTIONARY
  5
19
102
{ACAD_REACTORS
330
C
102
}
330
C
100
AcDbDictionary
281
     1
  0
ACDBDICTIONARYWDFLT
  5
E
102
{ACAD_REACTORS
330
C
102
}
330
C
100
AcDbDictionary
281
     1
  3
Normal
350
F
100
AcDbDictionaryWithDefault
340
F
  0
LAYOUT
  5
1C
102
{ACAD_REACTORS
330
1A
102
}
330
1A
100
AcDbPlotSettings
  1

  2

  4

  6

 40
0.0
 41
0.0
 42
0.0
 43
0.0
 44
0.0
 45
0.0
 46
0.0
 47
0.0
 48
0.0
 49
0.0
140
0.0
141
0.0
142
1.0
143
1.0
 70
   688
 72
     0
 73
     0
 74
     5
  7

 75
    16
 76
     0
 77
     2
 78
   300
147
1.0
148
0.0
149
0.0
100
AcDbLayout
  1
Layout1
 70
     1
 71
     1
 10
0.0
 20
0.0
 11
12.0
 21
9.0
 12
0.0
 22
0.0
 32
0.0
 14
1.000000000000000E+20
 24
1.000000000000000E+20
 34
1.000000000000000E+20
 15
-1.000000000000000E+20
 25
-1.000000000000000E+20
 35
-1.000000000000000E+20
146
0.0
 13
0.0
 23
0.0
 33
0.0
 16
1.0
 26
0.0
 36
0.0
 17
0.0
 27
1.0
 37
0.0
 76
     0
330
1B
  0
LAYOUT
  5
1E
102
{ACAD_REACTORS
330
1A
102
}
330
1A
100
AcDbPlotSettings
  1

  2

  4

  6

 40
0.0
 41
0.0
 42
0.0
 43
0.0
 44
0.0
 45
0.0
 46
0.0
 47
0.0
 48
0.0
 49
0.0
140
0.0
141
0.0
142
1.0
143
1.0
 70
  1712
 72
     0
 73
     0
 74
     0
  7

 75
     0
 76
     0
 77
     2
 78
   300
147
1.0
148
0.0
149
0.0
100
AcDbLayout
  1
Model
 70
     1
 71
     0
 10
0.0
 20
0.0
 11
0.0
 21
0.0
 12
0.0
 22
0.0
 32
0.0
 14
-210.0
 24
-148.5
 34
0.0
 15
210.0
 25
148.5
 35
0.0
146
0.0
 13
0.0
 23
0.0
 33
0.0
 16
1.0
 26
0.0
 36
0.0
 17
0.0
 27
1.0
 37
0.0
 76
     0
330
1D
  0
MLINESTYLE
  5
18
102
{ACAD_REACTORS
330
17
102
}
330
17
100
AcDbMlineStyle
  2
Standard
 70
     0
  3

 62
   256
 51
90.0
 52
90.0
 71
     2
 49
0.5
 62
   256
  6
BYLAYER
 49
-0.5
 62
   256
  6
BYLAYER
  0
ACDBPLACEHOLDER
  5
F
102
{ACAD_REACTORS
330
E
102
}
330
E
  0
ENDSEC
  0
EOF
