  0
SECTION
  2
HEADER
  9
$ACADVER
  1
AC1018
  9
$ACADMAINTVER
 70
     0
  9
$DWGCODEPAGE
  3
ANSI_932
  9
$INSBASE
 10
0.0
 20
0.0
 30
0.0
  9
$EXTMIN
 10
-210.0
 20
-148.5
 30
0.0
  9
$EXTMAX
 10
210.0
 20
148.5
 30
0.0
  9
$LIMMIN
 10
0.0
 20
0.0
  9
$LIMMAX
 10
12.0
 20
9.0
  9
$ORTHOMODE
 70
     0
  9
$REGENMODE
 70
     1
  9
$FILLMODE
 70
     1
  9
$QTEXTMODE
 70
     0
  9
$MIRRTEXT
 70
     1
  9
$LTSCALE
 40
10.0
  9
$ATTMODE
 70
     1
  9
$TEXTSIZE
 40
0.2
  9
$TRACEWID
 40
0.05
  9
$TEXTSTYLE
  7
STANDARD
  9
$CLAYER
  8
0
  9
$CELTYPE
  6
ByBlock
  9
$CECOLOR
 62
   256
  9
$CELTSCALE
 40
1.0
  9
$DISPSILH
 70
     0
  9
$DIMSCALE
 40
1.0
  9
$DIMASZ
 40
0.18
  9
$DIMEXO
 40
0.0625
  9
$DIMDLI
 40
0.38
  9
$DIMRND
 40
0.0
  9
$DIMDLE
 40
0.0
  9
$DIMEXE
 40
0.18
  9
$DIMTP
 40
0.0
  9
$DIMTM
 40
0.0
  9
$DIMTXT
 40
0.18
  9
$DIMCEN
 40
0.09
  9
$DIMTSZ
 40
0.0
  9
$DIMTOL
 70
     0
  9
$DIMLIM
 70
     0
  9
$DIMTIH
 70
     1
  9
$DIMTOH
 70
     1
  9
$DIMSE1
 70
     0
  9
$DIMSE2
 70
     0
  9
$DIMTAD
 70
     0
  9
$DIMZIN
 70
     0
  9
$DIMBLK
  1

  9
$DIMASO
 70
     1
  9
$DIMSHO
 70
     1
  9
$DIMPOST
  1

  9
$DIMAPOST
  1

  9
$DIMALT
 70
     0
  9
$DIMALTD
 70
     2
  9
$DIMALTF
 40
25.4
  9
$DIMLFAC
 40
1.0
  9
$DIMTOFL
 70
     0
  9
$DIMTVP
 40
0.0
  9
$DIMTIX
 70
     0
  9
$DIMSOXD
 70
     0
  9
$DIMSAH
 70
     0
  9
$DIMBLK1
  1

  9
$DIMBLK2
  1

  9
$DIMSTYLE
  2
Standard
  9
$DIMCLRD
 70
     0
  9
$DIMCLRE
 70
     0
  9
$DIMCLRT
 70
     0
  9
$DIMTFAC
 40
1.0
  9
$DIMGAP
 40
0.09
  9
$DIMJUST
 70
     0
  9
$DIMSD1
 70
     0
  9
$DIMSD2
 70
     0
  9
$DIMTOLJ
 70
     1
  9
$DIMTZIN
 70
     0
  9
$DIMALTZ
 70
     0
  9
$DIMALTTZ
 70
     0
  9
$DIMUPT
 70
     0
  9
$DIMDEC
 70
     4
  9
$DIMTDEC
 70
     4
  9
$DIMALTU
 70
     2
  9
$DIMALTTD
 70
     2
  9
$DIMTXSTY
  7
STANDARD
  9
$DIMAUNIT
 70
     0
  9
$DIMADEC
 70
     0
  9
$DIMALTRND
 40
0.0
  9
$DIMAZIN
 70
     0
  9
$DIMDSEP
 70
    46
  9
$DIMATFIT
 70
     3
  9
$DIMFRAC
 70
     0
  9
$DIMLDRBLK
  1

  9
$DIMLUNIT
 70
     2
  9
$DIMLWD
 70
    -2
  9
$DIMLWE
 70
    -2
  9
$DIMTMOVE
 70
     0
  9
$LUNITS
 70
     2
  9
$LUPREC
 70
     4
  9
$SKETCHINC
 40
0.1
  9
$FILLETRAD
 40
0.5
  9
$AUNITS
 70
     0
  9
$AUPREC
 70
     0
  9
$MENU
  1
.
  9
$ELEVATION
 40
0.0
  9
$PELEVATION
 40
0.0
  9
$THICKNESS
 40
0.0
  9
$LIMCHECK
 70
     0
  9
$CHAMFERA
 40
0.5
  9
$CHAMFERB
 40
0.5
  9
$CHAMFERC
 40
1.0
  9
$CHAMFERD
 40
0.0
  9
$SKPOLY
 70
     0
  9
$TDCREATE
 40
2460242.409757419
  9
$TDUCREATE
 40
2460242.034757419
  9
$TDUPDATE
 40
2460242.409757431
  9
$TDUUPDATE
 40
2460242.034757431
  9
$TDINDWG
 40
0.0000000116
  9
$TDUSRTIMER
 40
0.0000000116
  9
$USRTIMER
 70
     1
  9
$ANGBASE
 50
0.0
  9
$ANGDIR
 70
     0
  9
$PDMODE
 70
    32
  9
$PDSIZE
 40
1.5
  9
$PLINEWID
 40
0.0
  9
$SPLFRAME
 70
     0
  9
$SPLINETYPE
 70
     6
  9
$SPLINESEGS
 70
     8
  9
$HANDSEED
  5
2CE
  9
$SURFTAB1
 70
     6
  9
$SURFTAB2
 70
     6
  9
$SURFTYPE
 70
     6
  9
$SURFU
 70
     6
  9
$SURFV
 70
     6
  9
$UCSBASE
  2

  9
$UCSNAME
  2

  9
$UCSORG
 10
0.0
 20
0.0
 30
0.0
  9
$UCSXDIR
 10
1.0
 20
0.0
 30
0.0
  9
$UCSYDIR
 10
0.0
 20
1.0
 30
0.0
  9
$UCSORTHOREF
  2

  9
$UCSORTHOVIEW
 70
     0
  9
$UCSORGTOP
 10
0.0
 20
0.0
 30
0.0
  9
$UCSORGBOTTOM
 10
0.0
 20
0.0
 30
0.0
  9
$UCSORGLEFT
 10
0.0
 20
0.0
 30
0.0
  9
$UCSORGRIGHT
 10
0.0
 20
0.0
 30
0.0
  9
$UCSORGFRONT
 10
0.0
 20
0.0
 30
0.0
  9
$UCSORGBACK
 10
0.0
 20
0.0
 30
0.0
  9
$PUCSBASE
  2

  9
$PUCSNAME
  2

  9
$PUCSORG
 10
0.0
 20
0.0
 30
0.0
  9
$PUCSXDIR
 10
1.0
 20
0.0
 30
0.0
  9
$PUCSYDIR
 10
0.0
 20
1.0
 30
0.0
  9
$PUCSORTHOREF
  2

  9
$PUCSORTHOVIEW
 70
     0
  9
$PUCSORGTOP
 10
0.0
 20
0.0
 30
0.0
  9
$PUCSORGBOTTOM
 10
0.0
 20
0.0
 30
0.0
  9
$PUCSORGLEFT
 10
0.0
 20
0.0
 30
0.0
  9
$PUCSORGRIGHT
 10
0.0
 20
0.0
 30
0.0
  9
$PUCSORGFRONT
 10
0.0
 20
0.0
 30
0.0
  9
$PUCSORGBACK
 10
0.0
 20
0.0
 30
0.0
  9
$USERI1
 70
     0
  9
$USERI2
 70
     0
  9
$USERI3
 70
     0
  9
$USERI4
 70
     0
  9
$USERI5
 70
     0
  9
$USERR1
 40
0.0
  9
$USERR2
 40
0.0
  9
$USERR3
 40
0.0
  9
$USERR4
 40
0.0
  9
$USERR5
 40
0.0
  9
$WORLDVIEW
 70
     1
  9
$SHADEDGE
 70
     3
  9
$SHADEDIF
 70
    70
  9
$TILEMODE
 70
     1
  9
$MAXACTVP
 70
    64
  9
$PINSBASE
 10
0.0
 20
0.0
 30
0.0
  9
$PLIMCHECK
 70
     0
  9
$PEXTMIN
 10
1.000000000000000E+20
 20
1.000000000000000E+20
 30
1.000000000000000E+20
  9
$PEXTMAX
 10
-1.000000000000000E+20
 20
-1.000000000000000E+20
 30
-1.000000000000000E+20
  9
$PLIMMIN
 10
0.0
 20
0.0
  9
$PLIMMAX
 10
12.0
 20
9.0
  9
$UNITMODE
 70
     0
  9
$VISRETAIN
 70
     1
  9
$PLINEGEN
 70
     0
  9
$PSLTSCALE
 70
     1
  9
$TREEDEPTH
 70
  3020
  9
$CMLSTYLE
  2
Standard
  9
$CMLJUST
 70
     0
  9
$CMLSCALE
 40
1.0
  9
$PROXYGRAPHICS
 70
     1
  9
$MEASUREMENT
 70
     0
  9
$CELWEIGHT
370
    -1
  9
$ENDCAPS
280
     0
  9
$JOINSTYLE
280
     0
  9
$LWDISPLAY
290
     0
  9
$INSUNITS
 70
     0
  9
$HYPERLINKBASE
  1

  9
$STYLESHEET
  1

  9
$XEDIT
290
     1
  9
$CEPSNTYPE
380
     0
  9
$PSTYLEMODE
290
     1
  9
$FINGERPRINTGUID
  2
{DA441B28-2F2A-4A8A-9169-73CD8C9C014E}
  9
$VERSIONGUID
  2
{FAEB1C32-E019-11D5-929B-00C0DF256EC4}
  9
$EXTNAMES
290
     1
  9
$PSVPSCALE
 40
0.0
  9
$OLESTARTUP
290
     0
  9
$SORTENTS
280
   127
  9
$INDEXCTL
280
     0
  9
$HIDETEXT
280
     1
  9
$XCLIPFRAME
290
     0
  9
$HALOGAP
280
     0
  9
$OBSCOLOR
 70
   257
  9
$OBSLTYPE
280
     0
  9
$INTERSECTIONDISPLAY
280
     0
  9
$INTERSECTIONCOLOR
 70
   257
  9
$DIMASSOC
280
     2
  9
$PROJECTNAME
  1

  0
ENDSEC
  0
SECTION
  2
CLASSES
  0
CLASS
  1
ACDBDICTIONARYWDFLT
  2
AcDbDictionaryWithDefault
  3
ObjectDBX Classes
 90
        0
 91
        3
280
     0
281
     0
  0
ENDSEC
  0
SECTION
  2
TABLES
  0
TABLE
  2
VPORT
  5
8
330
0
100
AcDbSymbolTable
 70
     1
  0
VPORT
  5
2C9
330
8
100
AcDbSymbolTableRecord
100
AcDbViewportTableRecord
  2
*Active
 70
     0
 10
0.0
 20
0.0
 11
1.0
 21
1.0
 12
10.42990654205607
 22
4.5
 13
0.0
 23
0.0
 14
0.5
 24
0.5
 15
0.5
 25
0.5
 16
0.0
 26
0.0
 36
1.0
 17
0.0
 27
0.0
 37
0.0
 40
9.0
 41
1.972972972850329
 42
50.0
 43
0.0
 44
0.0
 50
0.0
 51
0.0
 71
     0
 72
   100
 73
     1
 74
     3
 75
     0
 76
     0
 77
     0
 78
     0
281
     0
 65
     1
110
0.0
120
0.0
130
0.0
111
1.0
121
0.0
131
0.0
112
0.0
122
1.0
132
0.0
 79
     0
146
0.0
  0
ENDTAB
  0
TABLE
  2
LTYPE
  5
5
330
0
100
AcDbSymbolTable
 70
     9
  0
LTYPE
  5
14
330
5
100
AcDbSymbolTableRecord
100
AcDbLinetypeTableRecord
  2
ByBlock
 70
     0
  3

 72
    65
 73
     0
 40
0.0
  0
LTYPE
  5
15
330
5
100
AcDbSymbolTableRecord
100
AcDbLinetypeTableRecord
  2
ByLayer
 70
     0
  3

 72
    65
 73
     0
 40
0.0
  0
LTYPE
  5
16
330
5
100
AcDbSymbolTableRecord
100
AcDbLinetypeTableRecord
  2
CONTINUOUS
 70
     0
  3
実線
 72
    65
 73
     0
 40
0.0
  0
LTYPE
  5
21
330
5
100
AcDbSymbolTableRecord
100
AcDbLinetypeTableRecord
  2
DASHED
 70
     0
  3
破線A
 72
    65
 73
     2
 40
0.6000000000000001
 49
0.4
 74
     0
 49
-0.2
 74
     0
  0
LTYPE
  5
22
330
5
100
AcDbSymbolTableRecord
100
AcDbLinetypeTableRecord
  2
DASHEDX2
 70
     0
  3
破線B
 72
    65
 73
     2
 40
1.3
 49
0.9
 74
     0
 49
-0.4
 74
     0
  0
LTYPE
  5
23
330
5
100
AcDbSymbolTableRecord
100
AcDbLinetypeTableRecord
  2
DASHDOT
 70
     0
  3
１点鎖線A
 72
    65
 73
     4
 40
0.5375
 49
0.375
 74
     0
 49
-0.05
 74
     0
 49
0.0625
 74
     0
 49
-0.05
 74
     0
  0
LTYPE
  5
24
330
5
100
AcDbSymbolTableRecord
100
AcDbLinetypeTableRecord
  2
DASHDOTX2
 70
     0
  3
１点鎖線B
 72
    65
 73
     4
 40
1.075
 49
0.75
 74
     0
 49
-0.1
 74
     0
 49
0.125
 74
     0
 49
-0.1
 74
     0
  0
LTYPE
  5
25
330
5
100
AcDbSymbolTableRecord
100
AcDbLinetypeTableRecord
  2
DIVIDE2
 70
     0
  3
２点鎖線A
 72
    65
 73
     6
 40
0.5125
 49
0.3
 74
     0
 49
-0.0375
 74
     0
 49
0.05
 74
     0
 49
-0.0375
 74
     0
 49
0.05
 74
     0
 49
-0.0375
 74
     0
  0
LTYPE
  5
26
330
5
100
AcDbSymbolTableRecord
100
AcDbLinetypeTableRecord
  2
DIVIDE
 70
     0
  3
２点鎖線B
 72
    65
 73
     6
 40
1.05
 49
0.55
 74
     0
 49
-0.1
 74
     0
 49
0.1
 74
     0
 49
-0.1
 74
     0
 49
0.1
 74
     0
 49
-0.1
 74
     0
  0
LTYPE
  5
27
330
5
100
AcDbSymbolTableRecord
100
AcDbLinetypeTableRecord
  2
DOT
 70
     0
  3
点線A
 72
    65
 73
     2
 40
0.1125
 49
0.0625
 74
     0
 49
-0.05
 74
     0
  0
LTYPE
  5
28
330
5
100
AcDbSymbolTableRecord
100
AcDbLinetypeTableRecord
  2
DOTX2
 70
     0
  3
点線B
 72
    65
 73
     2
 40
0.275
 49
0.15
 74
     0
 49
-0.125
 74
     0
  0
ENDTAB
  0
TABLE
  2
LAYER
  5
2
330
0
100
AcDbSymbolTable
 70
    34
  0
LAYER
  5
10
330
2
100
AcDbSymbolTableRecord
100
AcDbLayerTableRecord
  2
0
 70
     0
 62
    17
  6
CONTINUOUS
370
    -3
390
F
  0
LAYER
  5
2F
330
2
100
AcDbSymbolTableRecord
100
AcDbLayerTableRecord
  2
通り芯
 70
     0
 62
    15
  6
CONTINUOUS
370
    -3
390
F
  0
LAYER
  5
30
330
2
100
AcDbSymbolTableRecord
100
AcDbLayerTableRecord
  2
補助線
 70
     0
 62
    16
  6
DOT
370
    -3
390
F
  0
LAYER
  5
31
330
2
100
AcDbSymbolTableRecord
100
AcDbLayerTableRecord
  2
躯体
 70
     0
 62
    31
  6
CONTINUOUS
370
    -3
390
F
  0
LAYER
  5
32
330
2
100
AcDbSymbolTableRecord
100
AcDbLayerTableRecord
  2
型材
 70
     0
 62
    32
  6
CONTINUOUS
370
    -3
390
F
  0
LAYER
  5
33
330
2
100
AcDbSymbolTableRecord
100
AcDbLayerTableRecord
  2
型材断面
 70
     0
 62
    47
  6
CONTINUOUS
370
    -3
390
F
  0
LAYER
  5
34
330
2
100
AcDbSymbolTableRecord
100
AcDbLayerTableRecord
  2
ガラス
 70
     0
 62
    48
  6
CONTINUOUS
370
    -3
390
F
  0
LAYER
  5
35
330
2
100
AcDbSymbolTableRecord
100
AcDbLayerTableRecord
  2
ゴム等
 70
     0
 62
    63
  6
CONTINUOUS
370
    -3
390
F
  0
LAYER
  5
36
330
2
100
AcDbSymbolTableRecord
100
AcDbLayerTableRecord
  2
ボルト／ビス
 70
     0
 62
    64
  6
CONTINUOUS
370
    -3
390
F
  0
LAYER
  5
37
330
2
100
AcDbSymbolTableRecord
100
AcDbLayerTableRecord
  2
文字
 70
     0
 62
    79
  6
CONTINUOUS
370
    -3
390
F
  0
LAYER
  5
38
330
2
100
AcDbSymbolTableRecord
100
AcDbLayerTableRecord
  2
寸法
 70
     0
 62
    80
  6
CONTINUOUS
370
    -3
390
F
  0
LAYER
  5
39
330
2
100
AcDbSymbolTableRecord
100
AcDbLayerTableRecord
  2
ﾊｯﾁﾝｸﾞ
 70
     0
 62
    95
  6
CONTINUOUS
370
    -3
390
F
  0
LAYER
  5
3A
330
2
100
AcDbSymbolTableRecord
100
AcDbLayerTableRecord
  2
別途部材
 70
     0
 62
    96
  6
CONTINUOUS
370
    -3
390
F
  0
LAYER
  5
3B
330
2
100
AcDbSymbolTableRecord
100
AcDbLayerTableRecord
  2
曲げ物
 70
     0
 62
   111
  6
CONTINUOUS
370
    -3
390
F
  0
LAYER
  5
3C
330
2
100
AcDbSymbolTableRecord
100
AcDbLayerTableRecord
  2
鉄骨等
 70
     0
 62
   112
  6
CONTINUOUS
370
    -3
390
F
  0
LAYER
  5
3D
330
2
100
AcDbSymbolTableRecord
100
AcDbLayerTableRecord
  2
St
 70
     0
 62
   127
  6
CONTINUOUS
370
    -3
390
F
  0
LAYER
  5
3E
330
2
100
AcDbSymbolTableRecord
100
AcDbLayerTableRecord
  2
その他部品等
 70
     0
 62
   128
  6
CONTINUOUS
370
    -3
390
F
  0
LAYER
  5
3F
330
2
100
AcDbSymbolTableRecord
100
AcDbLayerTableRecord
  2
ｶﾞｽｹｯﾄ
 70
     0
 62
   143
  6
CONTINUOUS
370
    -3
390
F
  0
LAYER
  5
40
330
2
100
AcDbSymbolTableRecord
100
AcDbLayerTableRecord
  2
ｽｹｯﾁ
 70
     0
 62
    14
  6
CONTINUOUS
370
    -3
390
F
  0
LAYER
  5
42
330
2
100
AcDbSymbolTableRecord
100
AcDbLayerTableRecord
  2
1
 70
     0
 62
    30
  6
CONTINUOUS
370
    -3
390
F
  0
LAYER
  5
43
330
2
100
AcDbSymbolTableRecord
100
AcDbLayerTableRecord
  2
4
 70
     0
 62
    33
  6
CONTINUOUS
370
    -3
390
F
  0
LAYER
  5
44
330
2
100
AcDbSymbolTableRecord
100
AcDbLayerTableRecord
  2
ﾚｲﾔ3
 70
     0
 62
    46
  6
CONTINUOUS
370
    -3
390
F
  0
LAYER
  5
45
330
2
100
AcDbSymbolTableRecord
100
AcDbLayerTableRecord
  2
外形線
 70
     0
 62
    49
  6
CONTINUOUS
370
    -3
390
F
  0
LAYER
  5
46
330
2
100
AcDbSymbolTableRecord
100
AcDbLayerTableRecord
  2
部品
 70
     0
 62
    14
  6
CONTINUOUS
370
    -3
390
F
  0
LAYER
  5
47
330
2
100
AcDbSymbolTableRecord
100
AcDbLayerTableRecord
  2
サッシ芯
 70
     0
 62
    17
  6
DASHDOTX2
370
    -3
390
F
  0
LAYER
  5
48
330
2
100
AcDbSymbolTableRecord
100
AcDbLayerTableRecord
  2
寸法線
 70
     0
 62
    62
  6
CONTINUOUS
370
    -3
390
F
  0
LAYER
  5
49
330
2
100
AcDbSymbolTableRecord
100
AcDbLayerTableRecord
  2
姿図外形線
 70
     0
 62
    65
  6
CONTINUOUS
370
    -3
390
F
  0
LAYER
  5
4A
330
2
100
AcDbSymbolTableRecord
100
AcDbLayerTableRecord
  2
姿補助線
 70
     0
 62
    30
  6
CONTINUOUS
370
    -3
390
F
  0
LAYER
  5
4B
330
2
100
AcDbSymbolTableRecord
100
AcDbLayerTableRecord
  2
透視線
 70
     0
 62
    78
  6
DOT
370
    -3
390
F
  0
LAYER
  5
4C
330
2
100
AcDbSymbolTableRecord
100
AcDbLayerTableRecord
  2
用紙
 70
     0
 62
    81
  6
CONTINUOUS
370
    -3
390
F
  0
LAYER
  5
4D
330
2
100
AcDbSymbolTableRecord
100
AcDbLayerTableRecord
  2
実線図枠
 70
     0
 62
    94
  6
CONTINUOUS
370
    -3
390
F
  0
LAYER
  5
4E
330
2
100
AcDbSymbolTableRecord
100
AcDbLayerTableRecord
  2
補助図枠
 70
     0
 62
    97
  6
CONTINUOUS
370
    -3
390
F
  0
LAYER
  5
4F
330
2
100
AcDbSymbolTableRecord
100
AcDbLayerTableRecord
  2
建具記号
 70
     0
 62
   110
  6
CONTINUOUS
370
    -3
390
F
  0
LAYER
  5
50
330
2
100
AcDbSymbolTableRecord
100
AcDbLayerTableRecord
  2
補助文字
 70
     0
 62
   113
  6
CONTINUOUS
370
    -3
390
F
  0
ENDTAB
  0
TABLE
  2
STYLE
  5
3
330
0
100
AcDbSymbolTable
 70
    10
  0
STYLE
  5
11
330
3
100
AcDbSymbolTableRecord
100
AcDbTextStyleTableRecord
  2
STANDARD
 70
     0
 40
1.0
 41
1.0
 50
0.0
 71
     0
 42
1.0
  3
TXT
  4
BIGFONT
  0
STYLE
  5
52
330
3
100
AcDbSymbolTableRecord
100
AcDbTextStyleTableRecord
  2
TATE
 70
     4
 40
1.0
 41
1.0
 50
0.0
 71
     0
 42
1.0
  3
TXT
  4
BIGFONT
  0
STYLE
  5
53
330
3
100
AcDbSymbolTableRecord
100
AcDbTextStyleTableRecord
  2
TextStyle03
 70
     0
 40
1.0
 41
1.0
 50
0.0
 71
     0
 42
1.0
  3
MONOTXT
  4
BIGFONT
  0
STYLE
  5
54
330
3
100
AcDbSymbolTableRecord
100
AcDbTextStyleTableRecord
  2
TextStyle04
 70
     0
 40
1.0
 41
1.0
 50
0.0
 71
     0
 42
1.0
  3
MONOTXT
  4
BIGFONT
  0
STYLE
  5
55
330
3
100
AcDbSymbolTableRecord
100
AcDbTextStyleTableRecord
  2
TextStyle05
 70
     0
 40
1.0
 41
1.0
 50
0.0
 71
     0
 42
1.0
  3
MONOTXT
  4
BIGFONT
  0
STYLE
  5
56
330
3
100
AcDbSymbolTableRecord
100
AcDbTextStyleTableRecord
  2
TextStyle06
 70
     0
 40
1.0
 41
1.0
 50
0.0
 71
     0
 42
1.0
  3
MONOTXT
  4
BIGFONT
  0
STYLE
  5
57
330
3
100
AcDbSymbolTableRecord
100
AcDbTextStyleTableRecord
  2
TextStyle07
 70
     0
 40
1.0
 41
1.0
 50
0.0
 71
     0
 42
1.0
  3
MONOTXT
  4
BIGFONT
  0
STYLE
  5
58
330
3
100
AcDbSymbolTableRecord
100
AcDbTextStyleTableRecord
  2
TextStyle08
 70
     0
 40
1.0
 41
1.0
 50
0.0
 71
     0
 42
1.0
  3
MONOTXT
  4
BIGFONT
  0
STYLE
  5
59
330
3
100
AcDbSymbolTableRecord
100
AcDbTextStyleTableRecord
  2
TextStyle09
 70
     0
 40
1.0
 41
1.0
 50
0.0
 71
     0
 42
1.0
  3
MONOTXT
  4
BIGFONT
  0
STYLE
  5
5A
330
3
100
AcDbSymbolTableRecord
100
AcDbTextStyleTableRecord
  2
TextStyle10
 70
     0
 40
1.0
 41
1.0
 50
0.0
 71
     0
 42
1.0
  3
MONOTXT
  4
BIGFONT
  0
ENDTAB
  0
TABLE
  2
VIEW
  5
6
330
0
100
AcDbSymbolTable
 70
     0
  0
ENDTAB
  0
TABLE
  2
UCS
  5
7
330
0
100
AcDbSymbolTable
 70
     0
  0
ENDTAB
  0
TABLE
  2
APPID
  5
9
330
0
100
AcDbSymbolTable
 70
     1
  0
APPID
  5
12
330
9
100
AcDbSymbolTableRecord
100
AcDbRegAppTableRecord
  2
ACAD
 70
     0
  0
ENDTAB
  0
TABLE
  2
DIMSTYLE
  5
A
330
0
100
AcDbSymbolTable
 70
     1
100
AcDbDimStyleTable
  0
DIMSTYLE
105
5B
330
A
100
AcDbSymbolTableRecord
100
AcDbDimStyleTableRecord
  2
Standard
 70
     0
340
11
  0
ENDTAB
  0
TABLE
  2
BLOCK_RECORD
  5
1
330
0
100
AcDbSymbolTable
 70
    25
  0
BLOCK_RECORD
  5
1D
330
1
100
AcDbSymbolTableRecord
100
AcDbBlockTableRecord
  2
*Model_Space
340
1E
  0
BLOCK_RECORD
  5
1B
330
1
100
AcDbSymbolTableRecord
100
AcDbBlockTableRecord
  2
*Paper_Space
340
1C
  0
BLOCK_RECORD
  5
5D
330
1
100
AcDbSymbolTableRecord
100
AcDbBlockTableRecord
  2
*U0
340
0
102
{BLKREFS
331
21C
102
}
  0
BLOCK_RECORD
  5
66
330
1
100
AcDbSymbolTableRecord
100
AcDbBlockTableRecord
  2
*U1
340
0
102
{BLKREFS
331
28D
102
}
  0
BLOCK_RECORD
  5
6D
330
1
100
AcDbSymbolTableRecord
100
AcDbBlockTableRecord
  2
*U2
340
0
102
{BLKREFS
331
28E
102
}
  0
BLOCK_RECORD
  5
76
330
1
100
AcDbSymbolTableRecord
100
AcDbBlockTableRecord
  2
*U3
340
0
102
{BLKREFS
331
2C0
102
}
  0
BLOCK_RECORD
  5
129
330
1
100
AcDbSymbolTableRecord
100
AcDbBlockTableRecord
  2
*U4
340
0
102
{BLKREFS
331
28F
102
}
  0
BLOCK_RECORD
  5
132
330
1
100
AcDbSymbolTableRecord
100
AcDbBlockTableRecord
  2
*U5
340
0
102
{BLKREFS
331
290
102
}
  0
BLOCK_RECORD
  5
13A
330
1
100
AcDbSymbolTableRecord
100
AcDbBlockTableRecord
  2
*U6
340
0
102
{BLKREFS
331
291
102
}
  0
BLOCK_RECORD
  5
143
330
1
100
AcDbSymbolTableRecord
100
AcDbBlockTableRecord
  2
*U7
340
0
102
{BLKREFS
331
292
102
}
  0
BLOCK_RECORD
  5
14A
330
1
100
AcDbSymbolTableRecord
100
AcDbBlockTableRecord
  2
*U8
340
0
102
{BLKREFS
331
293
102
}
  0
BLOCK_RECORD
  5
153
330
1
100
AcDbSymbolTableRecord
100
AcDbBlockTableRecord
  2
*U9
340
0
102
{BLKREFS
331
294
102
}
  0
BLOCK_RECORD
  5
15C
330
1
100
AcDbSymbolTableRecord
100
AcDbBlockTableRecord
  2
*U10
340
0
102
{BLKREFS
331
295
102
}
  0
BLOCK_RECORD
  5
163
330
1
100
AcDbSymbolTableRecord
100
AcDbBlockTableRecord
  2
*U11
340
0
102
{BLKREFS
331
296
102
}
  0
BLOCK_RECORD
  5
16C
330
1
100
AcDbSymbolTableRecord
100
AcDbBlockTableRecord
  2
*U12
340
0
102
{BLKREFS
331
297
102
}
  0
BLOCK_RECORD
  5
173
330
1
100
AcDbSymbolTableRecord
100
AcDbBlockTableRecord
  2
*U13
340
0
102
{BLKREFS
331
298
102
}
  0
BLOCK_RECORD
  5
17A
330
1
100
AcDbSymbolTableRecord
100
AcDbBlockTableRecord
  2
*U14
340
0
102
{BLKREFS
331
299
102
}
  0
BLOCK_RECORD
  5
181
330
1
100
AcDbSymbolTableRecord
100
AcDbBlockTableRecord
  2
*U15
340
0
102
{BLKREFS
331
29A
102
}
  0
BLOCK_RECORD
  5
189
330
1
100
AcDbSymbolTableRecord
100
AcDbBlockTableRecord
  2
*U16
340
0
102
{BLKREFS
331
29B
102
}
  0
BLOCK_RECORD
  5
191
330
1
100
AcDbSymbolTableRecord
100
AcDbBlockTableRecord
  2
*U17
340
0
102
{BLKREFS
331
29C
102
}
  0
BLOCK_RECORD
  5
19A
330
1
100
AcDbSymbolTableRecord
100
AcDbBlockTableRecord
  2
*U18
340
0
102
{BLKREFS
331
29D
102
}
  0
BLOCK_RECORD
  5
1A3
330
1
100
AcDbSymbolTableRecord
100
AcDbBlockTableRecord
  2
*U19
340
0
102
{BLKREFS
331
29E
102
}
  0
BLOCK_RECORD
  5
1AB
330
1
100
AcDbSymbolTableRecord
100
AcDbBlockTableRecord
  2
*U20
340
0
102
{BLKREFS
331
29F
102
}
  0
BLOCK_RECORD
  5
1B3
330
1
100
AcDbSymbolTableRecord
100
AcDbBlockTableRecord
  2
*U21
340
0
102
{BLKREFS
331
2C1
102
}
  0
BLOCK_RECORD
  5
1CC
330
1
100
AcDbSymbolTableRecord
100
AcDbBlockTableRecord
  2
*U22
340
0
102
{BLKREFS
331
2C2
102
}
  0
BLOCK_RECORD
  5
1E5
330
1
100
AcDbSymbolTableRecord
100
AcDbBlockTableRecord
  2
*U23
340
0
102
{BLKREFS
331
2C3
102
}
  0
BLOCK_RECORD
  5
1FE
330
1
100
AcDbSymbolTableRecord
100
AcDbBlockTableRecord
  2
*U24
340
0
102
{BLKREFS
331
2C4
102
}
  0
ENDTAB
  0
ENDSEC
  0
SECTION
  2
BLOCKS
  0
BLOCK
  5
2CA
330
1D
100
AcDbEntity
  8
0
100
AcDbBlockBegin
  2
*Model_Space
 70
     0
 71
     0
 10
0.0
 20
0.0
 30
0.0
  3
*Model_Space
  1

  0
ENDBLK
  5
2CB
330
1D
100
AcDbEntity
  8
0
100
AcDbBlockEnd
  0
BLOCK
  5
2CC
330
1B
100
AcDbEntity
 67
     1
  8
0
100
AcDbBlockBegin
  2
*Paper_Space
 70
     0
 71
     0
 10
0.0
 20
0.0
 30
0.0
  3
*Paper_Space
  1

  0
ENDBLK
  5
2CD
330
1B
100
AcDbEntity
 67
     1
  8
0
100
AcDbBlockEnd
  0
BLOCK
  5
5C
330
5D
100
AcDbEntity
  8
0
100
AcDbBlockBegin
  2
*U0
 70
     1
 71
     0
 10
0.0
 20
0.0
 30
0.0
  3
*U0
  1

  0
LINE
  5
5E
330
5D
100
AcDbEntity
  8
型材断面
  6
Continuous
100
AcDbLine
 10
195.0
 20
133.5
 30
0.0
 11
195.0
 21
-133.5
 31
0.0
  0
LINE
  5
5F
330
5D
100
AcDbEntity
  8
型材断面
  6
Continuous
100
AcDbLine
 10
195.0
 20
-133.5
 30
0.0
 11
-185.0
 21
-133.5
 31
0.0
  0
LINE
  5
60
330
5D
100
AcDbEntity
  8
型材断面
  6
Continuous
100
AcDbLine
 10
-185.0
 20
-133.5
 30
0.0
 11
-185.0
 21
133.5
 31
0.0
  0
LINE
  5
61
330
5D
100
AcDbEntity
  8
型材断面
  6
Continuous
100
AcDbLine
 10
195.0
 20
133.5
 30
0.0
 11
-185.0
 21
133.5
 31
0.0
  0
LINE
  5
62
330
5D
100
AcDbEntity
  8
型材断面
  6
Continuous
100
AcDbLine
 10
145.0
 20
-133.5
 30
0.0
 11
145.0
 21
-118.5
 31
0.0
  0
LINE
  5
63
330
5D
100
AcDbEntity
  8
型材断面
  6
Continuous
100
AcDbLine
 10
195.0
 20
-118.5
 30
0.0
 11
145.0
 21
-118.5
 31
0.0
  0
ENDBLK
  5
64
330
5D
100
AcDbEntity
  8
0
100
AcDbBlockEnd
  0
BLOCK
  5
65
330
66
100
AcDbEntity
  8
0
100
AcDbBlockBegin
  2
*U1
 70
     1
 71
     0
 10
0.0
 20
0.0
 30
0.0
  3
*U1
  1

  0
LINE
  5
67
330
66
100
AcDbEntity
  8
寸法
  6
ByBlock
 62
     0
100
AcDbLine
 10
45.579775
 20
-29.63158
 30
0.0
 11
-71.08689200000001
 21
-29.63158
 31
0.0
  0
POINT
  5
68
330
66
100
AcDbEntity
  8
寸法
 62
     0
100
AcDbPoint
 10
45.579775
 20
-29.63158
 30
0.0
  0
POINT
  5
69
330
66
100
AcDbEntity
  8
寸法
 62
     0
100
AcDbPoint
 10
-71.08689200000001
 20
-29.63158
 30
0.0
  0
TEXT
  5
6A
330
66
100
AcDbEntity
  8
寸法
  6
Continuous
 62
     0
100
AcDbText
 10
-24.49375
 20
-29.275
 30
0.0
 40
3.0
  1
呼称寸法　3500
  7
TextStyle03
 72
     5
 11
-1.05625
 21
-29.275
 31
0.0
100
AcDbText
  0
ENDBLK
  5
6B
330
66
100
AcDbEntity
  8
0
100
AcDbBlockEnd
  0
BLOCK
  5
6C
330
6D
100
AcDbEntity
  8
0
100
AcDbBlockBegin
  2
*U2
 70
     1
 71
     0
 10
0.0
 20
0.0
 30
0.0
  3
*U2
  1

  0
LINE
  5
6E
330
6D
100
AcDbEntity
  8
寸法
  6
ByBlock
 62
     0
100
AcDbLine
 10
-54.420225
 20
-5.54017
 30
0.0
 11
-54.420225
 21
-10.29437
 31
0.0
  0
LINE
  5
6F
330
6D
100
AcDbEntity
  8
寸法
  6
ByBlock
 62
     0
100
AcDbLine
 10
28.91311
 20
-5.54017
 30
0.0
 11
28.91311
 21
-10.29437
 31
0.0
  0
LINE
  5
70
330
6D
100
AcDbEntity
  8
寸法
  6
ByBlock
 62
     0
100
AcDbLine
 10
-54.420225
 20
-10.29437
 30
0.0
 11
28.91311
 21
-10.29437
 31
0.0
  0
POINT
  5
71
330
6D
100
AcDbEntity
  8
寸法
 62
     0
100
AcDbPoint
 10
-54.420225
 20
-10.29437
 30
0.0
  0
POINT
  5
72
330
6D
100
AcDbEntity
  8
寸法
 62
     0
100
AcDbPoint
 10
28.91311
 20
-10.29437
 30
0.0
  0
TEXT
  5
73
330
6D
100
AcDbEntity
  8
寸法
  6
Continuous
 62
     0
100
AcDbText
 10
-16.05625
 20
-9.925000000000001
 30
0.0
 40
3.0
  1
2500
  7
TextStyle03
 72
     5
 11
-9.49375
 21
-9.925000000000001
 31
0.0
100
AcDbText
  0
ENDBLK
  5
74
330
6D
100
AcDbEntity
  8
0
100
AcDbBlockEnd
  0
BLOCK
  5
75
330
76
100
AcDbEntity
  8
0
100
AcDbBlockBegin
  2
*U3
 70
     1
 71
     0
 10
0.0
 20
0.0
 30
0.0
  3
*U3
  1

  0
LINE
  5
77
330
76
100
AcDbEntity
  8
別途部材
  6
Continuous
 62
    96
100
AcDbLine
 10
-72.753557
 20
-79.62459699999999
 30
0.0
 11
-73.15355700000001
 21
-80.62459699999999
 31
0.0
  0
LINE
  5
78
330
76
100
AcDbEntity
  8
別途部材
  6
Continuous
 62
    96
100
AcDbLine
 10
-72.753557
 20
-79.62459699999999
 30
0.0
 11
-12.753557
 21
-79.62459699999999
 31
0.0
  0
LINE
  5
79
330
76
100
AcDbEntity
  8
別途部材
  6
Continuous
100
AcDbLine
 10
-73.15355700000001
 20
-80.62459699999999
 30
0.0
 11
-12.753557
 21
-80.62459699999999
 31
0.0
  0
LINE
  5
7A
330
76
100
AcDbEntity
  8
別途部材
  6
Continuous
100
AcDbLine
 10
-13.253557
 20
-79.62459699999999
 30
0.0
 11
-13.253557
 21
-61.95793
 31
0.0
  0
LINE
  5
7B
330
76
100
AcDbEntity
  8
別途部材
  6
Continuous
100
AcDbLine
 10
-16.253557
 20
-79.62459699999999
 30
0.0
 11
-16.253557
 21
-61.95793
 31
0.0
  0
LINE
  5
7C
330
76
100
AcDbEntity
  8
別途部材
  6
Continuous
100
AcDbLine
 10
-13.253557
 20
-61.95793
 30
0.0
 11
-14.253557
 21
-62.95793
 31
0.0
  0
LINE
  5
7D
330
76
100
AcDbEntity
  8
別途部材
  6
Continuous
100
AcDbLine
 10
-17.253557
 20
-79.62459699999999
 30
0.0
 11
-17.253557
 21
-61.95793
 31
0.0
  0
LINE
  5
7E
330
76
100
AcDbEntity
  8
別途部材
  6
Continuous
100
AcDbLine
 10
-15.253557
 20
-62.95793
 30
0.0
 11
-16.253557
 21
-61.95793
 31
0.0
  0
LINE
  5
7F
330
76
100
AcDbEntity
  8
別途部材
  6
Continuous
100
AcDbLine
 10
-17.253557
 20
-61.95793
 30
0.0
 11
-18.253557
 21
-62.95793
 31
0.0
  0
LINE
  5
80
330
76
100
AcDbEntity
  8
別途部材
  6
Continuous
100
AcDbLine
 10
-16.253557
 20
-61.95793
 30
0.0
 11
-17.253557
 21
-61.95793
 31
0.0
  0
LINE
  5
81
330
76
100
AcDbEntity
  8
別途部材
  6
Continuous
100
AcDbLine
 10
-13.253557
 20
-61.95793
 30
0.0
 11
-12.753557
 21
-61.95793
 31
0.0
  0
LINE
  5
82
330
76
100
AcDbEntity
  8
別途部材
  6
Continuous
100
AcDbLine
 10
-19.253557
 20
-62.95793
 30
0.0
 11
-20.253557
 21
-61.95793
 31
0.0
  0
LINE
  5
83
330
76
100
AcDbEntity
  8
別途部材
  6
Continuous
100
AcDbLine
 10
-21.253557
 20
-61.95793
 30
0.0
 11
-22.253557
 21
-62.95793
 31
0.0
  0
LINE
  5
84
330
76
100
AcDbEntity
  8
別途部材
  6
Continuous
100
AcDbLine
 10
-20.253557
 20
-61.95793
 30
0.0
 11
-21.253557
 21
-61.95793
 31
0.0
  0
LINE
  5
85
330
76
100
AcDbEntity
  8
別途部材
  6
Continuous
100
AcDbLine
 10
-15.253557
 20
-79.62459699999999
 30
0.0
 11
-15.253557
 21
-62.95793
 31
0.0
  0
LINE
  5
86
330
76
100
AcDbEntity
  8
別途部材
  6
Continuous
100
AcDbLine
 10
-18.253557
 20
-79.62459699999999
 30
0.0
 11
-18.253557
 21
-62.95793
 31
0.0
  0
LINE
  5
87
330
76
100
AcDbEntity
  8
別途部材
  6
Continuous
100
AcDbLine
 10
-19.253557
 20
-79.62459699999999
 30
0.0
 11
-19.253557
 21
-62.95793
 31
0.0
  0
LINE
  5
88
330
76
100
AcDbEntity
  8
別途部材
  6
Continuous
100
AcDbLine
 10
-20.253557
 20
-79.62459699999999
 30
0.0
 11
-20.253557
 21
-61.95793
 31
0.0
  0
LINE
  5
89
330
76
100
AcDbEntity
  8
別途部材
  6
Continuous
100
AcDbLine
 10
-21.253557
 20
-79.62459699999999
 30
0.0
 11
-21.253557
 21
-61.95793
 31
0.0
  0
LINE
  5
8A
330
76
100
AcDbEntity
  8
別途部材
  6
Continuous
100
AcDbLine
 10
-22.253557
 20
-79.62459699999999
 30
0.0
 11
-22.253557
 21
-62.95793
 31
0.0
  0
LINE
  5
8B
330
76
100
AcDbEntity
  8
別途部材
  6
Continuous
100
AcDbLine
 10
-23.253557
 20
-62.95793
 30
0.0
 11
-24.253557
 21
-61.95793
 31
0.0
  0
LINE
  5
8C
330
76
100
AcDbEntity
  8
別途部材
  6
Continuous
100
AcDbLine
 10
-25.253557
 20
-61.95793
 30
0.0
 11
-26.253557
 21
-62.95793
 31
0.0
  0
LINE
  5
8D
330
76
100
AcDbEntity
  8
別途部材
  6
Continuous
100
AcDbLine
 10
-24.253557
 20
-61.95793
 30
0.0
 11
-25.253557
 21
-61.95793
 31
0.0
  0
LINE
  5
8E
330
76
100
AcDbEntity
  8
別途部材
  6
Continuous
100
AcDbLine
 10
-23.253557
 20
-79.62459699999999
 30
0.0
 11
-23.253557
 21
-62.95793
 31
0.0
  0
LINE
  5
8F
330
76
100
AcDbEntity
  8
別途部材
  6
Continuous
100
AcDbLine
 10
-24.253557
 20
-79.62459699999999
 30
0.0
 11
-24.253557
 21
-61.95793
 31
0.0
  0
LINE
  5
90
330
76
100
AcDbEntity
  8
別途部材
  6
Continuous
100
AcDbLine
 10
-25.253557
 20
-79.62459699999999
 30
0.0
 11
-25.253557
 21
-61.95793
 31
0.0
  0
LINE
  5
91
330
76
100
AcDbEntity
  8
別途部材
  6
Continuous
100
AcDbLine
 10
-26.253557
 20
-79.62459699999999
 30
0.0
 11
-26.253557
 21
-62.95793
 31
0.0
  0
LINE
  5
92
330
76
100
AcDbEntity
  8
別途部材
  6
Continuous
100
AcDbLine
 10
-28.253557
 20
-79.62459699999999
 30
0.0
 11
-28.253557
 21
-61.95793
 31
0.0
  0
LINE
  5
93
330
76
100
AcDbEntity
  8
別途部材
  6
Continuous
100
AcDbLine
 10
-29.253557
 20
-79.62459699999999
 30
0.0
 11
-29.253557
 21
-61.95793
 31
0.0
  0
LINE
  5
94
330
76
100
AcDbEntity
  8
別途部材
  6
Continuous
100
AcDbLine
 10
-27.253557
 20
-62.95793
 30
0.0
 11
-28.253557
 21
-61.95793
 31
0.0
  0
LINE
  5
95
330
76
100
AcDbEntity
  8
別途部材
  6
Continuous
100
AcDbLine
 10
-29.253557
 20
-61.95793
 30
0.0
 11
-30.253557
 21
-62.95793
 31
0.0
  0
LINE
  5
96
330
76
100
AcDbEntity
  8
別途部材
  6
Continuous
100
AcDbLine
 10
-28.253557
 20
-61.95793
 30
0.0
 11
-29.253557
 21
-61.95793
 31
0.0
  0
LINE
  5
97
330
76
100
AcDbEntity
  8
別途部材
  6
Continuous
100
AcDbLine
 10
-31.253557
 20
-62.95793
 30
0.0
 11
-32.253557
 21
-61.95793
 31
0.0
  0
LINE
  5
98
330
76
100
AcDbEntity
  8
別途部材
  6
Continuous
100
AcDbLine
 10
-33.253557
 20
-61.95793
 30
0.0
 11
-34.253557
 21
-62.95793
 31
0.0
  0
LINE
  5
99
330
76
100
AcDbEntity
  8
別途部材
  6
Continuous
100
AcDbLine
 10
-32.253557
 20
-61.95793
 30
0.0
 11
-33.253557
 21
-61.95793
 31
0.0
  0
LINE
  5
9A
330
76
100
AcDbEntity
  8
別途部材
  6
Continuous
100
AcDbLine
 10
-27.253557
 20
-79.62459699999999
 30
0.0
 11
-27.253557
 21
-62.95793
 31
0.0
  0
LINE
  5
9B
330
76
100
AcDbEntity
  8
別途部材
  6
Continuous
100
AcDbLine
 10
-30.253557
 20
-79.62459699999999
 30
0.0
 11
-30.253557
 21
-62.95793
 31
0.0
  0
LINE
  5
9C
330
76
100
AcDbEntity
  8
別途部材
  6
Continuous
100
AcDbLine
 10
-31.253557
 20
-79.62459699999999
 30
0.0
 11
-31.253557
 21
-62.95793
 31
0.0
  0
LINE
  5
9D
330
76
100
AcDbEntity
  8
別途部材
  6
Continuous
100
AcDbLine
 10
-32.253557
 20
-79.62459699999999
 30
0.0
 11
-32.253557
 21
-61.95793
 31
0.0
  0
LINE
  5
9E
330
76
100
AcDbEntity
  8
別途部材
  6
Continuous
100
AcDbLine
 10
-33.253557
 20
-79.62459699999999
 30
0.0
 11
-33.253557
 21
-61.95793
 31
0.0
  0
LINE
  5
9F
330
76
100
AcDbEntity
  8
別途部材
  6
Continuous
100
AcDbLine
 10
-34.253557
 20
-79.62459699999999
 30
0.0
 11
-34.253557
 21
-62.95793
 31
0.0
  0
LINE
  5
A0
330
76
100
AcDbEntity
  8
別途部材
  6
Continuous
100
AcDbLine
 10
-35.253557
 20
-62.95793
 30
0.0
 11
-36.253557
 21
-61.95793
 31
0.0
  0
LINE
  5
A1
330
76
100
AcDbEntity
  8
別途部材
  6
Continuous
100
AcDbLine
 10
-37.253557
 20
-61.95793
 30
0.0
 11
-38.253557
 21
-62.95793
 31
0.0
  0
LINE
  5
A2
330
76
100
AcDbEntity
  8
別途部材
  6
Continuous
100
AcDbLine
 10
-36.253557
 20
-61.95793
 30
0.0
 11
-37.253557
 21
-61.95793
 31
0.0
  0
LINE
  5
A3
330
76
100
AcDbEntity
  8
別途部材
  6
Continuous
100
AcDbLine
 10
-35.253557
 20
-79.62459699999999
 30
0.0
 11
-35.253557
 21
-62.95793
 31
0.0
  0
LINE
  5
A4
330
76
100
AcDbEntity
  8
別途部材
  6
Continuous
100
AcDbLine
 10
-36.253557
 20
-79.62459699999999
 30
0.0
 11
-36.253557
 21
-61.95793
 31
0.0
  0
LINE
  5
A5
330
76
100
AcDbEntity
  8
別途部材
  6
Continuous
100
AcDbLine
 10
-37.253557
 20
-79.62459699999999
 30
0.0
 11
-37.253557
 21
-61.95793
 31
0.0
  0
LINE
  5
A6
330
76
100
AcDbEntity
  8
別途部材
  6
Continuous
100
AcDbLine
 10
-38.253557
 20
-79.62459699999999
 30
0.0
 11
-38.253557
 21
-62.95793
 31
0.0
  0
LINE
  5
A7
330
76
100
AcDbEntity
  8
別途部材
  6
Continuous
100
AcDbLine
 10
-34.253557
 20
-62.95793
 30
0.0
 11
-35.253557
 21
-62.95793
 31
0.0
  0
LINE
  5
A8
330
76
100
AcDbEntity
  8
別途部材
  6
Continuous
100
AcDbLine
 10
-30.253557
 20
-62.95793
 30
0.0
 11
-31.253557
 21
-62.95793
 31
0.0
  0
LINE
  5
A9
330
76
100
AcDbEntity
  8
別途部材
  6
Continuous
100
AcDbLine
 10
-26.253557
 20
-62.95793
 30
0.0
 11
-27.253557
 21
-62.95793
 31
0.0
  0
LINE
  5
AA
330
76
100
AcDbEntity
  8
別途部材
  6
Continuous
100
AcDbLine
 10
-22.253557
 20
-62.95793
 30
0.0
 11
-23.253557
 21
-62.95793
 31
0.0
  0
LINE
  5
AB
330
76
100
AcDbEntity
  8
別途部材
  6
Continuous
100
AcDbLine
 10
-18.253557
 20
-62.95793
 30
0.0
 11
-19.253557
 21
-62.95793
 31
0.0
  0
LINE
  5
AC
330
76
100
AcDbEntity
  8
別途部材
  6
Continuous
100
AcDbLine
 10
-14.253557
 20
-79.62459699999999
 30
0.0
 11
-14.253557
 21
-62.95793
 31
0.0
  0
LINE
  5
AD
330
76
100
AcDbEntity
  8
別途部材
  6
Continuous
100
AcDbLine
 10
-15.253557
 20
-62.95793
 30
0.0
 11
-14.253557
 21
-62.95793
 31
0.0
  0
ARC
  5
AE
330
76
100
AcDbEntity
  8
別途部材
  6
Continuous
100
AcDbCircle
 10
-54.420224
 20
-79.62459699999999
 30
0.0
 40
16.666667
100
AcDbArc
 50
90.0
 51
180.0
  0
LINE
  5
AF
330
76
100
AcDbEntity
  8
別途部材
  6
Continuous
100
AcDbLine
 10
-40.253557
 20
-79.62459699999999
 30
0.0
 11
-40.253557
 21
-61.95793
 31
0.0
  0
LINE
  5
B0
330
76
100
AcDbEntity
  8
別途部材
  6
Continuous
100
AcDbLine
 10
-41.253557
 20
-79.62459699999999
 30
0.0
 11
-41.253557
 21
-61.95793
 31
0.0
  0
LINE
  5
B1
330
76
100
AcDbEntity
  8
別途部材
  6
Continuous
100
AcDbLine
 10
-39.253557
 20
-62.95793
 30
0.0
 11
-40.253557
 21
-61.95793
 31
0.0
  0
LINE
  5
B2
330
76
100
AcDbEntity
  8
別途部材
  6
Continuous
100
AcDbLine
 10
-41.253557
 20
-61.95793
 30
0.0
 11
-42.253557
 21
-62.95793
 31
0.0
  0
LINE
  5
B3
330
76
100
AcDbEntity
  8
別途部材
  6
Continuous
100
AcDbLine
 10
-40.253557
 20
-61.95793
 30
0.0
 11
-41.253557
 21
-61.95793
 31
0.0
  0
LINE
  5
B4
330
76
100
AcDbEntity
  8
別途部材
  6
Continuous
100
AcDbLine
 10
-43.253557
 20
-62.95793
 30
0.0
 11
-44.253557
 21
-61.95793
 31
0.0
  0
LINE
  5
B5
330
76
100
AcDbEntity
  8
別途部材
  6
Continuous
100
AcDbLine
 10
-45.253557
 20
-61.95793
 30
0.0
 11
-46.253557
 21
-62.95793
 31
0.0
  0
LINE
  5
B6
330
76
100
AcDbEntity
  8
別途部材
  6
Continuous
100
AcDbLine
 10
-44.253557
 20
-61.95793
 30
0.0
 11
-45.253557
 21
-61.95793
 31
0.0
  0
LINE
  5
B7
330
76
100
AcDbEntity
  8
別途部材
  6
Continuous
100
AcDbLine
 10
-39.253557
 20
-79.62459699999999
 30
0.0
 11
-39.253557
 21
-62.95793
 31
0.0
  0
LINE
  5
B8
330
76
100
AcDbEntity
  8
別途部材
  6
Continuous
100
AcDbLine
 10
-42.253557
 20
-79.62459699999999
 30
0.0
 11
-42.253557
 21
-62.95793
 31
0.0
  0
LINE
  5
B9
330
76
100
AcDbEntity
  8
別途部材
  6
Continuous
100
AcDbLine
 10
-43.253557
 20
-79.62459699999999
 30
0.0
 11
-43.253557
 21
-62.95793
 31
0.0
  0
LINE
  5
BA
330
76
100
AcDbEntity
  8
別途部材
  6
Continuous
100
AcDbLine
 10
-44.253557
 20
-79.62459699999999
 30
0.0
 11
-44.253557
 21
-61.95793
 31
0.0
  0
LINE
  5
BB
330
76
100
AcDbEntity
  8
別途部材
  6
Continuous
100
AcDbLine
 10
-45.253557
 20
-79.62459699999999
 30
0.0
 11
-45.253557
 21
-61.95793
 31
0.0
  0
LINE
  5
BC
330
76
100
AcDbEntity
  8
別途部材
  6
Continuous
100
AcDbLine
 10
-46.253557
 20
-79.62459699999999
 30
0.0
 11
-46.253557
 21
-62.95793
 31
0.0
  0
LINE
  5
BD
330
76
100
AcDbEntity
  8
別途部材
  6
Continuous
100
AcDbLine
 10
-47.253557
 20
-62.95793
 30
0.0
 11
-48.253557
 21
-61.95793
 31
0.0
  0
LINE
  5
BE
330
76
100
AcDbEntity
  8
別途部材
  6
Continuous
100
AcDbLine
 10
-49.253557
 20
-61.95793
 30
0.0
 11
-50.253557
 21
-62.95793
 31
0.0
  0
LINE
  5
BF
330
76
100
AcDbEntity
  8
別途部材
  6
Continuous
100
AcDbLine
 10
-48.253557
 20
-61.95793
 30
0.0
 11
-49.253557
 21
-61.95793
 31
0.0
  0
LINE
  5
C0
330
76
100
AcDbEntity
  8
別途部材
  6
Continuous
100
AcDbLine
 10
-47.253557
 20
-79.62459699999999
 30
0.0
 11
-47.253557
 21
-62.95793
 31
0.0
  0
LINE
  5
C1
330
76
100
AcDbEntity
  8
別途部材
  6
Continuous
100
AcDbLine
 10
-48.253557
 20
-79.62459699999999
 30
0.0
 11
-48.253557
 21
-61.95793
 31
0.0
  0
LINE
  5
C2
330
76
100
AcDbEntity
  8
別途部材
  6
Continuous
100
AcDbLine
 10
-49.253557
 20
-79.62459699999999
 30
0.0
 11
-49.253557
 21
-61.95793
 31
0.0
  0
LINE
  5
C3
330
76
100
AcDbEntity
  8
別途部材
  6
Continuous
100
AcDbLine
 10
-50.253557
 20
-79.62459699999999
 30
0.0
 11
-50.253557
 21
-62.95793
 31
0.0
  0
LINE
  5
C4
330
76
100
AcDbEntity
  8
別途部材
  6
Continuous
100
AcDbLine
 10
-46.253557
 20
-62.95793
 30
0.0
 11
-47.253557
 21
-62.95793
 31
0.0
  0
LINE
  5
C5
330
76
100
AcDbEntity
  8
別途部材
  6
Continuous
100
AcDbLine
 10
-42.253557
 20
-62.95793
 30
0.0
 11
-43.253557
 21
-62.95793
 31
0.0
  0
LINE
  5
C6
330
76
100
AcDbEntity
  8
別途部材
  6
Continuous
100
AcDbLine
 10
-38.253557
 20
-62.95793
 30
0.0
 11
-39.253557
 21
-62.95793
 31
0.0
  0
LINE
  5
C7
330
76
100
AcDbEntity
  8
別途部材
  6
Continuous
100
AcDbLine
 10
-51.253557
 20
-62.95793
 30
0.0
 11
-52.253557
 21
-61.95793
 31
0.0
  0
LINE
  5
C8
330
76
100
AcDbEntity
  8
別途部材
  6
Continuous
100
AcDbLine
 10
-53.253557
 20
-61.95793
 30
0.0
 11
-54.253557
 21
-62.95793
 31
0.0
  0
LINE
  5
C9
330
76
100
AcDbEntity
  8
別途部材
  6
Continuous
100
AcDbLine
 10
-52.253557
 20
-61.95793
 30
0.0
 11
-53.253557
 21
-61.95793
 31
0.0
  0
LINE
  5
CA
330
76
100
AcDbEntity
  8
別途部材
  6
Continuous
100
AcDbLine
 10
-51.253557
 20
-79.62459699999999
 30
0.0
 11
-51.253557
 21
-62.95793
 31
0.0
  0
LINE
  5
CB
330
76
100
AcDbEntity
  8
別途部材
  6
Continuous
100
AcDbLine
 10
-52.253557
 20
-79.62459699999999
 30
0.0
 11
-52.253557
 21
-61.95793
 31
0.0
  0
LINE
  5
CC
330
76
100
AcDbEntity
  8
別途部材
  6
Continuous
100
AcDbLine
 10
-53.253557
 20
-79.62459699999999
 30
0.0
 11
-53.253557
 21
-61.95793
 31
0.0
  0
LINE
  5
CD
330
76
100
AcDbEntity
  8
別途部材
  6
Continuous
100
AcDbLine
 10
-54.253557
 20
-79.62459699999999
 30
0.0
 11
-54.253557
 21
-62.95793
 31
0.0
  0
LINE
  5
CE
330
76
100
AcDbEntity
  8
別途部材
  6
Continuous
100
AcDbLine
 10
-50.253557
 20
-62.95793
 30
0.0
 11
-51.253557
 21
-62.95793
 31
0.0
  0
LINE
  5
CF
330
76
100
AcDbEntity
  8
別途部材
  6
Continuous
 62
    96
100
AcDbLine
 10
47.246443
 20
-79.62459699999999
 30
0.0
 11
47.646443
 21
-80.62459699999999
 31
0.0
  0
LINE
  5
D0
330
76
100
AcDbEntity
  8
別途部材
  6
Continuous
 62
    96
100
AcDbLine
 10
47.246443
 20
-79.62459699999999
 30
0.0
 11
-12.753557
 21
-79.62459699999999
 31
0.0
  0
LINE
  5
D1
330
76
100
AcDbEntity
  8
別途部材
  6
Continuous
100
AcDbLine
 10
47.646443
 20
-80.62459699999999
 30
0.0
 11
-12.753557
 21
-80.62459699999999
 31
0.0
  0
LINE
  5
D2
330
76
100
AcDbEntity
  8
別途部材
  6
Continuous
100
AcDbLine
 10
-12.253557
 20
-79.62459699999999
 30
0.0
 11
-12.253557
 21
-61.95793
 31
0.0
  0
LINE
  5
D3
330
76
100
AcDbEntity
  8
別途部材
  6
Continuous
100
AcDbLine
 10
-9.253557000000001
 20
-79.62459699999999
 30
0.0
 11
-9.253557000000001
 21
-61.95793
 31
0.0
  0
LINE
  5
D4
330
76
100
AcDbEntity
  8
別途部材
  6
Continuous
100
AcDbLine
 10
-12.253557
 20
-61.95793
 30
0.0
 11
-11.253557
 21
-62.95793
 31
0.0
  0
LINE
  5
D5
330
76
100
AcDbEntity
  8
別途部材
  6
Continuous
100
AcDbLine
 10
-8.253557000000001
 20
-79.62459699999999
 30
0.0
 11
-8.253557000000001
 21
-61.95793
 31
0.0
  0
LINE
  5
D6
330
76
100
AcDbEntity
  8
別途部材
  6
Continuous
100
AcDbLine
 10
-10.253557
 20
-62.95793
 30
0.0
 11
-9.253557000000001
 21
-61.95793
 31
0.0
  0
LINE
  5
D7
330
76
100
AcDbEntity
  8
別途部材
  6
Continuous
100
AcDbLine
 10
-8.253557000000001
 20
-61.95793
 30
0.0
 11
-7.253557
 21
-62.95793
 31
0.0
  0
LINE
  5
D8
330
76
100
AcDbEntity
  8
別途部材
  6
Continuous
100
AcDbLine
 10
-9.253557000000001
 20
-61.95793
 30
0.0
 11
-8.253557000000001
 21
-61.95793
 31
0.0
  0
LINE
  5
D9
330
76
100
AcDbEntity
  8
別途部材
  6
Continuous
100
AcDbLine
 10
-12.253557
 20
-61.95793
 30
0.0
 11
-12.753557
 21
-61.95793
 31
0.0
  0
LINE
  5
DA
330
76
100
AcDbEntity
  8
別途部材
  6
Continuous
100
AcDbLine
 10
-6.253557
 20
-62.95793
 30
0.0
 11
-5.253557
 21
-61.95793
 31
0.0
  0
LINE
  5
DB
330
76
100
AcDbEntity
  8
別途部材
  6
Continuous
100
AcDbLine
 10
-4.253557
 20
-61.95793
 30
0.0
 11
-3.253557
 21
-62.95793
 31
0.0
  0
LINE
  5
DC
330
76
100
AcDbEntity
  8
別途部材
  6
Continuous
100
AcDbLine
 10
-5.253557
 20
-61.95793
 30
0.0
 11
-4.253557
 21
-61.95793
 31
0.0
  0
LINE
  5
DD
330
76
100
AcDbEntity
  8
別途部材
  6
Continuous
100
AcDbLine
 10
-10.253557
 20
-79.62459699999999
 30
0.0
 11
-10.253557
 21
-62.95793
 31
0.0
  0
LINE
  5
DE
330
76
100
AcDbEntity
  8
別途部材
  6
Continuous
100
AcDbLine
 10
-7.253557
 20
-79.62459699999999
 30
0.0
 11
-7.253557
 21
-62.95793
 31
0.0
  0
LINE
  5
DF
330
76
100
AcDbEntity
  8
別途部材
  6
Continuous
100
AcDbLine
 10
-6.253557
 20
-79.62459699999999
 30
0.0
 11
-6.253557
 21
-62.95793
 31
0.0
  0
LINE
  5
E0
330
76
100
AcDbEntity
  8
別途部材
  6
Continuous
100
AcDbLine
 10
-5.253557
 20
-79.62459699999999
 30
0.0
 11
-5.253557
 21
-61.95793
 31
0.0
  0
LINE
  5
E1
330
76
100
AcDbEntity
  8
別途部材
  6
Continuous
100
AcDbLine
 10
-4.253557
 20
-79.62459699999999
 30
0.0
 11
-4.253557
 21
-61.95793
 31
0.0
  0
LINE
  5
E2
330
76
100
AcDbEntity
  8
別途部材
  6
Continuous
100
AcDbLine
 10
-3.253557
 20
-79.62459699999999
 30
0.0
 11
-3.253557
 21
-62.95793
 31
0.0
  0
LINE
  5
E3
330
76
100
AcDbEntity
  8
別途部材
  6
Continuous
100
AcDbLine
 10
-2.253557
 20
-62.95793
 30
0.0
 11
-1.253557
 21
-61.95793
 31
0.0
  0
LINE
  5
E4
330
76
100
AcDbEntity
  8
別途部材
  6
Continuous
100
AcDbLine
 10
-0.253557
 20
-61.95793
 30
0.0
 11
0.746443
 21
-62.95793
 31
0.0
  0
LINE
  5
E5
330
76
100
AcDbEntity
  8
別途部材
  6
Continuous
100
AcDbLine
 10
-1.253557
 20
-61.95793
 30
0.0
 11
-0.253557
 21
-61.95793
 31
0.0
  0
LINE
  5
E6
330
76
100
AcDbEntity
  8
別途部材
  6
Continuous
100
AcDbLine
 10
-2.253557
 20
-79.62459699999999
 30
0.0
 11
-2.253557
 21
-62.95793
 31
0.0
  0
LINE
  5
E7
330
76
100
AcDbEntity
  8
別途部材
  6
Continuous
100
AcDbLine
 10
-1.253557
 20
-79.62459699999999
 30
0.0
 11
-1.253557
 21
-61.95793
 31
0.0
  0
LINE
  5
E8
330
76
100
AcDbEntity
  8
別途部材
  6
Continuous
100
AcDbLine
 10
-0.253557
 20
-79.62459699999999
 30
0.0
 11
-0.253557
 21
-61.95793
 31
0.0
  0
LINE
  5
E9
330
76
100
AcDbEntity
  8
別途部材
  6
Continuous
100
AcDbLine
 10
0.746443
 20
-79.62459699999999
 30
0.0
 11
0.746443
 21
-62.95793
 31
0.0
  0
LINE
  5
EA
330
76
100
AcDbEntity
  8
別途部材
  6
Continuous
100
AcDbLine
 10
2.746443
 20
-79.62459699999999
 30
0.0
 11
2.746443
 21
-61.95793
 31
0.0
  0
LINE
  5
EB
330
76
100
AcDbEntity
  8
別途部材
  6
Continuous
100
AcDbLine
 10
3.746443
 20
-79.62459699999999
 30
0.0
 11
3.746443
 21
-61.95793
 31
0.0
  0
LINE
  5
EC
330
76
100
AcDbEntity
  8
別途部材
  6
Continuous
100
AcDbLine
 10
1.746443
 20
-62.95793
 30
0.0
 11
2.746443
 21
-61.95793
 31
0.0
  0
LINE
  5
ED
330
76
100
AcDbEntity
  8
別途部材
  6
Continuous
100
AcDbLine
 10
3.746443
 20
-61.95793
 30
0.0
 11
4.746443
 21
-62.95793
 31
0.0
  0
LINE
  5
EE
330
76
100
AcDbEntity
  8
別途部材
  6
Continuous
100
AcDbLine
 10
2.746443
 20
-61.95793
 30
0.0
 11
3.746443
 21
-61.95793
 31
0.0
  0
LINE
  5
EF
330
76
100
AcDbEntity
  8
別途部材
  6
Continuous
100
AcDbLine
 10
5.746443
 20
-62.95793
 30
0.0
 11
6.746443
 21
-61.95793
 31
0.0
  0
LINE
  5
F0
330
76
100
AcDbEntity
  8
別途部材
  6
Continuous
100
AcDbLine
 10
7.746443
 20
-61.95793
 30
0.0
 11
8.746442999999999
 21
-62.95793
 31
0.0
  0
LINE
  5
F1
330
76
100
AcDbEntity
  8
別途部材
  6
Continuous
100
AcDbLine
 10
6.746443
 20
-61.95793
 30
0.0
 11
7.746443
 21
-61.95793
 31
0.0
  0
LINE
  5
F2
330
76
100
AcDbEntity
  8
別途部材
  6
Continuous
100
AcDbLine
 10
1.746443
 20
-79.62459699999999
 30
0.0
 11
1.746443
 21
-62.95793
 31
0.0
  0
LINE
  5
F3
330
76
100
AcDbEntity
  8
別途部材
  6
Continuous
100
AcDbLine
 10
4.746443
 20
-79.62459699999999
 30
0.0
 11
4.746443
 21
-62.95793
 31
0.0
  0
LINE
  5
F4
330
76
100
AcDbEntity
  8
別途部材
  6
Continuous
100
AcDbLine
 10
5.746443
 20
-79.62459699999999
 30
0.0
 11
5.746443
 21
-62.95793
 31
0.0
  0
LINE
  5
F5
330
76
100
AcDbEntity
  8
別途部材
  6
Continuous
100
AcDbLine
 10
6.746443
 20
-79.62459699999999
 30
0.0
 11
6.746443
 21
-61.95793
 31
0.0
  0
LINE
  5
F6
330
76
100
AcDbEntity
  8
別途部材
  6
Continuous
100
AcDbLine
 10
7.746443
 20
-79.62459699999999
 30
0.0
 11
7.746443
 21
-61.95793
 31
0.0
  0
LINE
  5
F7
330
76
100
AcDbEntity
  8
別途部材
  6
Continuous
100
AcDbLine
 10
8.746442999999999
 20
-79.62459699999999
 30
0.0
 11
8.746442999999999
 21
-62.95793
 31
0.0
  0
LINE
  5
F8
330
76
100
AcDbEntity
  8
別途部材
  6
Continuous
100
AcDbLine
 10
9.746442999999999
 20
-62.95793
 30
0.0
 11
10.746443
 21
-61.95793
 31
0.0
  0
LINE
  5
F9
330
76
100
AcDbEntity
  8
別途部材
  6
Continuous
100
AcDbLine
 10
11.746443
 20
-61.95793
 30
0.0
 11
12.746443
 21
-62.95793
 31
0.0
  0
LINE
  5
FA
330
76
100
AcDbEntity
  8
別途部材
  6
Continuous
100
AcDbLine
 10
10.746443
 20
-61.95793
 30
0.0
 11
11.746443
 21
-61.95793
 31
0.0
  0
LINE
  5
FB
330
76
100
AcDbEntity
  8
別途部材
  6
Continuous
100
AcDbLine
 10
9.746442999999999
 20
-79.62459699999999
 30
0.0
 11
9.746442999999999
 21
-62.95793
 31
0.0
  0
LINE
  5
FC
330
76
100
AcDbEntity
  8
別途部材
  6
Continuous
100
AcDbLine
 10
10.746443
 20
-79.62459699999999
 30
0.0
 11
10.746443
 21
-61.95793
 31
0.0
  0
LINE
  5
FD
330
76
100
AcDbEntity
  8
別途部材
  6
Continuous
100
AcDbLine
 10
11.746443
 20
-79.62459699999999
 30
0.0
 11
11.746443
 21
-61.95793
 31
0.0
  0
LINE
  5
FE
330
76
100
AcDbEntity
  8
別途部材
  6
Continuous
100
AcDbLine
 10
12.746443
 20
-79.62459699999999
 30
0.0
 11
12.746443
 21
-62.95793
 31
0.0
  0
LINE
  5
FF
330
76
100
AcDbEntity
  8
別途部材
  6
Continuous
100
AcDbLine
 10
8.746442999999999
 20
-62.95793
 30
0.0
 11
9.746442999999999
 21
-62.95793
 31
0.0
  0
LINE
  5
100
330
76
100
AcDbEntity
  8
別途部材
  6
Continuous
100
AcDbLine
 10
4.746443
 20
-62.95793
 30
0.0
 11
5.746443
 21
-62.95793
 31
0.0
  0
LINE
  5
101
330
76
100
AcDbEntity
  8
別途部材
  6
Continuous
100
AcDbLine
 10
0.746443
 20
-62.95793
 30
0.0
 11
1.746443
 21
-62.95793
 31
0.0
  0
LINE
  5
102
330
76
100
AcDbEntity
  8
別途部材
  6
Continuous
100
AcDbLine
 10
-3.253557
 20
-62.95793
 30
0.0
 11
-2.253557
 21
-62.95793
 31
0.0
  0
LINE
  5
103
330
76
100
AcDbEntity
  8
別途部材
  6
Continuous
100
AcDbLine
 10
-7.253557
 20
-62.95793
 30
0.0
 11
-6.253557
 21
-62.95793
 31
0.0
  0
LINE
  5
104
330
76
100
AcDbEntity
  8
別途部材
  6
Continuous
100
AcDbLine
 10
-11.253557
 20
-79.62459699999999
 30
0.0
 11
-11.253557
 21
-62.95793
 31
0.0
  0
LINE
  5
105
330
76
100
AcDbEntity
  8
別途部材
  6
Continuous
100
AcDbLine
 10
-10.253557
 20
-62.95793
 30
0.0
 11
-11.253557
 21
-62.95793
 31
0.0
  0
ARC
  5
106
330
76
100
AcDbEntity
  8
別途部材
  6
Continuous
100
AcDbCircle
 10
28.913109
 20
-79.62459699999999
 30
0.0
 40
16.666667
100
AcDbArc
 50
0.0
 51
90.0
  0
LINE
  5
107
330
76
100
AcDbEntity
  8
別途部材
  6
Continuous
100
AcDbLine
 10
14.746443
 20
-79.62459699999999
 30
0.0
 11
14.746443
 21
-61.95793
 31
0.0
  0
LINE
  5
108
330
76
100
AcDbEntity
  8
別途部材
  6
Continuous
100
AcDbLine
 10
15.746443
 20
-79.62459699999999
 30
0.0
 11
15.746443
 21
-61.95793
 31
0.0
  0
LINE
  5
109
330
76
100
AcDbEntity
  8
別途部材
  6
Continuous
100
AcDbLine
 10
13.746443
 20
-62.95793
 30
0.0
 11
14.746443
 21
-61.95793
 31
0.0
  0
LINE
  5
10A
330
76
100
AcDbEntity
  8
別途部材
  6
Continuous
100
AcDbLine
 10
15.746443
 20
-61.95793
 30
0.0
 11
16.746443
 21
-62.95793
 31
0.0
  0
LINE
  5
10B
330
76
100
AcDbEntity
  8
別途部材
  6
Continuous
100
AcDbLine
 10
14.746443
 20
-61.95793
 30
0.0
 11
15.746443
 21
-61.95793
 31
0.0
  0
LINE
  5
10C
330
76
100
AcDbEntity
  8
別途部材
  6
Continuous
100
AcDbLine
 10
17.746443
 20
-62.95793
 30
0.0
 11
18.746443
 21
-61.95793
 31
0.0
  0
LINE
  5
10D
330
76
100
AcDbEntity
  8
別途部材
  6
Continuous
100
AcDbLine
 10
19.746443
 20
-61.95793
 30
0.0
 11
20.746443
 21
-62.95793
 31
0.0
  0
LINE
  5
10E
330
76
100
AcDbEntity
  8
別途部材
  6
Continuous
100
AcDbLine
 10
18.746443
 20
-61.95793
 30
0.0
 11
19.746443
 21
-61.95793
 31
0.0
  0
LINE
  5
10F
330
76
100
AcDbEntity
  8
別途部材
  6
Continuous
100
AcDbLine
 10
13.746443
 20
-79.62459699999999
 30
0.0
 11
13.746443
 21
-62.95793
 31
0.0
  0
LINE
  5
110
330
76
100
AcDbEntity
  8
別途部材
  6
Continuous
100
AcDbLine
 10
16.746443
 20
-79.62459699999999
 30
0.0
 11
16.746443
 21
-62.95793
 31
0.0
  0
LINE
  5
111
330
76
100
AcDbEntity
  8
別途部材
  6
Continuous
100
AcDbLine
 10
17.746443
 20
-79.62459699999999
 30
0.0
 11
17.746443
 21
-62.95793
 31
0.0
  0
LINE
  5
112
330
76
100
AcDbEntity
  8
別途部材
  6
Continuous
100
AcDbLine
 10
18.746443
 20
-79.62459699999999
 30
0.0
 11
18.746443
 21
-61.95793
 31
0.0
  0
LINE
  5
113
330
76
100
AcDbEntity
  8
別途部材
  6
Continuous
100
AcDbLine
 10
19.746443
 20
-79.62459699999999
 30
0.0
 11
19.746443
 21
-61.95793
 31
0.0
  0
LINE
  5
114
330
76
100
AcDbEntity
  8
別途部材
  6
Continuous
100
AcDbLine
 10
20.746443
 20
-79.62459699999999
 30
0.0
 11
20.746443
 21
-62.95793
 31
0.0
  0
LINE
  5
115
330
76
100
AcDbEntity
  8
別途部材
  6
Continuous
100
AcDbLine
 10
21.746443
 20
-62.95793
 30
0.0
 11
22.746443
 21
-61.95793
 31
0.0
  0
LINE
  5
116
330
76
100
AcDbEntity
  8
別途部材
  6
Continuous
100
AcDbLine
 10
23.746443
 20
-61.95793
 30
0.0
 11
24.746443
 21
-62.95793
 31
0.0
  0
LINE
  5
117
330
76
100
AcDbEntity
  8
別途部材
  6
Continuous
100
AcDbLine
 10
22.746443
 20
-61.95793
 30
0.0
 11
23.746443
 21
-61.95793
 31
0.0
  0
LINE
  5
118
330
76
100
AcDbEntity
  8
別途部材
  6
Continuous
100
AcDbLine
 10
21.746443
 20
-79.62459699999999
 30
0.0
 11
21.746443
 21
-62.95793
 31
0.0
  0
LINE
  5
119
330
76
100
AcDbEntity
  8
別途部材
  6
Continuous
100
AcDbLine
 10
22.746443
 20
-79.62459699999999
 30
0.0
 11
22.746443
 21
-61.95793
 31
0.0
  0
LINE
  5
11A
330
76
100
AcDbEntity
  8
別途部材
  6
Continuous
100
AcDbLine
 10
23.746443
 20
-79.62459699999999
 30
0.0
 11
23.746443
 21
-61.95793
 31
0.0
  0
LINE
  5
11B
330
76
100
AcDbEntity
  8
別途部材
  6
Continuous
100
AcDbLine
 10
24.746443
 20
-79.62459699999999
 30
0.0
 11
24.746443
 21
-62.95793
 31
0.0
  0
LINE
  5
11C
330
76
100
AcDbEntity
  8
別途部材
  6
Continuous
100
AcDbLine
 10
20.746443
 20
-62.95793
 30
0.0
 11
21.746443
 21
-62.95793
 31
0.0
  0
LINE
  5
11D
330
76
100
AcDbEntity
  8
別途部材
  6
Continuous
100
AcDbLine
 10
16.746443
 20
-62.95793
 30
0.0
 11
17.746443
 21
-62.95793
 31
0.0
  0
LINE
  5
11E
330
76
100
AcDbEntity
  8
別途部材
  6
Continuous
100
AcDbLine
 10
12.746443
 20
-62.95793
 30
0.0
 11
13.746443
 21
-62.95793
 31
0.0
  0
LINE
  5
11F
330
76
100
AcDbEntity
  8
別途部材
  6
Continuous
100
AcDbLine
 10
25.746443
 20
-62.95793
 30
0.0
 11
26.746443
 21
-61.95793
 31
0.0
  0
LINE
  5
120
330
76
100
AcDbEntity
  8
別途部材
  6
Continuous
100
AcDbLine
 10
27.746443
 20
-61.95793
 30
0.0
 11
28.746443
 21
-62.95793
 31
0.0
  0
LINE
  5
121
330
76
100
AcDbEntity
  8
別途部材
  6
Continuous
100
AcDbLine
 10
26.746443
 20
-61.95793
 30
0.0
 11
27.746443
 21
-61.95793
 31
0.0
  0
LINE
  5
122
330
76
100
AcDbEntity
  8
別途部材
  6
Continuous
100
AcDbLine
 10
25.746443
 20
-79.62459699999999
 30
0.0
 11
25.746443
 21
-62.95793
 31
0.0
  0
LINE
  5
123
330
76
100
AcDbEntity
  8
別途部材
  6
Continuous
100
AcDbLine
 10
26.746443
 20
-79.62459699999999
 30
0.0
 11
26.746443
 21
-61.95793
 31
0.0
  0
LINE
  5
124
330
76
100
AcDbEntity
  8
別途部材
  6
Continuous
100
AcDbLine
 10
27.746443
 20
-79.62459699999999
 30
0.0
 11
27.746443
 21
-61.95793
 31
0.0
  0
LINE
  5
125
330
76
100
AcDbEntity
  8
別途部材
  6
Continuous
100
AcDbLine
 10
28.746443
 20
-79.62459699999999
 30
0.0
 11
28.746443
 21
-62.95793
 31
0.0
  0
LINE
  5
126
330
76
100
AcDbEntity
  8
別途部材
  6
Continuous
100
AcDbLine
 10
24.746443
 20
-62.95793
 30
0.0
 11
25.746443
 21
-62.95793
 31
0.0
  0
ENDBLK
  5
127
330
76
100
AcDbEntity
  8
0
100
AcDbBlockEnd
  0
BLOCK
  5
128
330
129
100
AcDbEntity
  8
0
100
AcDbBlockBegin
  2
*U4
 70
     1
 71
     0
 10
0.0
 20
0.0
 30
0.0
  3
*U4
  1

  0
LINE
  5
12A
330
129
100
AcDbEntity
  8
寸法
  6
ByBlock
 62
     0
100
AcDbLine
 10
82.949083
 20
64.756625
 30
0.0
 11
82.21223999999999
 21
64.756625
 31
0.0
  0
LINE
  5
12B
330
129
100
AcDbEntity
  8
寸法
  6
ByBlock
 62
     0
100
AcDbLine
 10
82.949083
 20
-1.910042
 30
0.0
 11
82.21223999999999
 21
-1.910042
 31
0.0
  0
LINE
  5
12C
330
129
100
AcDbEntity
  8
寸法
  6
ByBlock
 62
     0
100
AcDbLine
 10
82.21223999999999
 20
64.756625
 30
0.0
 11
82.21223999999999
 21
-1.910042
 31
0.0
  0
POINT
  5
12D
330
129
100
AcDbEntity
  8
寸法
 62
     0
100
AcDbPoint
 10
82.21223999999999
 20
64.756625
 30
0.0
  0
POINT
  5
12E
330
129
100
AcDbEntity
  8
寸法
 62
     0
100
AcDbPoint
 10
82.21223999999999
 20
-1.910042
 30
0.0
  0
TEXT
  5
12F
330
129
100
AcDbEntity
  8
寸法
  6
Continuous
 62
     0
100
AcDbText
 10
81.825
 20
19.68125
 30
0.0
 40
3.0
  1
呼称寸法　2000
 50
90.0
  7
TextStyle03
 72
     5
 11
81.825
 21
43.11875
 31
0.0
100
AcDbText
  0
ENDBLK
  5
130
330
129
100
AcDbEntity
  8
0
100
AcDbBlockEnd
  0
BLOCK
  5
131
330
132
100
AcDbEntity
  8
0
100
AcDbBlockBegin
  2
*U5
 70
     1
 71
     0
 10
0.0
 20
0.0
 30
0.0
  3
*U5
  1

  0
LINE
  5
133
330
132
100
AcDbEntity
  8
寸法
  6
ByBlock
 62
     0
100
AcDbLine
 10
118.446372
 20
32.42329
 30
0.0
 11
118.446372
 21
86.58839999999999
 31
0.0
  0
LINE
  5
134
330
132
100
AcDbEntity
  8
寸法
  6
ByBlock
 62
     0
100
AcDbLine
 10
135.11304
 20
86.58839999999999
 30
0.0
 11
118.446372
 21
86.58839999999999
 31
0.0
  0
POINT
  5
135
330
132
100
AcDbEntity
  8
寸法
 62
     0
100
AcDbPoint
 10
135.11304
 20
86.58839999999999
 30
0.0
  0
POINT
  5
136
330
132
100
AcDbEntity
  8
寸法
 62
     0
100
AcDbPoint
 10
118.446372
 20
86.58839999999999
 30
0.0
  0
TEXT
  5
137
330
132
100
AcDbEntity
  8
寸法
  6
Continuous
 62
     0
100
AcDbText
 10
124.3375
 20
86.95
 30
0.0
 40
3.0
  1
500
  7
TextStyle03
 72
     5
 11
129.2125
 21
86.95
 31
0.0
100
AcDbText
  0
ENDBLK
  5
138
330
132
100
AcDbEntity
  8
0
100
AcDbBlockEnd
  0
BLOCK
  5
139
330
13A
100
AcDbEntity
  8
0
100
AcDbBlockBegin
  2
*U6
 70
     1
 71
     0
 10
0.0
 20
0.0
 30
0.0
  3
*U6
  1

  0
LINE
  5
13B
330
13A
100
AcDbEntity
  8
寸法
  6
ByBlock
 62
     0
100
AcDbLine
 10
135.11304
 20
69.42328999999999
 30
0.0
 11
135.11304
 21
86.58839999999999
 31
0.0
  0
LINE
  5
13C
330
13A
100
AcDbEntity
  8
寸法
  6
ByBlock
 62
     0
100
AcDbLine
 10
138.946613
 20
71.089957
 30
0.0
 11
138.946613
 21
86.58839999999999
 31
0.0
  0
LINE
  5
13D
330
13A
100
AcDbEntity
  8
寸法
  6
ByBlock
 62
     0
100
AcDbLine
 10
135.11304
 20
86.58839999999999
 30
0.0
 11
138.946613
 21
86.58839999999999
 31
0.0
  0
POINT
  5
13E
330
13A
100
AcDbEntity
  8
寸法
 62
     0
100
AcDbPoint
 10
135.11304
 20
86.58839999999999
 30
0.0
  0
POINT
  5
13F
330
13A
100
AcDbEntity
  8
寸法
 62
     0
100
AcDbPoint
 10
138.946613
 20
86.58839999999999
 30
0.0
  0
TEXT
  5
140
330
13A
100
AcDbEntity
  8
寸法
  6
Continuous
 62
     0
100
AcDbText
 10
139.6125
 20
86.95
 30
0.0
 40
3.0
  1
115
  7
TextStyle03
 72
     5
 11
144.4875
 21
86.95
 31
0.0
100
AcDbText
  0
ENDBLK
  5
141
330
13A
100
AcDbEntity
  8
0
100
AcDbBlockEnd
  0
BLOCK
  5
142
330
143
100
AcDbEntity
  8
0
100
AcDbBlockBegin
  2
*U7
 70
     1
 71
     0
 10
0.0
 20
0.0
 30
0.0
  3
*U7
  1

  0
LINE
  5
144
330
143
100
AcDbEntity
  8
寸法
  6
ByBlock
 62
     0
100
AcDbLine
 10
13.246443
 20
-62.95793
 30
0.0
 11
61.549425
 21
-62.95793
 31
0.0
  0
LINE
  5
145
330
143
100
AcDbEntity
  8
寸法
  6
ByBlock
 62
     0
100
AcDbLine
 10
61.549425
 20
-79.62459699999999
 30
0.0
 11
61.549425
 21
-62.95793
 31
0.0
  0
POINT
  5
146
330
143
100
AcDbEntity
  8
寸法
 62
     0
100
AcDbPoint
 10
61.549425
 20
-62.95793
 30
0.0
  0
TEXT
  5
147
330
143
100
AcDbEntity
  8
寸法
  6
Continuous
 62
     0
100
AcDbText
 10
61.175
 20
-73.7375
 30
0.0
 40
3.0
  1
500
 50
90.0
  7
TextStyle03
 72
     5
 11
61.175
 21
-68.8625
 31
0.0
100
AcDbText
  0
ENDBLK
  5
148
330
143
100
AcDbEntity
  8
0
100
AcDbBlockEnd
  0
BLOCK
  5
149
330
14A
100
AcDbEntity
  8
0
100
AcDbBlockBegin
  2
*U8
 70
     1
 71
     0
 10
0.0
 20
0.0
 30
0.0
  3
*U8
  1

  0
LINE
  5
14B
330
14A
100
AcDbEntity
  8
寸法
  6
ByBlock
 62
     0
100
AcDbLine
 10
50.246443
 20
-79.62459699999999
 30
0.0
 11
61.549425
 21
-79.62459699999999
 31
0.0
  0
LINE
  5
14C
330
14A
100
AcDbEntity
  8
寸法
  6
ByBlock
 62
     0
100
AcDbLine
 10
51.91311
 20
-83.45817
 30
0.0
 11
61.549425
 21
-83.45817
 31
0.0
  0
LINE
  5
14D
330
14A
100
AcDbEntity
  8
寸法
  6
ByBlock
 62
     0
100
AcDbLine
 10
61.549425
 20
-79.62459699999999
 30
0.0
 11
61.549425
 21
-83.45817
 31
0.0
  0
POINT
  5
14E
330
14A
100
AcDbEntity
  8
寸法
 62
     0
100
AcDbPoint
 10
61.549425
 20
-79.62459699999999
 30
0.0
  0
POINT
  5
14F
330
14A
100
AcDbEntity
  8
寸法
 62
     0
100
AcDbPoint
 10
61.549425
 20
-83.45817
 30
0.0
  0
TEXT
  5
150
330
14A
100
AcDbEntity
  8
寸法
  6
Continuous
 62
     0
100
AcDbText
 10
61.125
 20
-89.03749999999999
 30
0.0
 40
3.0
  1
115
 50
90.0
  7
TextStyle03
 72
     5
 11
61.125
 21
-84.16249999999999
 31
0.0
100
AcDbText
  0
ENDBLK
  5
151
330
14A
100
AcDbEntity
  8
0
100
AcDbBlockEnd
  0
BLOCK
  5
152
330
153
100
AcDbEntity
  8
0
100
AcDbBlockBegin
  2
*U9
 70
     1
 71
     0
 10
0.0
 20
0.0
 30
0.0
  3
*U9
  1

  0
LINE
  5
154
330
153
100
AcDbEntity
  8
寸法
  6
ByBlock
 62
     0
100
AcDbLine
 10
-74.08689200000001
 20
8.08996
 30
0.0
 11
-103.57597
 21
8.08996
 31
0.0
  0
LINE
  5
155
330
153
100
AcDbEntity
  8
寸法
  6
ByBlock
 62
     0
100
AcDbLine
 10
-74.08689200000001
 20
31.423293
 30
0.0
 11
-103.57597
 21
31.423293
 31
0.0
  0
LINE
  5
156
330
153
100
AcDbEntity
  8
寸法
  6
ByBlock
 62
     0
100
AcDbLine
 10
-103.57597
 20
8.08996
 30
0.0
 11
-103.57597
 21
31.423293
 31
0.0
  0
POINT
  5
157
330
153
100
AcDbEntity
  8
寸法
 62
     0
100
AcDbPoint
 10
-103.57597
 20
8.08996
 30
0.0
  0
POINT
  5
158
330
153
100
AcDbEntity
  8
寸法
 62
     0
100
AcDbPoint
 10
-103.57597
 20
31.423293
 30
0.0
  0
TEXT
  5
159
330
153
100
AcDbEntity
  8
寸法
  6
Continuous
 62
     0
100
AcDbText
 10
-104.0
 20
17.3125
 30
0.0
 40
3.0
  1
700
 50
90.0
  7
TextStyle03
 72
     5
 11
-104.0
 21
22.1875
 31
0.0
100
AcDbText
  0
ENDBLK
  5
15A
330
153
100
AcDbEntity
  8
0
100
AcDbBlockEnd
  0
BLOCK
  5
15B
330
15C
100
AcDbEntity
  8
0
100
AcDbBlockBegin
  2
*U10
 70
     1
 71
     0
 10
0.0
 20
0.0
 30
0.0
  3
*U10
  1

  0
LINE
  5
15D
330
15C
100
AcDbEntity
  8
寸法
  6
ByBlock
 62
     0
100
AcDbLine
 10
-74.08689200000001
 20
54.756625
 30
0.0
 11
-103.57597
 21
54.756625
 31
0.0
  0
LINE
  5
15E
330
15C
100
AcDbEntity
  8
寸法
  6
ByBlock
 62
     0
100
AcDbLine
 10
-103.57597
 20
31.423293
 30
0.0
 11
-103.57597
 21
54.756625
 31
0.0
  0
POINT
  5
15F
330
15C
100
AcDbEntity
  8
寸法
 62
     0
100
AcDbPoint
 10
-103.57597
 20
54.756625
 30
0.0
  0
TEXT
  5
160
330
15C
100
AcDbEntity
  8
寸法
  6
Continuous
 62
     0
100
AcDbText
 10
-104.0
 20
40.6375
 30
0.0
 40
3.0
  1
700
 50
90.0
  7
TextStyle03
 72
     5
 11
-104.0
 21
45.5125
 31
0.0
100
AcDbText
  0
ENDBLK
  5
161
330
15C
100
AcDbEntity
  8
0
100
AcDbBlockEnd
  0
BLOCK
  5
162
330
163
100
AcDbEntity
  8
0
100
AcDbBlockBegin
  2
*U11
 70
     1
 71
     0
 10
0.0
 20
0.0
 30
0.0
  3
*U11
  1

  0
LINE
  5
164
330
163
100
AcDbEntity
  8
寸法
  6
ByBlock
 62
     0
100
AcDbLine
 10
-66.08689
 20
67.756625
 30
0.0
 11
-66.08689
 21
96.86469700000001
 31
0.0
  0
LINE
  5
165
330
163
100
AcDbEntity
  8
寸法
  6
ByBlock
 62
     0
100
AcDbLine
 10
-39.420225
 20
67.756625
 30
0.0
 11
-39.420225
 21
96.86469700000001
 31
0.0
  0
LINE
  5
166
330
163
100
AcDbEntity
  8
寸法
  6
ByBlock
 62
     0
100
AcDbLine
 10
-66.08689
 20
96.86469700000001
 30
0.0
 11
-39.420225
 21
96.86469700000001
 31
0.0
  0
POINT
  5
167
330
163
100
AcDbEntity
  8
寸法
 62
     0
100
AcDbPoint
 10
-66.08689
 20
96.86469700000001
 30
0.0
  0
POINT
  5
168
330
163
100
AcDbEntity
  8
寸法
 62
     0
100
AcDbPoint
 10
-39.420225
 20
96.86469700000001
 30
0.0
  0
TEXT
  5
169
330
163
100
AcDbEntity
  8
寸法
  6
Continuous
 62
     0
100
AcDbText
 10
-55.2125
 20
97.22499999999999
 30
0.0
 40
3.0
  1
800
  7
TextStyle03
 72
     5
 11
-50.3375
 21
97.22499999999999
 31
0.0
100
AcDbText
  0
ENDBLK
  5
16A
330
163
100
AcDbEntity
  8
0
100
AcDbBlockEnd
  0
BLOCK
  5
16B
330
16C
100
AcDbEntity
  8
0
100
AcDbBlockBegin
  2
*U12
 70
     1
 71
     0
 10
0.0
 20
0.0
 30
0.0
  3
*U12
  1

  0
LINE
  5
16D
330
16C
100
AcDbEntity
  8
寸法
  6
ByBlock
 62
     0
100
AcDbLine
 10
-12.753557
 20
67.756625
 30
0.0
 11
-12.753557
 21
96.86469700000001
 31
0.0
  0
LINE
  5
16E
330
16C
100
AcDbEntity
  8
寸法
  6
ByBlock
 62
     0
100
AcDbLine
 10
-39.420225
 20
96.86469700000001
 30
0.0
 11
-12.753557
 21
96.86469700000001
 31
0.0
  0
POINT
  5
16F
330
16C
100
AcDbEntity
  8
寸法
 62
     0
100
AcDbPoint
 10
-12.753557
 20
96.86469700000001
 30
0.0
  0
TEXT
  5
170
330
16C
100
AcDbEntity
  8
寸法
  6
Continuous
 62
     0
100
AcDbText
 10
-28.5625
 20
97.22499999999999
 30
0.0
 40
3.0
  1
800
  7
TextStyle03
 72
     5
 11
-23.6875
 21
97.22499999999999
 31
0.0
100
AcDbText
  0
ENDBLK
  5
171
330
16C
100
AcDbEntity
  8
0
100
AcDbBlockEnd
  0
BLOCK
  5
172
330
173
100
AcDbEntity
  8
0
100
AcDbBlockBegin
  2
*U13
 70
     1
 71
     0
 10
0.0
 20
0.0
 30
0.0
  3
*U13
  1

  0
LINE
  5
174
330
173
100
AcDbEntity
  8
寸法
  6
ByBlock
 62
     0
100
AcDbLine
 10
13.91311
 20
67.756625
 30
0.0
 11
13.91311
 21
96.86469700000001
 31
0.0
  0
LINE
  5
175
330
173
100
AcDbEntity
  8
寸法
  6
ByBlock
 62
     0
100
AcDbLine
 10
-12.753557
 20
96.86469700000001
 30
0.0
 11
13.91311
 21
96.86469700000001
 31
0.0
  0
POINT
  5
176
330
173
100
AcDbEntity
  8
寸法
 62
     0
100
AcDbPoint
 10
13.91311
 20
96.86469700000001
 30
0.0
  0
TEXT
  5
177
330
173
100
AcDbEntity
  8
寸法
  6
Continuous
 62
     0
100
AcDbText
 10
-1.8875
 20
97.22499999999999
 30
0.0
 40
3.0
  1
800
  7
TextStyle03
 72
     5
 11
2.9875
 21
97.22499999999999
 31
0.0
100
AcDbText
  0
ENDBLK
  5
178
330
173
100
AcDbEntity
  8
0
100
AcDbBlockEnd
  0
BLOCK
  5
179
330
17A
100
AcDbEntity
  8
0
100
AcDbBlockBegin
  2
*U14
 70
     1
 71
     0
 10
0.0
 20
0.0
 30
0.0
  3
*U14
  1

  0
LINE
  5
17B
330
17A
100
AcDbEntity
  8
寸法
  6
ByBlock
 62
     0
100
AcDbLine
 10
40.579775
 20
67.756625
 30
0.0
 11
40.579775
 21
96.86469700000001
 31
0.0
  0
LINE
  5
17C
330
17A
100
AcDbEntity
  8
寸法
  6
ByBlock
 62
     0
100
AcDbLine
 10
13.91311
 20
96.86469700000001
 30
0.0
 11
40.579775
 21
96.86469700000001
 31
0.0
  0
POINT
  5
17D
330
17A
100
AcDbEntity
  8
寸法
 62
     0
100
AcDbPoint
 10
40.579775
 20
96.86469700000001
 30
0.0
  0
TEXT
  5
17E
330
17A
100
AcDbEntity
  8
寸法
  6
Continuous
 62
     0
100
AcDbText
 10
24.7875
 20
97.22499999999999
 30
0.0
 40
3.0
  1
800
  7
TextStyle03
 72
     5
 11
29.6625
 21
97.22499999999999
 31
0.0
100
AcDbText
  0
ENDBLK
  5
17F
330
17A
100
AcDbEntity
  8
0
100
AcDbBlockEnd
  0
BLOCK
  5
180
330
181
100
AcDbEntity
  8
0
100
AcDbBlockBegin
  2
*U15
 70
     1
 71
     0
 10
0.0
 20
0.0
 30
0.0
  3
*U15
  1

  0
LINE
  5
182
330
181
100
AcDbEntity
  8
寸法
  6
ByBlock
 62
     0
100
AcDbLine
 10
48.746443
 20
-79.95817
 30
0.0
 11
48.746443
 21
-29.63158
 31
0.0
  0
LINE
  5
183
330
181
100
AcDbEntity
  8
寸法
  6
ByBlock
 62
     0
100
AcDbLine
 10
45.579775
 20
-29.63158
 30
0.0
 11
48.746443
 21
-29.63158
 31
0.0
  0
POINT
  5
184
330
181
100
AcDbEntity
  8
寸法
 62
     0
100
AcDbPoint
 10
45.579775
 20
-29.63158
 30
0.0
  0
POINT
  5
185
330
181
100
AcDbEntity
  8
寸法
 62
     0
100
AcDbPoint
 10
48.746443
 20
-29.63158
 30
0.0
  0
TEXT
  5
186
330
181
100
AcDbEntity
  8
寸法
  6
Continuous
 62
     0
100
AcDbText
 10
45.55625
 20
-29.275
 30
0.0
 40
3.0
  1
95
  7
TextStyle03
 72
     5
 11
48.74375
 21
-29.275
 31
0.0
100
AcDbText
  0
ENDBLK
  5
187
330
181
100
AcDbEntity
  8
0
100
AcDbBlockEnd
  0
BLOCK
  5
188
330
189
100
AcDbEntity
  8
0
100
AcDbBlockBegin
  2
*U16
 70
     1
 71
     0
 10
0.0
 20
0.0
 30
0.0
  3
*U16
  1

  0
LINE
  5
18A
330
189
100
AcDbEntity
  8
寸法
  6
ByBlock
 62
     0
100
AcDbLine
 10
-74.253557
 20
-79.95817
 30
0.0
 11
-74.253557
 21
-29.63158
 31
0.0
  0
LINE
  5
18B
330
189
100
AcDbEntity
  8
寸法
  6
ByBlock
 62
     0
100
AcDbLine
 10
-71.08689200000001
 20
-29.63158
 30
0.0
 11
-74.253557
 21
-29.63158
 31
0.0
  0
POINT
  5
18C
330
189
100
AcDbEntity
  8
寸法
 62
     0
100
AcDbPoint
 10
-71.08689200000001
 20
-29.63158
 30
0.0
  0
POINT
  5
18D
330
189
100
AcDbEntity
  8
寸法
 62
     0
100
AcDbPoint
 10
-74.253557
 20
-29.63158
 30
0.0
  0
TEXT
  5
18E
330
189
100
AcDbEntity
  8
寸法
  6
Continuous
 62
     0
100
AcDbText
 10
-74.26875
 20
-29.275
 30
0.0
 40
3.0
  1
95
  7
TextStyle03
 72
     5
 11
-71.08125
 21
-29.275
 31
0.0
100
AcDbText
  0
ENDBLK
  5
18F
330
189
100
AcDbEntity
  8
0
100
AcDbBlockEnd
  0
BLOCK
  5
190
330
191
100
AcDbEntity
  8
0
100
AcDbBlockBegin
  2
*U17
 70
     1
 71
     0
 10
0.0
 20
0.0
 30
0.0
  3
*U17
  1

  0
LINE
  5
192
330
191
100
AcDbEntity
  8
寸法
  6
ByBlock
 62
     0
100
AcDbLine
 10
158.537835
 20
-49.367047
 30
0.0
 11
165.404422
 21
-49.367047
 31
0.0
  0
LINE
  5
193
330
191
100
AcDbEntity
  8
寸法
  6
ByBlock
 62
     0
100
AcDbLine
 10
158.537835
 20
-82.00038000000001
 30
0.0
 11
165.404422
 21
-82.00038000000001
 31
0.0
  0
LINE
  5
194
330
191
100
AcDbEntity
  8
寸法
  6
ByBlock
 62
     0
100
AcDbLine
 10
165.404422
 20
-49.367047
 30
0.0
 11
165.404422
 21
-82.00038000000001
 31
0.0
  0
POINT
  5
195
330
191
100
AcDbEntity
  8
寸法
 62
     0
100
AcDbPoint
 10
165.404422
 20
-49.367047
 30
0.0
  0
POINT
  5
196
330
191
100
AcDbEntity
  8
寸法
 62
     0
100
AcDbPoint
 10
165.404422
 20
-82.00038000000001
 30
0.0
  0
TEXT
  5
197
330
191
100
AcDbEntity
  8
寸法
  6
Continuous
 62
     0
100
AcDbText
 10
165.025
 20
-68.95
 30
0.0
 40
4.0
  1
979
 50
90.0
  7
TextStyle03
 72
     5
 11
165.025
 21
-62.45
 31
0.0
100
AcDbText
  0
ENDBLK
  5
198
330
191
100
AcDbEntity
  8
0
100
AcDbBlockEnd
  0
BLOCK
  5
199
330
19A
100
AcDbEntity
  8
0
100
AcDbBlockBegin
  2
*U18
 70
     1
 71
     0
 10
0.0
 20
0.0
 30
0.0
  3
*U18
  1

  0
LINE
  5
19B
330
19A
100
AcDbEntity
  8
寸法
  6
ByBlock
 62
     0
100
AcDbLine
 10
117.471168
 20
-46.367047
 30
0.0
 11
117.471168
 21
-41.368167
 31
0.0
  0
LINE
  5
19C
330
19A
100
AcDbEntity
  8
寸法
  6
ByBlock
 62
     0
100
AcDbLine
 10
155.537835
 20
-46.367047
 30
0.0
 11
155.537835
 21
-41.368167
 31
0.0
  0
LINE
  5
19D
330
19A
100
AcDbEntity
  8
寸法
  6
ByBlock
 62
     0
100
AcDbLine
 10
117.471168
 20
-41.368167
 30
0.0
 11
155.537835
 21
-41.368167
 31
0.0
  0
POINT
  5
19E
330
19A
100
AcDbEntity
  8
寸法
 62
     0
100
AcDbPoint
 10
117.471168
 20
-41.368167
 30
0.0
  0
POINT
  5
19F
330
19A
100
AcDbEntity
  8
寸法
 62
     0
100
AcDbPoint
 10
155.537835
 20
-41.368167
 30
0.0
  0
TEXT
  5
1A0
330
19A
100
AcDbEntity
  8
寸法
  6
Continuous
 62
     0
100
AcDbText
 10
132.125
 20
-41.0
 30
0.0
 40
4.0
  1
1142
  7
TextStyle03
 72
     5
 11
140.875
 21
-41.0
 31
0.0
100
AcDbText
  0
ENDBLK
  5
1A1
330
19A
100
AcDbEntity
  8
0
100
AcDbBlockEnd
  0
BLOCK
  5
1A2
330
1A3
100
AcDbEntity
  8
0
100
AcDbBlockBegin
  2
*U19
 70
     1
 71
     0
 10
0.0
 20
0.0
 30
0.0
  3
*U19
  1

  0
LINE
  5
1A4
330
1A3
100
AcDbEntity
  8
寸法
  6
ByBlock
 62
     0
100
AcDbLine
 10
135.446613
 20
67.92328999999999
 30
0.0
 11
82.21223999999999
 21
67.92328999999999
 31
0.0
  0
LINE
  5
1A5
330
1A3
100
AcDbEntity
  8
寸法
  6
ByBlock
 62
     0
100
AcDbLine
 10
82.21223999999999
 20
64.756625
 30
0.0
 11
82.21223999999999
 21
67.92328999999999
 31
0.0
  0
POINT
  5
1A6
330
1A3
100
AcDbEntity
  8
寸法
 62
     0
100
AcDbPoint
 10
82.21223999999999
 20
64.756625
 30
0.0
  0
POINT
  5
1A7
330
1A3
100
AcDbEntity
  8
寸法
 62
     0
100
AcDbPoint
 10
82.21223999999999
 20
67.92328999999999
 30
0.0
  0
TEXT
  5
1A8
330
1A3
100
AcDbEntity
  8
寸法
  6
Continuous
 62
     0
100
AcDbText
 10
81.825
 20
64.73125
 30
0.0
 40
3.0
  1
95
 50
90.0
  7
TextStyle03
 72
     5
 11
81.825
 21
67.91875
 31
0.0
100
AcDbText
  0
ENDBLK
  5
1A9
330
1A3
100
AcDbEntity
  8
0
100
AcDbBlockEnd
  0
BLOCK
  5
1AA
330
1AB
100
AcDbEntity
  8
0
100
AcDbBlockBegin
  2
*U20
 70
     1
 71
     0
 10
0.0
 20
0.0
 30
0.0
  3
*U20
  1

  0
LINE
  5
1AC
330
1AB
100
AcDbEntity
  8
寸法
  6
ByBlock
 62
     0
100
AcDbLine
 10
135.446613
 20
-5.076715
 30
0.0
 11
82.21223999999999
 21
-5.076715
 31
0.0
  0
LINE
  5
1AD
330
1AB
100
AcDbEntity
  8
寸法
  6
ByBlock
 62
     0
100
AcDbLine
 10
82.21223999999999
 20
-1.910042
 30
0.0
 11
82.21223999999999
 21
-5.076715
 31
0.0
  0
POINT
  5
1AE
330
1AB
100
AcDbEntity
  8
寸法
 62
     0
100
AcDbPoint
 10
82.21223999999999
 20
-1.910042
 30
0.0
  0
POINT
  5
1AF
330
1AB
100
AcDbEntity
  8
寸法
 62
     0
100
AcDbPoint
 10
82.21223999999999
 20
-5.076715
 30
0.0
  0
TEXT
  5
1B0
330
1AB
100
AcDbEntity
  8
寸法
  6
Continuous
 62
     0
100
AcDbText
 10
81.825
 20
-5.09375
 30
0.0
 40
3.0
  1
95
 50
90.0
  7
TextStyle03
 72
     5
 11
81.825
 21
-1.90625
 31
0.0
100
AcDbText
  0
ENDBLK
  5
1B1
330
1AB
100
AcDbEntity
  8
0
100
AcDbBlockEnd
  0
BLOCK
  5
1B2
330
1B3
100
AcDbEntity
  8
0
100
AcDbBlockBegin
  2
*U21
 70
     1
 71
     0
 10
0.0
 20
0.0
 30
0.0
  3
*U21
  1

  0
LINE
  5
1B4
330
1B3
100
AcDbEntity
  8
ボルト／ビス
  6
Continuous
100
AcDbLine
 10
-71.753557
 20
-79.62459699999999
 30
0.0
 11
-71.753557
 21
-79.15792999999999
 31
0.0
  0
LINE
  5
1B5
330
1B3
100
AcDbEntity
  8
ボルト／ビス
  6
Continuous
100
AcDbLine
 10
-72.120222
 20
-79.62459699999999
 30
0.0
 11
-72.120222
 21
-79.55793
 31
0.0
  0
LINE
  5
1B6
330
1B3
100
AcDbEntity
  8
ボルト／ビス
  6
Continuous
100
AcDbLine
 10
-72.120222
 20
-79.55793
 30
0.0
 11
-71.38688999999999
 21
-79.55793
 31
0.0
  0
LINE
  5
1B7
330
1B3
100
AcDbEntity
  8
ボルト／ビス
  6
Continuous
100
AcDbLine
 10
-71.38688999999999
 20
-79.55793
 30
0.0
 11
-71.38688999999999
 21
-79.62459699999999
 31
0.0
  0
LINE
  5
1B8
330
1B3
100
AcDbEntity
  8
ボルト／ビス
  6
Continuous
100
AcDbLine
 10
-72.120222
 20
-79.62459699999999
 30
0.0
 11
-71.38688999999999
 21
-79.62459699999999
 31
0.0
  0
LINE
  5
1B9
330
1B3
100
AcDbEntity
  8
ボルト／ビス
  6
Continuous
100
AcDbLine
 10
-72.053557
 20
-79.524597
 30
0.0
 11
-72.053557
 21
-79.55793
 31
0.0
  0
LINE
  5
1BA
330
1B3
100
AcDbEntity
  8
ボルト／ビス
  6
Continuous
100
AcDbLine
 10
-72.053557
 20
-79.524597
 30
0.0
 11
-71.453557
 21
-79.524597
 31
0.0
  0
LINE
  5
1BB
330
1B3
100
AcDbEntity
  8
ボルト／ビス
  6
Continuous
100
AcDbLine
 10
-71.453557
 20
-79.524597
 30
0.0
 11
-71.453557
 21
-79.55793
 31
0.0
  0
LINE
  5
1BC
330
1B3
100
AcDbEntity
  8
ボルト／ビス
  6
Continuous
 62
    64
100
AcDbLine
 10
-71.913933
 20
-79.324597
 30
0.0
 11
-71.94600699999999
 21
-79.33627199999999
 31
0.0
  0
ARC
  5
1BD
330
1B3
100
AcDbEntity
  8
ボルト／ビス
  6
Continuous
 62
    64
100
AcDbCircle
 10
-71.897893
 20
-79.429576
 30
0.0
 40
0.104978
100
AcDbArc
 50
62.721967
 51
90.0
  0
ARC
  5
1BE
330
1B3
100
AcDbEntity
  8
ボルト／ビス
  6
Continuous
 62
    64
100
AcDbCircle
 10
-71.753556
 20
-79.727
 30
0.0
 40
0.402402
100
AcDbArc
 50
76.165002
 51
103.834985
  0
LINE
  5
1BF
330
1B3
100
AcDbEntity
  8
ボルト／ビス
  6
Continuous
 62
    64
100
AcDbLine
 10
-71.593182
 20
-79.324597
 30
0.0
 11
-71.56110700000001
 21
-79.33627199999999
 31
0.0
  0
ARC
  5
1C0
330
1B3
100
AcDbEntity
  8
ボルト／ビス
  6
Continuous
 62
    64
100
AcDbCircle
 10
-71.609218
 20
-79.429576
 30
0.0
 40
0.104978
100
AcDbArc
 50
90.0
 51
117.278033
  0
LINE
  5
1C1
330
1B3
100
AcDbEntity
  8
ボルト／ビス
  6
Continuous
 62
    64
100
AcDbLine
 10
-71.913933
 20
-79.324597
 30
0.0
 11
-71.593182
 21
-79.324597
 31
0.0
  0
LINE
  5
1C2
330
1B3
100
AcDbEntity
  8
ボルト／ビス
  6
Continuous
 62
    64
100
AcDbLine
 10
-71.56110700000001
 20
-79.33627199999999
 30
0.0
 11
-71.56110700000001
 21
-79.45793000000001
 31
0.0
  0
LINE
  5
1C3
330
1B3
100
AcDbEntity
  8
ボルト／ビス
  6
Continuous
 62
    64
100
AcDbLine
 10
-71.65733299999999
 20
-79.33627199999999
 30
0.0
 11
-71.65733299999999
 21
-79.45793000000001
 31
0.0
  0
LINE
  5
1C4
330
1B3
100
AcDbEntity
  8
ボルト／ビス
  6
Continuous
 62
    64
100
AcDbLine
 10
-71.94600699999999
 20
-79.33627199999999
 30
0.0
 11
-71.94600699999999
 21
-79.45793000000001
 31
0.0
  0
LINE
  5
1C5
330
1B3
100
AcDbEntity
  8
ボルト／ビス
  6
Continuous
 62
    64
100
AcDbLine
 10
-71.849783
 20
-79.33627199999999
 30
0.0
 11
-71.849783
 21
-79.45793000000001
 31
0.0
  0
LINE
  5
1C6
330
1B3
100
AcDbEntity
  8
ボルト／ビス
  6
Continuous
100
AcDbLine
 10
-71.94600699999999
 20
-79.45793000000001
 30
0.0
 11
-71.56110700000001
 21
-79.45793000000001
 31
0.0
  0
LINE
  5
1C7
330
1B3
100
AcDbEntity
  8
ボルト／ビス
  6
Continuous
100
AcDbLine
 10
-71.953557
 20
-79.45793000000001
 30
0.0
 11
-71.953557
 21
-79.524597
 31
0.0
  0
LINE
  5
1C8
330
1B3
100
AcDbEntity
  8
ボルト／ビス
  6
Continuous
100
AcDbLine
 10
-71.953557
 20
-79.45793000000001
 30
0.0
 11
-71.553557
 21
-79.45793000000001
 31
0.0
  0
LINE
  5
1C9
330
1B3
100
AcDbEntity
  8
ボルト／ビス
  6
Continuous
100
AcDbLine
 10
-71.553557
 20
-79.45793000000001
 30
0.0
 11
-71.553557
 21
-79.524597
 31
0.0
  0
ENDBLK
  5
1CA
330
1B3
100
AcDbEntity
  8
0
100
AcDbBlockEnd
  0
BLOCK
  5
1CB
330
1CC
100
AcDbEntity
  8
0
100
AcDbBlockBegin
  2
*U22
 70
     1
 71
     0
 10
0.0
 20
0.0
 30
0.0
  3
*U22
  1

  0
LINE
  5
1CD
330
1CC
100
AcDbEntity
  8
ボルト／ビス
  6
Continuous
100
AcDbLine
 10
46.246443
 20
-79.62459699999999
 30
0.0
 11
46.246443
 21
-79.15792999999999
 31
0.0
  0
LINE
  5
1CE
330
1CC
100
AcDbEntity
  8
ボルト／ビス
  6
Continuous
100
AcDbLine
 10
45.879777
 20
-79.62459699999999
 30
0.0
 11
45.879777
 21
-79.55793
 31
0.0
  0
LINE
  5
1CF
330
1CC
100
AcDbEntity
  8
ボルト／ビス
  6
Continuous
100
AcDbLine
 10
45.879777
 20
-79.55793
 30
0.0
 11
46.61311
 21
-79.55793
 31
0.0
  0
LINE
  5
1D0
330
1CC
100
AcDbEntity
  8
ボルト／ビス
  6
Continuous
100
AcDbLine
 10
46.61311
 20
-79.55793
 30
0.0
 11
46.61311
 21
-79.62459699999999
 31
0.0
  0
LINE
  5
1D1
330
1CC
100
AcDbEntity
  8
ボルト／ビス
  6
Continuous
100
AcDbLine
 10
45.879777
 20
-79.62459699999999
 30
0.0
 11
46.61311
 21
-79.62459699999999
 31
0.0
  0
LINE
  5
1D2
330
1CC
100
AcDbEntity
  8
ボルト／ビス
  6
Continuous
100
AcDbLine
 10
45.946443
 20
-79.524597
 30
0.0
 11
45.946443
 21
-79.55793
 31
0.0
  0
LINE
  5
1D3
330
1CC
100
AcDbEntity
  8
ボルト／ビス
  6
Continuous
100
AcDbLine
 10
45.946443
 20
-79.524597
 30
0.0
 11
46.546443
 21
-79.524597
 31
0.0
  0
LINE
  5
1D4
330
1CC
100
AcDbEntity
  8
ボルト／ビス
  6
Continuous
100
AcDbLine
 10
46.546443
 20
-79.524597
 30
0.0
 11
46.546443
 21
-79.55793
 31
0.0
  0
LINE
  5
1D5
330
1CC
100
AcDbEntity
  8
ボルト／ビス
  6
Continuous
 62
    64
100
AcDbLine
 10
46.086067
 20
-79.324597
 30
0.0
 11
46.053992
 21
-79.33627199999999
 31
0.0
  0
ARC
  5
1D6
330
1CC
100
AcDbEntity
  8
ボルト／ビス
  6
Continuous
 62
    64
100
AcDbCircle
 10
46.102107
 20
-79.429576
 30
0.0
 40
0.104978
100
AcDbArc
 50
62.721967
 51
90.0
  0
ARC
  5
1D7
330
1CC
100
AcDbEntity
  8
ボルト／ビス
  6
Continuous
 62
    64
100
AcDbCircle
 10
46.246444
 20
-79.727
 30
0.0
 40
0.402402
100
AcDbArc
 50
76.165002
 51
103.834985
  0
LINE
  5
1D8
330
1CC
100
AcDbEntity
  8
ボルト／ビス
  6
Continuous
 62
    64
100
AcDbLine
 10
46.406818
 20
-79.324597
 30
0.0
 11
46.438892
 21
-79.33627199999999
 31
0.0
  0
ARC
  5
1D9
330
1CC
100
AcDbEntity
  8
ボルト／ビス
  6
Continuous
 62
    64
100
AcDbCircle
 10
46.390782
 20
-79.429576
 30
0.0
 40
0.104978
100
AcDbArc
 50
90.0
 51
117.278033
  0
LINE
  5
1DA
330
1CC
100
AcDbEntity
  8
ボルト／ビス
  6
Continuous
 62
    64
100
AcDbLine
 10
46.086067
 20
-79.324597
 30
0.0
 11
46.406818
 21
-79.324597
 31
0.0
  0
LINE
  5
1DB
330
1CC
100
AcDbEntity
  8
ボルト／ビス
  6
Continuous
 62
    64
100
AcDbLine
 10
46.438892
 20
-79.33627199999999
 30
0.0
 11
46.438892
 21
-79.45793000000001
 31
0.0
  0
LINE
  5
1DC
330
1CC
100
AcDbEntity
  8
ボルト／ビス
  6
Continuous
 62
    64
100
AcDbLine
 10
46.342668
 20
-79.33627199999999
 30
0.0
 11
46.342668
 21
-79.45793000000001
 31
0.0
  0
LINE
  5
1DD
330
1CC
100
AcDbEntity
  8
ボルト／ビス
  6
Continuous
 62
    64
100
AcDbLine
 10
46.053992
 20
-79.33627199999999
 30
0.0
 11
46.053992
 21
-79.45793000000001
 31
0.0
  0
LINE
  5
1DE
330
1CC
100
AcDbEntity
  8
ボルト／ビス
  6
Continuous
 62
    64
100
AcDbLine
 10
46.150217
 20
-79.33627199999999
 30
0.0
 11
46.150217
 21
-79.45793000000001
 31
0.0
  0
LINE
  5
1DF
330
1CC
100
AcDbEntity
  8
ボルト／ビス
  6
Continuous
100
AcDbLine
 10
46.053992
 20
-79.45793000000001
 30
0.0
 11
46.438892
 21
-79.45793000000001
 31
0.0
  0
LINE
  5
1E0
330
1CC
100
AcDbEntity
  8
ボルト／ビス
  6
Continuous
100
AcDbLine
 10
46.046443
 20
-79.45793000000001
 30
0.0
 11
46.046443
 21
-79.524597
 31
0.0
  0
LINE
  5
1E1
330
1CC
100
AcDbEntity
  8
ボルト／ビス
  6
Continuous
100
AcDbLine
 10
46.046443
 20
-79.45793000000001
 30
0.0
 11
46.446443
 21
-79.45793000000001
 31
0.0
  0
LINE
  5
1E2
330
1CC
100
AcDbEntity
  8
ボルト／ビス
  6
Continuous
100
AcDbLine
 10
46.446443
 20
-79.45793000000001
 30
0.0
 11
46.446443
 21
-79.524597
 31
0.0
  0
ENDBLK
  5
1E3
330
1CC
100
AcDbEntity
  8
0
100
AcDbBlockEnd
  0
BLOCK
  5
1E4
330
1E5
100
AcDbEntity
  8
0
100
AcDbBlockBegin
  2
*U23
 70
     1
 71
     0
 10
0.0
 20
0.0
 30
0.0
  3
*U23
  1

  0
LINE
  5
1E6
330
1E5
100
AcDbEntity
  8
ボルト／ビス
  6
Continuous
100
AcDbLine
 10
135.11304
 20
-2.57671
 30
0.0
 11
134.646372
 21
-2.57671
 31
0.0
  0
LINE
  5
1E7
330
1E5
100
AcDbEntity
  8
ボルト／ビス
  6
Continuous
100
AcDbLine
 10
135.11304
 20
-2.943375
 30
0.0
 11
135.046372
 21
-2.943375
 31
0.0
  0
LINE
  5
1E8
330
1E5
100
AcDbEntity
  8
ボルト／ビス
  6
Continuous
100
AcDbLine
 10
135.046372
 20
-2.943375
 30
0.0
 11
135.046372
 21
-2.210042
 31
0.0
  0
LINE
  5
1E9
330
1E5
100
AcDbEntity
  8
ボルト／ビス
  6
Continuous
100
AcDbLine
 10
135.046372
 20
-2.210042
 30
0.0
 11
135.11304
 21
-2.210042
 31
0.0
  0
LINE
  5
1EA
330
1E5
100
AcDbEntity
  8
ボルト／ビス
  6
Continuous
100
AcDbLine
 10
135.11304
 20
-2.943375
 30
0.0
 11
135.11304
 21
-2.210042
 31
0.0
  0
LINE
  5
1EB
330
1E5
100
AcDbEntity
  8
ボルト／ビス
  6
Continuous
100
AcDbLine
 10
135.01304
 20
-2.87671
 30
0.0
 11
135.046372
 21
-2.87671
 31
0.0
  0
LINE
  5
1EC
330
1E5
100
AcDbEntity
  8
ボルト／ビス
  6
Continuous
100
AcDbLine
 10
135.01304
 20
-2.87671
 30
0.0
 11
135.01304
 21
-2.27671
 31
0.0
  0
LINE
  5
1ED
330
1E5
100
AcDbEntity
  8
ボルト／ビス
  6
Continuous
100
AcDbLine
 10
135.01304
 20
-2.27671
 30
0.0
 11
135.046372
 21
-2.27671
 31
0.0
  0
LINE
  5
1EE
330
1E5
100
AcDbEntity
  8
ボルト／ビス
  6
Continuous
 62
    64
100
AcDbLine
 10
134.81304
 20
-2.737085
 30
0.0
 11
134.824715
 21
-2.76916
 31
0.0
  0
ARC
  5
1EF
330
1E5
100
AcDbEntity
  8
ボルト／ビス
  6
Continuous
 62
    64
100
AcDbCircle
 10
134.91802
 20
-2.721044
 30
0.0
 40
0.104978
100
AcDbArc
 50
152.721967
 51
180.0
  0
ARC
  5
1F0
330
1E5
100
AcDbEntity
  8
ボルト／ビス
  6
Continuous
 62
    64
100
AcDbCircle
 10
135.215444
 20
-2.576706
 30
0.0
 40
0.402402
100
AcDbArc
 50
166.165002
 51
193.834985
  0
LINE
  5
1F1
330
1E5
100
AcDbEntity
  8
ボルト／ビス
  6
Continuous
 62
    64
100
AcDbLine
 10
134.81304
 20
-2.416335
 30
0.0
 11
134.824715
 21
-2.38426
 31
0.0
  0
ARC
  5
1F2
330
1E5
100
AcDbEntity
  8
ボルト／ビス
  6
Continuous
 62
    64
100
AcDbCircle
 10
134.91802
 20
-2.432368
 30
0.0
 40
0.104978
100
AcDbArc
 50
180.0
 51
207.278033
  0
LINE
  5
1F3
330
1E5
100
AcDbEntity
  8
ボルト／ビス
  6
Continuous
 62
    64
100
AcDbLine
 10
134.81304
 20
-2.737085
 30
0.0
 11
134.81304
 21
-2.416335
 31
0.0
  0
LINE
  5
1F4
330
1E5
100
AcDbEntity
  8
ボルト／ビス
  6
Continuous
 62
    64
100
AcDbLine
 10
134.824715
 20
-2.38426
 30
0.0
 11
134.946372
 21
-2.38426
 31
0.0
  0
LINE
  5
1F5
330
1E5
100
AcDbEntity
  8
ボルト／ビス
  6
Continuous
 62
    64
100
AcDbLine
 10
134.824715
 20
-2.480485
 30
0.0
 11
134.946372
 21
-2.480485
 31
0.0
  0
LINE
  5
1F6
330
1E5
100
AcDbEntity
  8
ボルト／ビス
  6
Continuous
 62
    64
100
AcDbLine
 10
134.824715
 20
-2.76916
 30
0.0
 11
134.946372
 21
-2.76916
 31
0.0
  0
LINE
  5
1F7
330
1E5
100
AcDbEntity
  8
ボルト／ビス
  6
Continuous
 62
    64
100
AcDbLine
 10
134.824715
 20
-2.672935
 30
0.0
 11
134.946372
 21
-2.672935
 31
0.0
  0
LINE
  5
1F8
330
1E5
100
AcDbEntity
  8
ボルト／ビス
  6
Continuous
100
AcDbLine
 10
134.946372
 20
-2.76916
 30
0.0
 11
134.946372
 21
-2.38426
 31
0.0
  0
LINE
  5
1F9
330
1E5
100
AcDbEntity
  8
ボルト／ビス
  6
Continuous
100
AcDbLine
 10
134.946372
 20
-2.77671
 30
0.0
 11
135.01304
 21
-2.77671
 31
0.0
  0
LINE
  5
1FA
330
1E5
100
AcDbEntity
  8
ボルト／ビス
  6
Continuous
100
AcDbLine
 10
134.946372
 20
-2.77671
 30
0.0
 11
134.946372
 21
-2.37671
 31
0.0
  0
LINE
  5
1FB
330
1E5
100
AcDbEntity
  8
ボルト／ビス
  6
Continuous
100
AcDbLine
 10
134.946372
 20
-2.37671
 30
0.0
 11
135.01304
 21
-2.37671
 31
0.0
  0
ENDBLK
  5
1FC
330
1E5
100
AcDbEntity
  8
0
100
AcDbBlockEnd
  0
BLOCK
  5
1FD
330
1FE
100
AcDbEntity
  8
0
100
AcDbBlockBegin
  2
*U24
 70
     1
 71
     0
 10
0.0
 20
0.0
 30
0.0
  3
*U24
  1

  0
LINE
  5
1FF
330
1FE
100
AcDbEntity
  8
ボルト／ビス
  6
Continuous
100
AcDbLine
 10
135.11304
 20
65.42328999999999
 30
0.0
 11
134.646372
 21
65.42328999999999
 31
0.0
  0
LINE
  5
200
330
1FE
100
AcDbEntity
  8
ボルト／ビス
  6
Continuous
100
AcDbLine
 10
135.11304
 20
65.056625
 30
0.0
 11
135.046372
 21
65.056625
 31
0.0
  0
LINE
  5
201
330
1FE
100
AcDbEntity
  8
ボルト／ビス
  6
Continuous
100
AcDbLine
 10
135.046372
 20
65.056625
 30
0.0
 11
135.046372
 21
65.789957
 31
0.0
  0
LINE
  5
202
330
1FE
100
AcDbEntity
  8
ボルト／ビス
  6
Continuous
100
AcDbLine
 10
135.046372
 20
65.789957
 30
0.0
 11
135.11304
 21
65.789957
 31
0.0
  0
LINE
  5
203
330
1FE
100
AcDbEntity
  8
ボルト／ビス
  6
Continuous
100
AcDbLine
 10
135.11304
 20
65.056625
 30
0.0
 11
135.11304
 21
65.789957
 31
0.0
  0
LINE
  5
204
330
1FE
100
AcDbEntity
  8
ボルト／ビス
  6
Continuous
100
AcDbLine
 10
135.01304
 20
65.12329
 30
0.0
 11
135.046372
 21
65.12329
 31
0.0
  0
LINE
  5
205
330
1FE
100
AcDbEntity
  8
ボルト／ビス
  6
Continuous
100
AcDbLine
 10
135.01304
 20
65.12329
 30
0.0
 11
135.01304
 21
65.72329000000001
 31
0.0
  0
LINE
  5
206
330
1FE
100
AcDbEntity
  8
ボルト／ビス
  6
Continuous
100
AcDbLine
 10
135.01304
 20
65.72329000000001
 30
0.0
 11
135.046372
 21
65.72329000000001
 31
0.0
  0
LINE
  5
207
330
1FE
100
AcDbEntity
  8
ボルト／ビス
  6
Continuous
 62
    64
100
AcDbLine
 10
134.81304
 20
65.26291500000001
 30
0.0
 11
134.824715
 21
65.23084
 31
0.0
  0
ARC
  5
208
330
1FE
100
AcDbEntity
  8
ボルト／ビス
  6
Continuous
 62
    64
100
AcDbCircle
 10
134.91802
 20
65.27895599999999
 30
0.0
 40
0.104978
100
AcDbArc
 50
152.721967
 51
180.0
  0
ARC
  5
209
330
1FE
100
AcDbEntity
  8
ボルト／ビス
  6
Continuous
 62
    64
100
AcDbCircle
 10
135.215444
 20
65.423294
 30
0.0
 40
0.402402
100
AcDbArc
 50
166.165002
 51
193.834985
  0
LINE
  5
20A
330
1FE
100
AcDbEntity
  8
ボルト／ビス
  6
Continuous
 62
    64
100
AcDbLine
 10
134.81304
 20
65.583665
 30
0.0
 11
134.824715
 21
65.61574
 31
0.0
  0
ARC
  5
20B
330
1FE
100
AcDbEntity
  8
ボルト／ビス
  6
Continuous
 62
    64
100
AcDbCircle
 10
134.91802
 20
65.567632
 30
0.0
 40
0.104978
100
AcDbArc
 50
180.0
 51
207.278033
  0
LINE
  5
20C
330
1FE
100
AcDbEntity
  8
ボルト／ビス
  6
Continuous
 62
    64
100
AcDbLine
 10
134.81304
 20
65.26291500000001
 30
0.0
 11
134.81304
 21
65.583665
 31
0.0
  0
LINE
  5
20D
330
1FE
100
AcDbEntity
  8
ボルト／ビス
  6
Continuous
 62
    64
100
AcDbLine
 10
134.824715
 20
65.61574
 30
0.0
 11
134.946372
 21
65.61574
 31
0.0
  0
LINE
  5
20E
330
1FE
100
AcDbEntity
  8
ボルト／ビス
  6
Continuous
 62
    64
100
AcDbLine
 10
134.824715
 20
65.519515
 30
0.0
 11
134.946372
 21
65.519515
 31
0.0
  0
LINE
  5
20F
330
1FE
100
AcDbEntity
  8
ボルト／ビス
  6
Continuous
 62
    64
100
AcDbLine
 10
134.824715
 20
65.23084
 30
0.0
 11
134.946372
 21
65.23084
 31
0.0
  0
LINE
  5
210
330
1FE
100
AcDbEntity
  8
ボルト／ビス
  6
Continuous
 62
    64
100
AcDbLine
 10
134.824715
 20
65.32706500000001
 30
0.0
 11
134.946372
 21
65.32706500000001
 31
0.0
  0
LINE
  5
211
330
1FE
100
AcDbEntity
  8
ボルト／ビス
  6
Continuous
100
AcDbLine
 10
134.946372
 20
65.23084
 30
0.0
 11
134.946372
 21
65.61574
 31
0.0
  0
LINE
  5
212
330
1FE
100
AcDbEntity
  8
ボルト／ビス
  6
Continuous
100
AcDbLine
 10
134.946372
 20
65.22329000000001
 30
0.0
 11
135.01304
 21
65.22329000000001
 31
0.0
  0
LINE
  5
213
330
1FE
100
AcDbEntity
  8
ボルト／ビス
  6
Continuous
100
AcDbLine
 10
134.946372
 20
65.22329000000001
 30
0.0
 11
134.946372
 21
65.62329
 31
0.0
  0
LINE
  5
214
330
1FE
100
AcDbEntity
  8
ボルト／ビス
  6
Continuous
100
AcDbLine
 10
134.946372
 20
65.62329
 30
0.0
 11
135.01304
 21
65.62329
 31
0.0
  0
ENDBLK
  5
215
330
1FE
100
AcDbEntity
  8
0
100
AcDbBlockEnd
  0
ENDSEC
  0
SECTION
  2
ENTITIES
  0
LWPOLYLINE
  5
216
330
1D
100
AcDbEntity
  8
通り芯
  6
Continuous
100
AcDbPolyline
 90
        4
 70
     1
 43
0.0
 10
-210.0
 20
-148.5
 10
210.0
 20
-148.5
 10
210.0
 20
148.5
 10
-210.0
 20
148.5
  0
INSERT
  5
21C
330
1D
100
AcDbEntity
  8
型材断面
  6
Continuous
100
AcDbBlockReference
  2
*U0
 10
0.0
 20
0.0
 30
0.0
  0
LINE
  5
21D
330
1D
100
AcDbEntity
  8
型材断面
  6
DASHDOT
100
AcDbLine
 10
45.579775
 20
64.756625
 30
0.0
 11
45.579775
 21
-87.251428
 31
0.0
  0
LINE
  5
21E
330
1D
100
AcDbEntity
  8
型材断面
  6
DASHDOT
100
AcDbLine
 10
-12.753557
 20
64.756625
 30
0.0
 11
-12.753557
 21
-87.251428
 31
0.0
  0
LINE
  5
21F
330
1D
100
AcDbEntity
  8
型材断面
  6
DASHDOT
100
AcDbLine
 10
-71.08689200000001
 20
64.756625
 30
0.0
 11
-71.08689200000001
 21
-87.251428
 31
0.0
  0
LINE
  5
220
330
1D
100
AcDbEntity
  8
型材断面
  6
DASHDOT
100
AcDbLine
 10
143.256538
 20
-1.910042
 30
0.0
 11
-71.08689200000001
 21
-1.910042
 31
0.0
  0
LINE
  5
221
330
1D
100
AcDbEntity
  8
型材断面
  6
DASHDOT
100
AcDbLine
 10
143.256538
 20
31.423293
 30
0.0
 11
-71.08689200000001
 21
31.423293
 31
0.0
  0
LINE
  5
222
330
1D
100
AcDbEntity
  8
型材断面
  6
DASHDOT
100
AcDbLine
 10
143.256538
 20
64.756625
 30
0.0
 11
-71.08689200000001
 21
64.756625
 31
0.0
  0
LINE
  5
223
330
1D
100
AcDbEntity
  8
型材断面
  6
DOT
100
AcDbLine
 10
-31.016892
 20
32.673293
 30
0.0
 11
5.509778
 21
32.673293
 31
0.0
  0
LINE
  5
224
330
1D
100
AcDbEntity
  8
型材断面
  6
DOT
100
AcDbLine
 10
-31.016892
 20
30.173293
 30
0.0
 11
5.509778
 21
30.173293
 31
0.0
  0
LINE
  5
225
330
1D
100
AcDbEntity
  8
型材断面
  6
DOT
100
AcDbLine
 10
45.579775
 20
32.673293
 30
0.0
 11
8.009778000000001
 21
32.673293
 31
0.0
  0
LINE
  5
226
330
1D
100
AcDbEntity
  8
型材断面
  6
DOT
100
AcDbLine
 10
45.579775
 20
30.173293
 30
0.0
 11
8.009778000000001
 21
30.173293
 31
0.0
  0
LINE
  5
227
330
1D
100
AcDbEntity
  8
型材断面
  6
DOT
100
AcDbLine
 10
-71.08689
 20
32.673293
 30
0.0
 11
-33.516892
 21
32.673293
 31
0.0
  0
LINE
  5
228
330
1D
100
AcDbEntity
  8
型材断面
  6
DOT
100
AcDbLine
 10
-71.08689
 20
30.173293
 30
0.0
 11
-33.516892
 21
30.173293
 31
0.0
  0
LINE
  5
229
330
1D
100
AcDbEntity
  8
型材断面
  6
Continuous
100
AcDbLine
 10
-73.717022
 20
31.423293
 30
0.0
 11
-76.30753
 21
32.918923
 31
0.0
  0
LINE
  5
22A
330
1D
100
AcDbEntity
  8
型材断面
  6
Continuous
100
AcDbLine
 10
-73.717022
 20
31.423293
 30
0.0
 11
-76.30753
 21
29.927663
 31
0.0
  0
LINE
  5
22B
330
1D
100
AcDbEntity
  8
型材断面
  6
Continuous
100
AcDbLine
 10
-76.30753
 20
29.927663
 30
0.0
 11
-76.30753
 21
32.918923
 31
0.0
  0
LINE
  5
22C
330
1D
100
AcDbEntity
  8
型材断面
  6
Continuous
100
AcDbLine
 10
-111.9391
 20
109.263973
 30
0.0
 11
-113.43473
 21
106.673465
 31
0.0
  0
LINE
  5
22D
330
1D
100
AcDbEntity
  8
型材断面
  6
Continuous
100
AcDbLine
 10
-111.9391
 20
109.263973
 30
0.0
 11
-110.44347
 21
106.673465
 31
0.0
  0
LINE
  5
22E
330
1D
100
AcDbEntity
  8
型材断面
  6
Continuous
100
AcDbLine
 10
-110.44347
 20
106.673465
 30
0.0
 11
-113.43473
 21
106.673465
 31
0.0
  0
LINE
  5
22F
330
1D
100
AcDbEntity
  8
型材断面
  6
Continuous
100
AcDbLine
 10
-117.961687
 20
105.73487
 30
0.0
 11
-71.71991
 21
105.73487
 31
0.0
  0
LINE
  5
230
330
1D
100
AcDbEntity
  8
型材断面
  6
Continuous
100
AcDbLine
 10
-54.420225
 20
-4.54017
 30
0.0
 11
-55.915855
 21
-7.130678
 31
0.0
  0
LINE
  5
231
330
1D
100
AcDbEntity
  8
型材断面
  6
Continuous
100
AcDbLine
 10
-54.420225
 20
-4.54017
 30
0.0
 11
-52.924595
 21
-7.130678
 31
0.0
  0
LINE
  5
232
330
1D
100
AcDbEntity
  8
型材断面
  6
Continuous
100
AcDbLine
 10
-52.924595
 20
-7.130678
 30
0.0
 11
-55.915855
 21
-7.130678
 31
0.0
  0
LINE
  5
233
330
1D
100
AcDbEntity
  8
型材断面
  6
Continuous
100
AcDbLine
 10
-54.420225
 20
67.38675499999999
 30
0.0
 11
-55.915855
 21
69.977262
 31
0.0
  0
LINE
  5
234
330
1D
100
AcDbEntity
  8
型材断面
  6
Continuous
100
AcDbLine
 10
-54.420225
 20
67.38675499999999
 30
0.0
 11
-52.924595
 21
69.977262
 31
0.0
  0
LINE
  5
235
330
1D
100
AcDbEntity
  8
型材断面
  6
Continuous
100
AcDbLine
 10
-52.924595
 20
69.977262
 30
0.0
 11
-55.915855
 21
69.977262
 31
0.0
  0
LINE
  5
236
330
1D
100
AcDbEntity
  8
型材断面
  6
Continuous
100
AcDbLine
 10
48.209908
 20
31.423293
 30
0.0
 11
50.800415
 21
32.918923
 31
0.0
  0
LINE
  5
237
330
1D
100
AcDbEntity
  8
型材断面
  6
Continuous
100
AcDbLine
 10
48.209908
 20
31.423293
 30
0.0
 11
50.800415
 21
29.927663
 31
0.0
  0
LINE
  5
238
330
1D
100
AcDbEntity
  8
型材断面
  6
Continuous
100
AcDbLine
 10
50.800415
 20
29.927663
 30
0.0
 11
50.800415
 21
32.918923
 31
0.0
  0
LINE
  5
239
330
1D
100
AcDbEntity
  8
型材断面
  6
Continuous
100
AcDbLine
 10
28.91311
 20
-4.54017
 30
0.0
 11
30.40874
 21
-7.130678
 31
0.0
  0
LINE
  5
23A
330
1D
100
AcDbEntity
  8
型材断面
  6
Continuous
100
AcDbLine
 10
28.91311
 20
-4.54017
 30
0.0
 11
27.41748
 21
-7.130678
 31
0.0
  0
LINE
  5
23B
330
1D
100
AcDbEntity
  8
型材断面
  6
Continuous
100
AcDbLine
 10
27.41748
 20
-7.130678
 30
0.0
 11
30.40874
 21
-7.130678
 31
0.0
  0
LINE
  5
23C
330
1D
100
AcDbEntity
  8
型材断面
  6
Continuous
100
AcDbLine
 10
28.91311
 20
67.38675499999999
 30
0.0
 11
30.40874
 21
69.977262
 31
0.0
  0
LINE
  5
23D
330
1D
100
AcDbEntity
  8
型材断面
  6
Continuous
100
AcDbLine
 10
28.91311
 20
67.38675499999999
 30
0.0
 11
27.41748
 21
69.977262
 31
0.0
  0
LINE
  5
23E
330
1D
100
AcDbEntity
  8
型材断面
  6
Continuous
100
AcDbLine
 10
27.41748
 20
69.977262
 30
0.0
 11
30.40874
 21
69.977262
 31
0.0
  0
LINE
  5
23F
330
1D
100
AcDbEntity
  8
型材断面
  6
Continuous
100
AcDbLine
 10
-117.961687
 20
99.60203199999999
 30
0.0
 11
-71.71991
 21
99.60203199999999
 31
0.0
  0
LINE
  5
240
330
1D
100
AcDbEntity
  8
型材断面
  6
Continuous
100
AcDbLine
 10
-73.15355700000001
 20
-3.97671
 30
0.0
 11
-74.25355500000001
 21
-5.076707
 31
0.0
  0
LINE
  5
241
330
1D
100
AcDbEntity
  8
型材断面
  6
Continuous
100
AcDbLine
 10
-74.25355500000001
 20
-5.076707
 30
0.0
 11
-74.25355500000001
 21
67.92328999999999
 31
0.0
  0
LINE
  5
242
330
1D
100
AcDbEntity
  8
型材断面
  6
Continuous
100
AcDbLine
 10
-73.15355700000001
 20
66.823295
 30
0.0
 11
-74.25355500000001
 21
67.92328999999999
 31
0.0
  0
LINE
  5
243
330
1D
100
AcDbEntity
  8
型材断面
  6
Continuous
100
AcDbLine
 10
-74.25355500000001
 20
67.92328999999999
 30
0.0
 11
48.74644
 21
67.92328999999999
 31
0.0
  0
LINE
  5
244
330
1D
100
AcDbEntity
  8
型材断面
  6
Continuous
100
AcDbLine
 10
47.646443
 20
66.823295
 30
0.0
 11
48.74644
 21
67.92328999999999
 31
0.0
  0
LINE
  5
245
330
1D
100
AcDbEntity
  8
型材断面
  6
Continuous
100
AcDbLine
 10
-74.25355500000001
 20
-5.076707
 30
0.0
 11
48.74644
 21
-5.076707
 31
0.0
  0
LINE
  5
246
330
1D
100
AcDbEntity
  8
型材断面
  6
Continuous
100
AcDbLine
 10
48.74644
 20
67.92328999999999
 30
0.0
 11
48.74644
 21
-5.076707
 31
0.0
  0
LINE
  5
247
330
1D
100
AcDbEntity
  8
型材断面
  6
Continuous
100
AcDbLine
 10
47.646443
 20
-3.97671
 30
0.0
 11
48.74644
 21
-5.076707
 31
0.0
  0
LINE
  5
248
330
1D
100
AcDbEntity
  8
型材断面
  6
DASHDOT
100
AcDbLine
 10
-32.320225
 20
-1.910042
 30
0.0
 11
-32.320225
 21
64.756625
 31
0.0
  0
LINE
  5
249
330
1D
100
AcDbEntity
  8
型材断面
  6
DOT
100
AcDbLine
 10
-31.070225
 20
-1.910042
 30
0.0
 11
-31.070225
 21
64.756625
 31
0.0
  0
LINE
  5
24A
330
1D
100
AcDbEntity
  8
型材断面
  6
DOT
100
AcDbLine
 10
-33.570225
 20
-1.910042
 30
0.0
 11
-33.570225
 21
64.756625
 31
0.0
  0
LINE
  5
24B
330
1D
100
AcDbEntity
  8
型材断面
  6
DASHDOT
100
AcDbLine
 10
6.81311
 20
-1.910042
 30
0.0
 11
6.81311
 21
64.756625
 31
0.0
  0
LINE
  5
24C
330
1D
100
AcDbEntity
  8
型材断面
  6
DOT
100
AcDbLine
 10
5.56311
 20
-1.910042
 30
0.0
 11
5.56311
 21
64.756625
 31
0.0
  0
LINE
  5
24D
330
1D
100
AcDbEntity
  8
型材断面
  6
DOT
100
AcDbLine
 10
8.06311
 20
-1.910042
 30
0.0
 11
8.06311
 21
64.756625
 31
0.0
  0
LINE
  5
24E
330
1D
100
AcDbEntity
  8
型材断面
  6
Continuous
 62
    14
100
AcDbLine
 10
138.94661
 20
67.923287
 30
0.0
 11
138.44661
 21
67.923287
 31
0.0
  0
LINE
  5
24F
330
1D
100
AcDbEntity
  8
型材断面
  6
Continuous
100
AcDbLine
 10
138.279945
 20
66.08995299999999
 30
0.0
 11
138.44661
 21
67.923287
 31
0.0
  0
LINE
  5
250
330
1D
100
AcDbEntity
  8
型材断面
  6
Continuous
100
AcDbLine
 10
138.44661
 20
67.923287
 30
0.0
 11
138.94661
 21
67.923287
 31
0.0
  0
LINE
  5
251
330
1D
100
AcDbEntity
  8
型材断面
  6
Continuous
100
AcDbLine
 10
138.94661
 20
67.08995299999999
 30
0.0
 11
139.279945
 21
67.08995299999999
 31
0.0
  0
LWPOLYLINE
  5
252
330
1D
100
AcDbEntity
  8
型材断面
  6
Continuous
100
AcDbPolyline
 90
        3
 70
     0
 43
0.0
 10
136.11304
 20
65.956625
 10
136.463278
 20
65.956625
 10
136.59661
 20
66.089957
  0
LINE
  5
257
330
1D
100
AcDbEntity
  8
型材断面
  6
Continuous
100
AcDbLine
 10
138.279945
 20
66.08995299999999
 30
0.0
 11
136.596605
 21
66.08995299999999
 31
0.0
  0
LINE
  5
258
330
1D
100
AcDbEntity
  8
型材断面
  6
Continuous
 62
    14
100
AcDbLine
 10
138.94661
 20
-5.076703
 30
0.0
 11
138.44661
 21
-5.076703
 31
0.0
  0
LINE
  5
259
330
1D
100
AcDbEntity
  8
型材断面
  6
Continuous
100
AcDbLine
 10
138.279945
 20
-3.243368
 30
0.0
 11
138.44661
 21
-5.076703
 31
0.0
  0
LINE
  5
25A
330
1D
100
AcDbEntity
  8
型材断面
  6
Continuous
100
AcDbLine
 10
138.44661
 20
-5.076703
 30
0.0
 11
138.94661
 21
-5.076703
 31
0.0
  0
LINE
  5
25B
330
1D
100
AcDbEntity
  8
型材断面
  6
Continuous
100
AcDbLine
 10
138.94661
 20
-4.243368
 30
0.0
 11
139.279945
 21
-4.243368
 31
0.0
  0
LWPOLYLINE
  5
25C
330
1D
100
AcDbEntity
  8
型材断面
  6
Continuous
100
AcDbPolyline
 90
        3
 70
     0
 43
0.0
 10
136.11304
 20
-3.11004
 10
136.463278
 20
-3.11004
 10
136.59661
 20
-3.243372
  0
LINE
  5
261
330
1D
100
AcDbEntity
  8
型材断面
  6
Continuous
100
AcDbLine
 10
138.279945
 20
-3.243368
 30
0.0
 11
136.596605
 21
-3.243368
 31
0.0
  0
LINE
  5
262
330
1D
100
AcDbEntity
  8
型材断面
  6
Continuous
100
AcDbLine
 10
138.44661
 20
67.923287
 30
0.0
 11
138.44661
 21
-5.076703
 31
0.0
  0
LINE
  5
263
330
1D
100
AcDbEntity
  8
型材断面
  6
Continuous
100
AcDbLine
 10
138.94661
 20
67.923287
 30
0.0
 11
138.94661
 21
-5.076703
 31
0.0
  0
LINE
  5
264
330
1D
100
AcDbEntity
  8
型材断面
  6
Continuous
100
AcDbLine
 10
139.279942
 20
67.08995299999999
 30
0.0
 11
139.279942
 21
-4.243368
 31
0.0
  0
LINE
  5
265
330
1D
100
AcDbEntity
  8
型材断面
  6
Continuous
100
AcDbLine
 10
138.279945
 20
66.08995299999999
 30
0.0
 11
138.279945
 21
-3.243368
 31
0.0
  0
LINE
  5
266
330
1D
100
AcDbEntity
  8
型材断面
  6
Continuous
100
AcDbLine
 10
136.463278
 20
65.956625
 30
0.0
 11
136.463278
 21
-3.11004
 31
0.0
  0
LINE
  5
267
330
1D
100
AcDbEntity
  8
型材断面
  6
Continuous
100
AcDbLine
 10
136.59661
 20
66.089957
 30
0.0
 11
136.59661
 21
-3.243372
 31
0.0
  0
LINE
  5
268
330
1D
100
AcDbEntity
  8
型材断面
  6
Continuous
 62
    14
100
AcDbLine
 10
48.74644
 20
-83.458168
 30
0.0
 11
48.74644
 21
-82.958168
 31
0.0
  0
LINE
  5
269
330
1D
100
AcDbEntity
  8
型材断面
  6
Continuous
100
AcDbLine
 10
46.913105
 20
-82.79150300000001
 30
0.0
 11
48.74644
 21
-82.958168
 31
0.0
  0
LINE
  5
26A
330
1D
100
AcDbEntity
  8
型材断面
  6
Continuous
100
AcDbLine
 10
48.74644
 20
-82.958168
 30
0.0
 11
48.74644
 21
-83.458168
 31
0.0
  0
LINE
  5
26B
330
1D
100
AcDbEntity
  8
型材断面
  6
Continuous
100
AcDbLine
 10
47.913105
 20
-83.458168
 30
0.0
 11
47.913105
 21
-83.79150300000001
 31
0.0
  0
LWPOLYLINE
  5
26C
330
1D
100
AcDbEntity
  8
型材断面
  6
Continuous
100
AcDbPolyline
 90
        3
 70
     0
 43
0.0
 10
46.779777
 20
-80.62459699999999
 10
46.779777
 20
-80.974835
 10
46.91311
 20
-81.10816800000001
  0
LINE
  5
271
330
1D
100
AcDbEntity
  8
型材断面
  6
Continuous
100
AcDbLine
 10
46.913105
 20
-82.79150300000001
 30
0.0
 11
46.913105
 21
-81.10816199999999
 31
0.0
  0
LINE
  5
272
330
1D
100
AcDbEntity
  8
型材断面
  6
Continuous
 62
    14
100
AcDbLine
 10
-74.25355
 20
-83.458168
 30
0.0
 11
-74.25355
 21
-82.958168
 31
0.0
  0
LINE
  5
273
330
1D
100
AcDbEntity
  8
型材断面
  6
Continuous
100
AcDbLine
 10
-72.420215
 20
-82.79150300000001
 30
0.0
 11
-74.25355
 21
-82.958168
 31
0.0
  0
LINE
  5
274
330
1D
100
AcDbEntity
  8
型材断面
  6
Continuous
100
AcDbLine
 10
-74.25355
 20
-82.958168
 30
0.0
 11
-74.25355
 21
-83.458168
 31
0.0
  0
LINE
  5
275
330
1D
100
AcDbEntity
  8
型材断面
  6
Continuous
100
AcDbLine
 10
-73.420215
 20
-83.458168
 30
0.0
 11
-73.420215
 21
-83.79150300000001
 31
0.0
  0
LWPOLYLINE
  5
276
330
1D
100
AcDbEntity
  8
型材断面
  6
Continuous
100
AcDbPolyline
 90
        3
 70
     0
 43
0.0
 10
-72.28688800000001
 20
-80.62459699999999
 10
-72.28688800000001
 20
-80.974835
 10
-72.42022
 20
-81.10816800000001
  0
LINE
  5
27B
330
1D
100
AcDbEntity
  8
型材断面
  6
Continuous
100
AcDbLine
 10
-72.420215
 20
-82.79150300000001
 30
0.0
 11
-72.420215
 21
-81.10816199999999
 31
0.0
  0
LINE
  5
27C
330
1D
100
AcDbEntity
  8
型材断面
  6
Continuous
100
AcDbLine
 10
48.74644
 20
-82.958168
 30
0.0
 11
-74.25355
 21
-82.958168
 31
0.0
  0
LINE
  5
27D
330
1D
100
AcDbEntity
  8
型材断面
  6
Continuous
100
AcDbLine
 10
48.74644
 20
-83.458168
 30
0.0
 11
-74.25355
 21
-83.458168
 31
0.0
  0
LINE
  5
27E
330
1D
100
AcDbEntity
  8
型材断面
  6
Continuous
100
AcDbLine
 10
47.913105
 20
-83.7915
 30
0.0
 11
-73.420215
 21
-83.7915
 31
0.0
  0
LINE
  5
27F
330
1D
100
AcDbEntity
  8
型材断面
  6
Continuous
100
AcDbLine
 10
46.913105
 20
-82.79150300000001
 30
0.0
 11
-72.420215
 21
-82.79150300000001
 31
0.0
  0
LINE
  5
280
330
1D
100
AcDbEntity
  8
型材断面
  6
Continuous
100
AcDbLine
 10
46.779777
 20
-80.974835
 30
0.0
 11
-72.28688800000001
 21
-80.974835
 31
0.0
  0
LINE
  5
281
330
1D
100
AcDbEntity
  8
型材断面
  6
Continuous
100
AcDbLine
 10
46.91311
 20
-81.10816800000001
 30
0.0
 11
-72.42022
 21
-81.10816800000001
 31
0.0
  0
TEXT
  5
282
330
1D
100
AcDbEntity
  8
文字
  6
Continuous
100
AcDbText
 10
-109.175
 20
106.85
 30
0.0
 40
3.0
  1
は排水穴位置を示す
  7
TextStyle03
 72
     5
 11
-79.175
 21
106.85
 31
0.0
100
AcDbText
  0
TEXT
  5
283
330
1D
100
AcDbEntity
  8
文字
  6
Continuous
100
AcDbText
 10
137.0
 20
-75.575
 30
0.0
 40
3.0
  1
網入り6.8t
  7
TextStyle03
 72
     5
 11
153.6875
 21
-75.575
 31
0.0
100
AcDbText
  0
TEXT
  5
284
330
1D
100
AcDbEntity
  8
文字
  6
Continuous
100
AcDbText
 10
143.675
 20
-80.25
 30
0.0
 40
3.0
  1
×６枚
  7
TextStyle03
 72
     5
 11
153.425
 21
-80.25
 31
0.0
100
AcDbText
  0
TEXT
  5
285
330
1D
100
AcDbEntity
  8
文字
  6
Continuous
100
AcDbText
 10
-109.85
 20
2.025
 30
0.0
 40
3.0
  1
アンカーピッチ
 50
90.0
  7
TextStyle03
 72
     5
 11
-109.85
 21
25.275
 31
0.0
100
AcDbText
  0
TEXT
  5
286
330
1D
100
AcDbEntity
  8
文字
  6
Continuous
100
AcDbText
 10
-59.95
 20
101.7
 30
0.0
 40
3.0
  1
アンカーピッチ
  7
TextStyle03
 72
     5
 11
-36.7
 21
101.7
 31
0.0
100
AcDbText
  0
TEXT
  5
287
330
1D
100
AcDbEntity
  8
文字
  6
Continuous
100
AcDbText
 10
-112.9
 20
100.5
 30
0.0
 40
3.0
  1
アンカー数量　１６ヶ所
  7
TextStyle03
 72
     5
 11
-76.15000000000001
 21
100.5
 31
0.0
100
AcDbText
  0
TEXT
  5
288
330
1D
100
AcDbEntity
  8
文字
  6
Continuous
100
AcDbText
 10
77.65000000000001
 20
104.325
 30
0.0
 40
5.0
  1
ＮＳコード：ＮＳＫＬ
  7
TextStyle03
 72
     5
 11
133.275
 21
104.325
 31
0.0
100
AcDbText
  0
TEXT
  5
289
330
1D
100
AcDbEntity
  8
文字
  6
Continuous
100
AcDbText
 10
78.09999999999999
 20
125.25
 30
0.0
 40
5.0
  1
シリーズ：ＴＤ１ＫＬ
  7
TextStyle03
 72
     5
 11
133.725
 21
125.25
 31
0.0
100
AcDbText
  0
TEXT
  5
28A
330
1D
100
AcDbEntity
  8
文字
  6
Continuous
100
AcDbText
 10
78.09999999999999
 20
119.625
 30
0.0
 40
5.0
  1
　　　　　（固定）2000×3500タイプ
  7
TextStyle03
 72
     5
 11
173.1
 21
119.625
 31
0.0
100
AcDbText
  0
TEXT
  5
28B
330
1D
100
AcDbEntity
  8
文字
  6
Continuous
100
AcDbText
 10
78.09999999999999
 20
114.0
 30
0.0
 40
5.0
  1
図面名　：外観姿図
  7
TextStyle03
 72
     5
 11
128.1
 21
114.0
 31
0.0
100
AcDbText
  0
TEXT
  5
28C
330
1D
100
AcDbEntity
  8
文字
  6
Continuous
100
AcDbText
 10
78.09999999999999
 20
108.375
 30
0.0
 40
5.0
  1
　　　　　　
  7
TextStyle03
 72
     5
 11
111.225
 21
108.375
 31
0.0
100
AcDbText
  0
INSERT
  5
28D
330
1D
100
AcDbEntity
  8
寸法
  6
Continuous
100
AcDbBlockReference
  2
*U1
 10
0.0
 20
0.0
 30
0.0
  0
INSERT
  5
28E
330
1D
100
AcDbEntity
  8
寸法
  6
Continuous
100
AcDbBlockReference
  2
*U2
 10
0.0
 20
0.0
 30
0.0
  0
INSERT
  5
28F
330
1D
100
AcDbEntity
  8
寸法
  6
Continuous
100
AcDbBlockReference
  2
*U4
 10
0.0
 20
0.0
 30
0.0
  0
INSERT
  5
290
330
1D
100
AcDbEntity
  8
寸法
  6
Continuous
100
AcDbBlockReference
  2
*U5
 10
0.0
 20
0.0
 30
0.0
  0
INSERT
  5
291
330
1D
100
AcDbEntity
  8
寸法
  6
Continuous
100
AcDbBlockReference
  2
*U6
 10
0.0
 20
0.0
 30
0.0
  0
INSERT
  5
292
330
1D
100
AcDbEntity
  8
寸法
  6
Continuous
100
AcDbBlockReference
  2
*U7
 10
0.0
 20
0.0
 30
0.0
  0
INSERT
  5
293
330
1D
100
AcDbEntity
  8
寸法
  6
Continuous
100
AcDbBlockReference
  2
*U8
 10
0.0
 20
0.0
 30
0.0
  0
INSERT
  5
294
330
1D
100
AcDbEntity
  8
寸法
  6
Continuous
100
AcDbBlockReference
  2
*U9
 10
0.0
 20
0.0
 30
0.0
  0
INSERT
  5
295
330
1D
100
AcDbEntity
  8
寸法
  6
Continuous
100
AcDbBlockReference
  2
*U10
 10
0.0
 20
0.0
 30
0.0
  0
INSERT
  5
296
330
1D
100
AcDbEntity
  8
寸法
  6
Continuous
100
AcDbBlockReference
  2
*U11
 10
0.0
 20
0.0
 30
0.0
  0
INSERT
  5
297
330
1D
100
AcDbEntity
  8
寸法
  6
Continuous
100
AcDbBlockReference
  2
*U12
 10
0.0
 20
0.0
 30
0.0
  0
INSERT
  5
298
330
1D
100
AcDbEntity
  8
寸法
  6
Continuous
100
AcDbBlockReference
  2
*U13
 10
0.0
 20
0.0
 30
0.0
  0
INSERT
  5
299
330
1D
100
AcDbEntity
  8
寸法
  6
Continuous
100
AcDbBlockReference
  2
*U14
 10
0.0
 20
0.0
 30
0.0
  0
INSERT
  5
29A
330
1D
100
AcDbEntity
  8
寸法
  6
Continuous
100
AcDbBlockReference
  2
*U15
 10
0.0
 20
0.0
 30
0.0
  0
INSERT
  5
29B
330
1D
100
AcDbEntity
  8
寸法
  6
Continuous
100
AcDbBlockReference
  2
*U16
 10
0.0
 20
0.0
 30
0.0
  0
INSERT
  5
29C
330
1D
100
AcDbEntity
  8
寸法
  6
Continuous
100
AcDbBlockReference
  2
*U17
 10
0.0
 20
0.0
 30
0.0
  0
INSERT
  5
29D
330
1D
100
AcDbEntity
  8
寸法
  6
Continuous
100
AcDbBlockReference
  2
*U18
 10
0.0
 20
0.0
 30
0.0
  0
INSERT
  5
29E
330
1D
100
AcDbEntity
  8
寸法
  6
Continuous
100
AcDbBlockReference
  2
*U19
 10
0.0
 20
0.0
 30
0.0
  0
INSERT
  5
29F
330
1D
100
AcDbEntity
  8
寸法
  6
Continuous
100
AcDbBlockReference
  2
*U20
 10
0.0
 20
0.0
 30
0.0
  0
LINE
  5
2A0
330
1D
100
AcDbEntity
  8
別途部材
  6
Continuous
100
AcDbLine
 10
47.646443
 20
-3.97671
 30
0.0
 11
47.246443
 21
-3.57671
 31
0.0
  0
LINE
  5
2A1
330
1D
100
AcDbEntity
  8
別途部材
  6
Continuous
100
AcDbLine
 10
45.579775
 20
-1.910042
 30
0.0
 11
37.52052
 21
6.149215
 31
0.0
  0
LINE
  5
2A2
330
1D
100
AcDbEntity
  8
別途部材
  6
Continuous
100
AcDbLine
 10
47.646443
 20
-3.97671
 30
0.0
 11
47.646443
 21
31.423293
 31
0.0
  0
LINE
  5
2A3
330
1D
100
AcDbEntity
  8
別途部材
  6
Continuous
100
AcDbLine
 10
47.246443
 20
-3.57671
 30
0.0
 11
47.246443
 21
31.423293
 31
0.0
  0
LINE
  5
2A4
330
1D
100
AcDbEntity
  8
別途部材
  6
Continuous
100
AcDbLine
 10
47.646443
 20
66.823295
 30
0.0
 11
47.246443
 21
66.423295
 31
0.0
  0
LINE
  5
2A5
330
1D
100
AcDbEntity
  8
別途部材
  6
Continuous
100
AcDbLine
 10
45.579775
 20
64.756627
 30
0.0
 11
37.52052
 21
56.69737
 31
0.0
  0
LINE
  5
2A6
330
1D
100
AcDbEntity
  8
別途部材
  6
Continuous
100
AcDbLine
 10
47.646443
 20
66.823295
 30
0.0
 11
47.646443
 21
31.423293
 31
0.0
  0
LINE
  5
2A7
330
1D
100
AcDbEntity
  8
別途部材
  6
Continuous
100
AcDbLine
 10
47.246443
 20
66.423295
 30
0.0
 11
47.246443
 21
31.423293
 31
0.0
  0
LINE
  5
2A8
330
1D
100
AcDbEntity
  8
別途部材
  6
Continuous
100
AcDbLine
 10
47.646443
 20
-3.97671
 30
0.0
 11
-12.753557
 21
-3.97671
 31
0.0
  0
LINE
  5
2A9
330
1D
100
AcDbEntity
  8
別途部材
  6
Continuous
100
AcDbLine
 10
47.246443
 20
-3.57671
 30
0.0
 11
-12.753557
 21
-3.57671
 31
0.0
  0
LINE
  5
2AA
330
1D
100
AcDbEntity
  8
別途部材
  6
Continuous
100
AcDbLine
 10
47.246443
 20
66.423295
 30
0.0
 11
-12.753557
 21
66.423295
 31
0.0
  0
LINE
  5
2AB
330
1D
100
AcDbEntity
  8
別途部材
  6
Continuous
100
AcDbLine
 10
47.646443
 20
66.823295
 30
0.0
 11
-12.753557
 21
66.823295
 31
0.0
  0
LINE
  5
2AC
330
1D
100
AcDbEntity
  8
別途部材
  6
Continuous
100
AcDbLine
 10
-73.15355700000001
 20
-3.97671
 30
0.0
 11
-72.753557
 21
-3.57671
 31
0.0
  0
LINE
  5
2AD
330
1D
100
AcDbEntity
  8
別途部材
  6
Continuous
100
AcDbLine
 10
-71.08689
 20
-1.910042
 30
0.0
 11
-63.027635
 21
6.149215
 31
0.0
  0
LINE
  5
2AE
330
1D
100
AcDbEntity
  8
別途部材
  6
Continuous
100
AcDbLine
 10
-73.15355700000001
 20
-3.97671
 30
0.0
 11
-73.15355700000001
 21
31.423293
 31
0.0
  0
LINE
  5
2AF
330
1D
100
AcDbEntity
  8
別途部材
  6
Continuous
100
AcDbLine
 10
-72.753557
 20
-3.57671
 30
0.0
 11
-72.753557
 21
31.423293
 31
0.0
  0
LINE
  5
2B0
330
1D
100
AcDbEntity
  8
別途部材
  6
Continuous
100
AcDbLine
 10
-73.15355700000001
 20
66.823295
 30
0.0
 11
-72.753557
 21
66.423295
 31
0.0
  0
LINE
  5
2B1
330
1D
100
AcDbEntity
  8
別途部材
  6
Continuous
100
AcDbLine
 10
-71.08689
 20
64.756627
 30
0.0
 11
-63.027635
 21
56.69737
 31
0.0
  0
LINE
  5
2B2
330
1D
100
AcDbEntity
  8
別途部材
  6
Continuous
100
AcDbLine
 10
-73.15355700000001
 20
66.823295
 30
0.0
 11
-73.15355700000001
 21
31.423293
 31
0.0
  0
LINE
  5
2B3
330
1D
100
AcDbEntity
  8
別途部材
  6
Continuous
100
AcDbLine
 10
-72.753557
 20
66.423295
 30
0.0
 11
-72.753557
 21
31.423293
 31
0.0
  0
LINE
  5
2B4
330
1D
100
AcDbEntity
  8
別途部材
  6
Continuous
100
AcDbLine
 10
-73.15355700000001
 20
-3.97671
 30
0.0
 11
-12.753557
 21
-3.97671
 31
0.0
  0
LINE
  5
2B5
330
1D
100
AcDbEntity
  8
別途部材
  6
Continuous
100
AcDbLine
 10
-72.753557
 20
-3.57671
 30
0.0
 11
-12.753557
 21
-3.57671
 31
0.0
  0
LINE
  5
2B6
330
1D
100
AcDbEntity
  8
別途部材
  6
Continuous
100
AcDbLine
 10
-72.753557
 20
66.423295
 30
0.0
 11
-12.753557
 21
66.423295
 31
0.0
  0
LINE
  5
2B7
330
1D
100
AcDbEntity
  8
別途部材
  6
Continuous
100
AcDbLine
 10
-73.15355700000001
 20
66.823295
 30
0.0
 11
-12.753557
 21
66.823295
 31
0.0
  0
LINE
  5
2B8
330
1D
100
AcDbEntity
  8
別途部材
  6
Continuous
 62
    96
100
AcDbLine
 10
135.11304
 20
-3.57671
 30
0.0
 11
136.11304
 21
-3.97671
 31
0.0
  0
ARC
  5
2B9
330
1D
100
AcDbEntity
  8
別途部材
  6
Continuous
100
AcDbCircle
 10
160.113036
 20
31.42329
 30
0.0
 40
41.666665
100
AcDbArc
 50
180.0
 51
233.130105
  0
ARC
  5
2BA
330
1D
100
AcDbEntity
  8
別途部材
  6
Continuous
100
AcDbCircle
 10
160.113036
 20
31.423291
 30
0.0
 40
41.666665
100
AcDbArc
 50
126.869895
 51
180.0
  0
LINE
  5
2BB
330
1D
100
AcDbEntity
  8
別途部材
  6
Continuous
100
AcDbLine
 10
136.11304
 20
-3.97671
 30
0.0
 11
136.11304
 21
31.42329
 31
0.0
  0
LINE
  5
2BC
330
1D
100
AcDbEntity
  8
別途部材
  6
Continuous
 62
    96
100
AcDbLine
 10
135.11304
 20
-3.57671
 30
0.0
 11
135.11304
 21
31.42329
 31
0.0
  0
LINE
  5
2BD
330
1D
100
AcDbEntity
  8
別途部材
  6
Continuous
 62
    96
100
AcDbLine
 10
135.11304
 20
66.42328999999999
 30
0.0
 11
136.11304
 21
66.82329
 31
0.0
  0
LINE
  5
2BE
330
1D
100
AcDbEntity
  8
別途部材
  6
Continuous
100
AcDbLine
 10
136.11304
 20
66.82329
 30
0.0
 11
136.11304
 21
31.42329
 31
0.0
  0
LINE
  5
2BF
330
1D
100
AcDbEntity
  8
別途部材
  6
Continuous
 62
    96
100
AcDbLine
 10
135.11304
 20
66.42328999999999
 30
0.0
 11
135.11304
 21
31.42329
 31
0.0
  0
INSERT
  5
2C0
330
1D
100
AcDbEntity
  8
別途部材
  6
Continuous
100
AcDbBlockReference
  2
*U3
 10
0.0
 20
0.0
 30
0.0
  0
INSERT
  5
2C1
330
1D
100
AcDbEntity
  8
別途部材
  6
DOT
100
AcDbBlockReference
  2
*U21
 10
0.0
 20
0.0
 30
0.0
  0
INSERT
  5
2C2
330
1D
100
AcDbEntity
  8
別途部材
  6
DOT
100
AcDbBlockReference
  2
*U22
 10
0.0
 20
0.0
 30
0.0
  0
INSERT
  5
2C3
330
1D
100
AcDbEntity
  8
別途部材
  6
DOT
100
AcDbBlockReference
  2
*U23
 10
0.0
 20
0.0
 30
0.0
  0
INSERT
  5
2C4
330
1D
100
AcDbEntity
  8
別途部材
  6
DOT
100
AcDbBlockReference
  2
*U24
 10
0.0
 20
0.0
 30
0.0
  0
LINE
  5
2C5
330
1D
100
AcDbEntity
  8
曲げ物
  6
Continuous
100
AcDbLine
 10
155.537835
 20
-82.00038000000001
 30
0.0
 11
117.471168
 21
-82.00038000000001
 31
0.0
  0
LINE
  5
2C6
330
1D
100
AcDbEntity
  8
曲げ物
  6
Continuous
100
AcDbLine
 10
117.471168
 20
-82.00038000000001
 30
0.0
 11
117.471168
 21
-49.367047
 31
0.0
  0
LINE
  5
2C7
330
1D
100
AcDbEntity
  8
曲げ物
  6
Continuous
100
AcDbLine
 10
117.471168
 20
-49.367047
 30
0.0
 11
155.537835
 21
-49.367047
 31
0.0
  0
LINE
  5
2C8
330
1D
100
AcDbEntity
  8
曲げ物
  6
Continuous
100
AcDbLine
 10
155.537835
 20
-82.00038000000001
 30
0.0
 11
155.537835
 21
-49.367047
 31
0.0
  0
ENDSEC
  0
SECTION
  2
OBJECTS
  0
DICTIONARY
  5
C
330
0
100
AcDbDictionary
281
     1
  3
ACAD_GROUP
350
D
  3
ACAD_LAYOUT
350
1A
  3
ACAD_MLINESTYLE
350
17
  3
ACAD_PLOTSETTINGS
350
19
  3
ACAD_PLOTSTYLENAME
350
E
  0
DICTIONARY
  5
D
102
{ACAD_REACTORS
330
C
102
}
330
C
100
AcDbDictionary
281
     1
  0
DICTIONARY
  5
1A
102
{ACAD_REACTORS
330
C
102
}
330
C
100
AcDbDictionary
281
     1
  3
Layout1
350
1C
  3
Model
350
1E
  0
DICTIONARY
  5
17
102
{ACAD_REACTORS
330
C
102
}
330
C
100
AcDbDictionary
281
     1
  3
Standard
350
18
  0
DICTIONARY
  5
19
102
{ACAD_REACTORS
330
C
102
}
330
C
100
AcDbDictionary
281
     1
  0
ACDBDICTIONARYWDFLT
  5
E
102
{ACAD_REACTORS
330
C
102
}
330
C
100
AcDbDictionary
281
     1
  3
Normal
350
F
100
AcDbDictionaryWithDefault
340
F
  0
LAYOUT
  5
1C
102
{ACAD_REACTORS
330
1A
102
}
330
1A
100
AcDbPlotSettings
  1

  2

  4

  6

 40
0.0
 41
0.0
 42
0.0
 43
0.0
 44
0.0
 45
0.0
 46
0.0
 47
0.0
 48
0.0
 49
0.0
140
0.0
141
0.0
142
1.0
143
1.0
 70
   688
 72
     0
 73
     0
 74
     5
  7

 75
    16
 76
     0
 77
     2
 78
   300
147
1.0
148
0.0
149
0.0
100
AcDbLayout
  1
Layout1
 70
     1
 71
     1
 10
0.0
 20
0.0
 11
12.0
 21
9.0
 12
0.0
 22
0.0
 32
0.0
 14
1.000000000000000E+20
 24
1.000000000000000E+20
 34
1.000000000000000E+20
 15
-1.000000000000000E+20
 25
-1.000000000000000E+20
 35
-1.000000000000000E+20
146
0.0
 13
0.0
 23
0.0
 33
0.0
 16
1.0
 26
0.0
 36
0.0
 17
0.0
 27
1.0
 37
0.0
 76
     0
330
1B
  0
LAYOUT
  5
1E
102
{ACAD_REACTORS
330
1A
102
}
330
1A
100
AcDbPlotSettings
  1

  2

  4

  6

 40
0.0
 41
0.0
 42
0.0
 43
0.0
 44
0.0
 45
0.0
 46
0.0
 47
0.0
 48
0.0
 49
0.0
140
0.0
141
0.0
142
1.0
143
1.0
 70
  1712
 72
     0
 73
     0
 74
     0
  7

 75
     0
 76
     0
 77
     2
 78
   300
147
1.0
148
0.0
149
0.0
100
AcDbLayout
  1
Model
 70
     1
 71
     0
 10
0.0
 20
0.0
 11
0.0
 21
0.0
 12
0.0
 22
0.0
 32
0.0
 14
-210.0
 24
-148.5
 34
0.0
 15
210.0
 25
148.5
 35
0.0
146
0.0
 13
0.0
 23
0.0
 33
0.0
 16
1.0
 26
0.0
 36
0.0
 17
0.0
 27
1.0
 37
0.0
 76
     0
330
1D
  0
MLINESTYLE
  5
18
102
{ACAD_REACTORS
330
17
102
}
330
17
100
AcDbMlineStyle
  2
Standard
 70
     0
  3

 62
   256
 51
90.0
 52
90.0
 71
     2
 49
0.5
 62
   256
  6
BYLAYER
 49
-0.5
 62
   256
  6
BYLAYER
  0
ACDBPLACEHOLDER
  5
F
102
{ACAD_REACTORS
330
E
102
}
330
E
  0
ENDSEC
  0
EOF
