  0
SECTION
  2
HEADER
  9
$ACADVER
  1
AC1018
  9
$ACADMAINTVER
 70
     0
  9
$DWGCODEPAGE
  3
ANSI_932
  9
$INSBASE
 10
0.0
 20
0.0
 30
0.0
  9
$EXTMIN
 10
-210.0
 20
-148.5
 30
0.0
  9
$EXTMAX
 10
210.0
 20
148.5
 30
0.0
  9
$LIMMIN
 10
0.0
 20
0.0
  9
$LIMMAX
 10
12.0
 20
9.0
  9
$ORTHOMODE
 70
     0
  9
$REGENMODE
 70
     1
  9
$FILLMODE
 70
     1
  9
$QTEXTMODE
 70
     0
  9
$MIRRTEXT
 70
     1
  9
$LTSCALE
 40
10.0
  9
$ATTMODE
 70
     1
  9
$TEXTSIZE
 40
0.2
  9
$TRACEWID
 40
0.05
  9
$TEXTSTYLE
  7
STANDARD
  9
$CLAYER
  8
0
  9
$CELTYPE
  6
ByBlock
  9
$CECOLOR
 62
   256
  9
$CELTSCALE
 40
1.0
  9
$DISPSILH
 70
     0
  9
$DIMSCALE
 40
1.0
  9
$DIMASZ
 40
0.18
  9
$DIMEXO
 40
0.0625
  9
$DIMDLI
 40
0.38
  9
$DIMRND
 40
0.0
  9
$DIMDLE
 40
0.0
  9
$DIMEXE
 40
0.18
  9
$DIMTP
 40
0.0
  9
$DIMTM
 40
0.0
  9
$DIMTXT
 40
0.18
  9
$DIMCEN
 40
0.09
  9
$DIMTSZ
 40
0.0
  9
$DIMTOL
 70
     0
  9
$DIMLIM
 70
     0
  9
$DIMTIH
 70
     1
  9
$DIMTOH
 70
     1
  9
$DIMSE1
 70
     0
  9
$DIMSE2
 70
     0
  9
$DIMTAD
 70
     0
  9
$DIMZIN
 70
     0
  9
$DIMBLK
  1

  9
$DIMASO
 70
     1
  9
$DIMSHO
 70
     1
  9
$DIMPOST
  1

  9
$DIMAPOST
  1

  9
$DIMALT
 70
     0
  9
$DIMALTD
 70
     2
  9
$DIMALTF
 40
25.4
  9
$DIMLFAC
 40
1.0
  9
$DIMTOFL
 70
     0
  9
$DIMTVP
 40
0.0
  9
$DIMTIX
 70
     0
  9
$DIMSOXD
 70
     0
  9
$DIMSAH
 70
     0
  9
$DIMBLK1
  1

  9
$DIMBLK2
  1

  9
$DIMSTYLE
  2
Standard
  9
$DIMCLRD
 70
     0
  9
$DIMCLRE
 70
     0
  9
$DIMCLRT
 70
     0
  9
$DIMTFAC
 40
1.0
  9
$DIMGAP
 40
0.09
  9
$DIMJUST
 70
     0
  9
$DIMSD1
 70
     0
  9
$DIMSD2
 70
     0
  9
$DIMTOLJ
 70
     1
  9
$DIMTZIN
 70
     0
  9
$DIMALTZ
 70
     0
  9
$DIMALTTZ
 70
     0
  9
$DIMUPT
 70
     0
  9
$DIMDEC
 70
     4
  9
$DIMTDEC
 70
     4
  9
$DIMALTU
 70
     2
  9
$DIMALTTD
 70
     2
  9
$DIMTXSTY
  7
STANDARD
  9
$DIMAUNIT
 70
     0
  9
$DIMADEC
 70
     0
  9
$DIMALTRND
 40
0.0
  9
$DIMAZIN
 70
     0
  9
$DIMDSEP
 70
    46
  9
$DIMATFIT
 70
     3
  9
$DIMFRAC
 70
     0
  9
$DIMLDRBLK
  1

  9
$DIMLUNIT
 70
     2
  9
$DIMLWD
 70
    -2
  9
$DIMLWE
 70
    -2
  9
$DIMTMOVE
 70
     0
  9
$LUNITS
 70
     2
  9
$LUPREC
 70
     4
  9
$SKETCHINC
 40
0.1
  9
$FILLETRAD
 40
0.5
  9
$AUNITS
 70
     0
  9
$AUPREC
 70
     0
  9
$MENU
  1
.
  9
$ELEVATION
 40
0.0
  9
$PELEVATION
 40
0.0
  9
$THICKNESS
 40
0.0
  9
$LIMCHECK
 70
     0
  9
$CHAMFERA
 40
0.5
  9
$CHAMFERB
 40
0.5
  9
$CHAMFERC
 40
1.0
  9
$CHAMFERD
 40
0.0
  9
$SKPOLY
 70
     0
  9
$TDCREATE
 40
2460242.409778542
  9
$TDUCREATE
 40
2460242.034778542
  9
$TDUPDATE
 40
2460242.409778553
  9
$TDUUPDATE
 40
2460242.034778553
  9
$TDINDWG
 40
0.0000000116
  9
$TDUSRTIMER
 40
0.0000000116
  9
$USRTIMER
 70
     1
  9
$ANGBASE
 50
0.0
  9
$ANGDIR
 70
     0
  9
$PDMODE
 70
    32
  9
$PDSIZE
 40
1.5
  9
$PLINEWID
 40
0.0
  9
$SPLFRAME
 70
     0
  9
$SPLINETYPE
 70
     6
  9
$SPLINESEGS
 70
     8
  9
$HANDSEED
  5
296
  9
$SURFTAB1
 70
     6
  9
$SURFTAB2
 70
     6
  9
$SURFTYPE
 70
     6
  9
$SURFU
 70
     6
  9
$SURFV
 70
     6
  9
$UCSBASE
  2

  9
$UCSNAME
  2

  9
$UCSORG
 10
0.0
 20
0.0
 30
0.0
  9
$UCSXDIR
 10
1.0
 20
0.0
 30
0.0
  9
$UCSYDIR
 10
0.0
 20
1.0
 30
0.0
  9
$UCSORTHOREF
  2

  9
$UCSORTHOVIEW
 70
     0
  9
$UCSORGTOP
 10
0.0
 20
0.0
 30
0.0
  9
$UCSORGBOTTOM
 10
0.0
 20
0.0
 30
0.0
  9
$UCSORGLEFT
 10
0.0
 20
0.0
 30
0.0
  9
$UCSORGRIGHT
 10
0.0
 20
0.0
 30
0.0
  9
$UCSORGFRONT
 10
0.0
 20
0.0
 30
0.0
  9
$UCSORGBACK
 10
0.0
 20
0.0
 30
0.0
  9
$PUCSBASE
  2

  9
$PUCSNAME
  2

  9
$PUCSORG
 10
0.0
 20
0.0
 30
0.0
  9
$PUCSXDIR
 10
1.0
 20
0.0
 30
0.0
  9
$PUCSYDIR
 10
0.0
 20
1.0
 30
0.0
  9
$PUCSORTHOREF
  2

  9
$PUCSORTHOVIEW
 70
     0
  9
$PUCSORGTOP
 10
0.0
 20
0.0
 30
0.0
  9
$PUCSORGBOTTOM
 10
0.0
 20
0.0
 30
0.0
  9
$PUCSORGLEFT
 10
0.0
 20
0.0
 30
0.0
  9
$PUCSORGRIGHT
 10
0.0
 20
0.0
 30
0.0
  9
$PUCSORGFRONT
 10
0.0
 20
0.0
 30
0.0
  9
$PUCSORGBACK
 10
0.0
 20
0.0
 30
0.0
  9
$USERI1
 70
     0
  9
$USERI2
 70
     0
  9
$USERI3
 70
     0
  9
$USERI4
 70
     0
  9
$USERI5
 70
     0
  9
$USERR1
 40
0.0
  9
$USERR2
 40
0.0
  9
$USERR3
 40
0.0
  9
$USERR4
 40
0.0
  9
$USERR5
 40
0.0
  9
$WORLDVIEW
 70
     1
  9
$SHADEDGE
 70
     3
  9
$SHADEDIF
 70
    70
  9
$TILEMODE
 70
     1
  9
$MAXACTVP
 70
    64
  9
$PINSBASE
 10
0.0
 20
0.0
 30
0.0
  9
$PLIMCHECK
 70
     0
  9
$PEXTMIN
 10
1.000000000000000E+20
 20
1.000000000000000E+20
 30
1.000000000000000E+20
  9
$PEXTMAX
 10
-1.000000000000000E+20
 20
-1.000000000000000E+20
 30
-1.000000000000000E+20
  9
$PLIMMIN
 10
0.0
 20
0.0
  9
$PLIMMAX
 10
12.0
 20
9.0
  9
$UNITMODE
 70
     0
  9
$VISRETAIN
 70
     1
  9
$PLINEGEN
 70
     0
  9
$PSLTSCALE
 70
     1
  9
$TREEDEPTH
 70
  3020
  9
$CMLSTYLE
  2
Standard
  9
$CMLJUST
 70
     0
  9
$CMLSCALE
 40
1.0
  9
$PROXYGRAPHICS
 70
     1
  9
$MEASUREMENT
 70
     0
  9
$CELWEIGHT
370
    -1
  9
$ENDCAPS
280
     0
  9
$JOINSTYLE
280
     0
  9
$LWDISPLAY
290
     0
  9
$INSUNITS
 70
     0
  9
$HYPERLINKBASE
  1

  9
$STYLESHEET
  1

  9
$XEDIT
290
     1
  9
$CEPSNTYPE
380
     0
  9
$PSTYLEMODE
290
     1
  9
$FINGERPRINTGUID
  2
{1A148871-C42C-47DA-A58A-37C13E61647B}
  9
$VERSIONGUID
  2
{FAEB1C32-E019-11D5-929B-00C0DF256EC4}
  9
$EXTNAMES
290
     1
  9
$PSVPSCALE
 40
0.0
  9
$OLESTARTUP
290
     0
  9
$SORTENTS
280
   127
  9
$INDEXCTL
280
     0
  9
$HIDETEXT
280
     1
  9
$XCLIPFRAME
290
     0
  9
$HALOGAP
280
     0
  9
$OBSCOLOR
 70
   257
  9
$OBSLTYPE
280
     0
  9
$INTERSECTIONDISPLAY
280
     0
  9
$INTERSECTIONCOLOR
 70
   257
  9
$DIMASSOC
280
     2
  9
$PROJECTNAME
  1

  0
ENDSEC
  0
SECTION
  2
CLASSES
  0
CLASS
  1
ACDBDICTIONARYWDFLT
  2
AcDbDictionaryWithDefault
  3
ObjectDBX Classes
 90
        0
 91
        3
280
     0
281
     0
  0
ENDSEC
  0
SECTION
  2
TABLES
  0
TABLE
  2
VPORT
  5
8
330
0
100
AcDbSymbolTable
 70
     1
  0
VPORT
  5
291
330
8
100
AcDbSymbolTableRecord
100
AcDbViewportTableRecord
  2
*Active
 70
     0
 10
0.0
 20
0.0
 11
1.0
 21
1.0
 12
10.42990654205607
 22
4.5
 13
0.0
 23
0.0
 14
0.5
 24
0.5
 15
0.5
 25
0.5
 16
0.0
 26
0.0
 36
1.0
 17
0.0
 27
0.0
 37
0.0
 40
9.0
 41
1.972972972850329
 42
50.0
 43
0.0
 44
0.0
 50
0.0
 51
0.0
 71
     0
 72
   100
 73
     1
 74
     3
 75
     0
 76
     0
 77
     0
 78
     0
281
     0
 65
     1
110
0.0
120
0.0
130
0.0
111
1.0
121
0.0
131
0.0
112
0.0
122
1.0
132
0.0
 79
     0
146
0.0
  0
ENDTAB
  0
TABLE
  2
LTYPE
  5
5
330
0
100
AcDbSymbolTable
 70
     9
  0
LTYPE
  5
14
330
5
100
AcDbSymbolTableRecord
100
AcDbLinetypeTableRecord
  2
ByBlock
 70
     0
  3

 72
    65
 73
     0
 40
0.0
  0
LTYPE
  5
15
330
5
100
AcDbSymbolTableRecord
100
AcDbLinetypeTableRecord
  2
ByLayer
 70
     0
  3

 72
    65
 73
     0
 40
0.0
  0
LTYPE
  5
16
330
5
100
AcDbSymbolTableRecord
100
AcDbLinetypeTableRecord
  2
CONTINUOUS
 70
     0
  3
実線
 72
    65
 73
     0
 40
0.0
  0
LTYPE
  5
21
330
5
100
AcDbSymbolTableRecord
100
AcDbLinetypeTableRecord
  2
DASHED
 70
     0
  3
破線A
 72
    65
 73
     2
 40
0.6000000000000001
 49
0.4
 74
     0
 49
-0.2
 74
     0
  0
LTYPE
  5
22
330
5
100
AcDbSymbolTableRecord
100
AcDbLinetypeTableRecord
  2
DASHEDX2
 70
     0
  3
破線B
 72
    65
 73
     2
 40
1.3
 49
0.9
 74
     0
 49
-0.4
 74
     0
  0
LTYPE
  5
23
330
5
100
AcDbSymbolTableRecord
100
AcDbLinetypeTableRecord
  2
DASHDOT
 70
     0
  3
１点鎖線A
 72
    65
 73
     4
 40
0.5375
 49
0.375
 74
     0
 49
-0.05
 74
     0
 49
0.0625
 74
     0
 49
-0.05
 74
     0
  0
LTYPE
  5
24
330
5
100
AcDbSymbolTableRecord
100
AcDbLinetypeTableRecord
  2
DASHDOTX2
 70
     0
  3
１点鎖線B
 72
    65
 73
     4
 40
1.075
 49
0.75
 74
     0
 49
-0.1
 74
     0
 49
0.125
 74
     0
 49
-0.1
 74
     0
  0
LTYPE
  5
25
330
5
100
AcDbSymbolTableRecord
100
AcDbLinetypeTableRecord
  2
DIVIDE2
 70
     0
  3
２点鎖線A
 72
    65
 73
     6
 40
0.5125
 49
0.3
 74
     0
 49
-0.0375
 74
     0
 49
0.05
 74
     0
 49
-0.0375
 74
     0
 49
0.05
 74
     0
 49
-0.0375
 74
     0
  0
LTYPE
  5
26
330
5
100
AcDbSymbolTableRecord
100
AcDbLinetypeTableRecord
  2
DIVIDE
 70
     0
  3
２点鎖線B
 72
    65
 73
     6
 40
1.05
 49
0.55
 74
     0
 49
-0.1
 74
     0
 49
0.1
 74
     0
 49
-0.1
 74
     0
 49
0.1
 74
     0
 49
-0.1
 74
     0
  0
LTYPE
  5
27
330
5
100
AcDbSymbolTableRecord
100
AcDbLinetypeTableRecord
  2
DOT
 70
     0
  3
点線A
 72
    65
 73
     2
 40
0.1125
 49
0.0625
 74
     0
 49
-0.05
 74
     0
  0
LTYPE
  5
28
330
5
100
AcDbSymbolTableRecord
100
AcDbLinetypeTableRecord
  2
DOTX2
 70
     0
  3
点線B
 72
    65
 73
     2
 40
0.275
 49
0.15
 74
     0
 49
-0.125
 74
     0
  0
ENDTAB
  0
TABLE
  2
LAYER
  5
2
330
0
100
AcDbSymbolTable
 70
    34
  0
LAYER
  5
10
330
2
100
AcDbSymbolTableRecord
100
AcDbLayerTableRecord
  2
0
 70
     0
 62
    17
  6
CONTINUOUS
370
    -3
390
F
  0
LAYER
  5
2F
330
2
100
AcDbSymbolTableRecord
100
AcDbLayerTableRecord
  2
通り芯
 70
     0
 62
    15
  6
CONTINUOUS
370
    -3
390
F
  0
LAYER
  5
30
330
2
100
AcDbSymbolTableRecord
100
AcDbLayerTableRecord
  2
補助線
 70
     0
 62
    16
  6
DOT
370
    -3
390
F
  0
LAYER
  5
31
330
2
100
AcDbSymbolTableRecord
100
AcDbLayerTableRecord
  2
躯体
 70
     0
 62
    31
  6
CONTINUOUS
370
    -3
390
F
  0
LAYER
  5
32
330
2
100
AcDbSymbolTableRecord
100
AcDbLayerTableRecord
  2
型材
 70
     0
 62
    32
  6
CONTINUOUS
370
    -3
390
F
  0
LAYER
  5
33
330
2
100
AcDbSymbolTableRecord
100
AcDbLayerTableRecord
  2
型材断面
 70
     0
 62
    47
  6
CONTINUOUS
370
    -3
390
F
  0
LAYER
  5
34
330
2
100
AcDbSymbolTableRecord
100
AcDbLayerTableRecord
  2
ガラス
 70
     0
 62
    48
  6
CONTINUOUS
370
    -3
390
F
  0
LAYER
  5
35
330
2
100
AcDbSymbolTableRecord
100
AcDbLayerTableRecord
  2
ゴム等
 70
     0
 62
    63
  6
CONTINUOUS
370
    -3
390
F
  0
LAYER
  5
36
330
2
100
AcDbSymbolTableRecord
100
AcDbLayerTableRecord
  2
ボルト／ビス
 70
     0
 62
    64
  6
CONTINUOUS
370
    -3
390
F
  0
LAYER
  5
37
330
2
100
AcDbSymbolTableRecord
100
AcDbLayerTableRecord
  2
文字
 70
     0
 62
    79
  6
CONTINUOUS
370
    -3
390
F
  0
LAYER
  5
38
330
2
100
AcDbSymbolTableRecord
100
AcDbLayerTableRecord
  2
寸法
 70
     0
 62
    80
  6
CONTINUOUS
370
    -3
390
F
  0
LAYER
  5
39
330
2
100
AcDbSymbolTableRecord
100
AcDbLayerTableRecord
  2
ﾊｯﾁﾝｸﾞ
 70
     0
 62
    95
  6
CONTINUOUS
370
    -3
390
F
  0
LAYER
  5
3A
330
2
100
AcDbSymbolTableRecord
100
AcDbLayerTableRecord
  2
別途部材
 70
     0
 62
    96
  6
CONTINUOUS
370
    -3
390
F
  0
LAYER
  5
3B
330
2
100
AcDbSymbolTableRecord
100
AcDbLayerTableRecord
  2
曲げ物
 70
     0
 62
   111
  6
CONTINUOUS
370
    -3
390
F
  0
LAYER
  5
3C
330
2
100
AcDbSymbolTableRecord
100
AcDbLayerTableRecord
  2
鉄骨等
 70
     0
 62
   112
  6
CONTINUOUS
370
    -3
390
F
  0
LAYER
  5
3D
330
2
100
AcDbSymbolTableRecord
100
AcDbLayerTableRecord
  2
St
 70
     0
 62
   127
  6
CONTINUOUS
370
    -3
390
F
  0
LAYER
  5
3E
330
2
100
AcDbSymbolTableRecord
100
AcDbLayerTableRecord
  2
その他部品等
 70
     0
 62
   128
  6
CONTINUOUS
370
    -3
390
F
  0
LAYER
  5
3F
330
2
100
AcDbSymbolTableRecord
100
AcDbLayerTableRecord
  2
ｶﾞｽｹｯﾄ
 70
     0
 62
   143
  6
CONTINUOUS
370
    -3
390
F
  0
LAYER
  5
40
330
2
100
AcDbSymbolTableRecord
100
AcDbLayerTableRecord
  2
ｽｹｯﾁ
 70
     0
 62
    14
  6
CONTINUOUS
370
    -3
390
F
  0
LAYER
  5
42
330
2
100
AcDbSymbolTableRecord
100
AcDbLayerTableRecord
  2
1
 70
     0
 62
    30
  6
CONTINUOUS
370
    -3
390
F
  0
LAYER
  5
43
330
2
100
AcDbSymbolTableRecord
100
AcDbLayerTableRecord
  2
4
 70
     0
 62
    33
  6
CONTINUOUS
370
    -3
390
F
  0
LAYER
  5
44
330
2
100
AcDbSymbolTableRecord
100
AcDbLayerTableRecord
  2
ﾚｲﾔ3
 70
     0
 62
    46
  6
CONTINUOUS
370
    -3
390
F
  0
LAYER
  5
45
330
2
100
AcDbSymbolTableRecord
100
AcDbLayerTableRecord
  2
外形線
 70
     0
 62
    49
  6
CONTINUOUS
370
    -3
390
F
  0
LAYER
  5
46
330
2
100
AcDbSymbolTableRecord
100
AcDbLayerTableRecord
  2
部品
 70
     0
 62
    14
  6
CONTINUOUS
370
    -3
390
F
  0
LAYER
  5
47
330
2
100
AcDbSymbolTableRecord
100
AcDbLayerTableRecord
  2
サッシ芯
 70
     0
 62
    17
  6
DASHDOTX2
370
    -3
390
F
  0
LAYER
  5
48
330
2
100
AcDbSymbolTableRecord
100
AcDbLayerTableRecord
  2
寸法線
 70
     0
 62
    62
  6
CONTINUOUS
370
    -3
390
F
  0
LAYER
  5
49
330
2
100
AcDbSymbolTableRecord
100
AcDbLayerTableRecord
  2
姿図外形線
 70
     0
 62
    65
  6
CONTINUOUS
370
    -3
390
F
  0
LAYER
  5
4A
330
2
100
AcDbSymbolTableRecord
100
AcDbLayerTableRecord
  2
姿補助線
 70
     0
 62
    30
  6
CONTINUOUS
370
    -3
390
F
  0
LAYER
  5
4B
330
2
100
AcDbSymbolTableRecord
100
AcDbLayerTableRecord
  2
透視線
 70
     0
 62
    78
  6
DOT
370
    -3
390
F
  0
LAYER
  5
4C
330
2
100
AcDbSymbolTableRecord
100
AcDbLayerTableRecord
  2
用紙
 70
     0
 62
    81
  6
CONTINUOUS
370
    -3
390
F
  0
LAYER
  5
4D
330
2
100
AcDbSymbolTableRecord
100
AcDbLayerTableRecord
  2
実線図枠
 70
     0
 62
    94
  6
CONTINUOUS
370
    -3
390
F
  0
LAYER
  5
4E
330
2
100
AcDbSymbolTableRecord
100
AcDbLayerTableRecord
  2
補助図枠
 70
     0
 62
    97
  6
CONTINUOUS
370
    -3
390
F
  0
LAYER
  5
4F
330
2
100
AcDbSymbolTableRecord
100
AcDbLayerTableRecord
  2
建具記号
 70
     0
 62
   110
  6
CONTINUOUS
370
    -3
390
F
  0
LAYER
  5
50
330
2
100
AcDbSymbolTableRecord
100
AcDbLayerTableRecord
  2
補助文字
 70
     0
 62
   113
  6
CONTINUOUS
370
    -3
390
F
  0
ENDTAB
  0
TABLE
  2
STYLE
  5
3
330
0
100
AcDbSymbolTable
 70
    10
  0
STYLE
  5
11
330
3
100
AcDbSymbolTableRecord
100
AcDbTextStyleTableRecord
  2
STANDARD
 70
     0
 40
1.0
 41
1.0
 50
0.0
 71
     0
 42
1.0
  3
TXT
  4
BIGFONT
  0
STYLE
  5
52
330
3
100
AcDbSymbolTableRecord
100
AcDbTextStyleTableRecord
  2
TATE
 70
     4
 40
1.0
 41
1.0
 50
0.0
 71
     0
 42
1.0
  3
TXT
  4
BIGFONT
  0
STYLE
  5
53
330
3
100
AcDbSymbolTableRecord
100
AcDbTextStyleTableRecord
  2
TextStyle03
 70
     0
 40
1.0
 41
1.0
 50
0.0
 71
     0
 42
1.0
  3
MONOTXT
  4
BIGFONT
  0
STYLE
  5
54
330
3
100
AcDbSymbolTableRecord
100
AcDbTextStyleTableRecord
  2
TextStyle04
 70
     0
 40
1.0
 41
1.0
 50
0.0
 71
     0
 42
1.0
  3
MONOTXT
  4
BIGFONT
  0
STYLE
  5
55
330
3
100
AcDbSymbolTableRecord
100
AcDbTextStyleTableRecord
  2
TextStyle05
 70
     0
 40
1.0
 41
1.0
 50
0.0
 71
     0
 42
1.0
  3
MONOTXT
  4
BIGFONT
  0
STYLE
  5
56
330
3
100
AcDbSymbolTableRecord
100
AcDbTextStyleTableRecord
  2
TextStyle06
 70
     0
 40
1.0
 41
1.0
 50
0.0
 71
     0
 42
1.0
  3
MONOTXT
  4
BIGFONT
  0
STYLE
  5
57
330
3
100
AcDbSymbolTableRecord
100
AcDbTextStyleTableRecord
  2
TextStyle07
 70
     0
 40
1.0
 41
1.0
 50
0.0
 71
     0
 42
1.0
  3
MONOTXT
  4
BIGFONT
  0
STYLE
  5
58
330
3
100
AcDbSymbolTableRecord
100
AcDbTextStyleTableRecord
  2
TextStyle08
 70
     0
 40
1.0
 41
1.0
 50
0.0
 71
     0
 42
1.0
  3
MONOTXT
  4
BIGFONT
  0
STYLE
  5
59
330
3
100
AcDbSymbolTableRecord
100
AcDbTextStyleTableRecord
  2
TextStyle09
 70
     0
 40
1.0
 41
1.0
 50
0.0
 71
     0
 42
1.0
  3
MONOTXT
  4
BIGFONT
  0
STYLE
  5
5A
330
3
100
AcDbSymbolTableRecord
100
AcDbTextStyleTableRecord
  2
TextStyle10
 70
     0
 40
1.0
 41
1.0
 50
0.0
 71
     0
 42
1.0
  3
MONOTXT
  4
BIGFONT
  0
ENDTAB
  0
TABLE
  2
VIEW
  5
6
330
0
100
AcDbSymbolTable
 70
     0
  0
ENDTAB
  0
TABLE
  2
UCS
  5
7
330
0
100
AcDbSymbolTable
 70
     0
  0
ENDTAB
  0
TABLE
  2
APPID
  5
9
330
0
100
AcDbSymbolTable
 70
     1
  0
APPID
  5
12
330
9
100
AcDbSymbolTableRecord
100
AcDbRegAppTableRecord
  2
ACAD
 70
     0
  0
ENDTAB
  0
TABLE
  2
DIMSTYLE
  5
A
330
0
100
AcDbSymbolTable
 70
     1
100
AcDbDimStyleTable
  0
DIMSTYLE
105
5B
330
A
100
AcDbSymbolTableRecord
100
AcDbDimStyleTableRecord
  2
Standard
 70
     0
340
11
  0
ENDTAB
  0
TABLE
  2
BLOCK_RECORD
  5
1
330
0
100
AcDbSymbolTable
 70
    23
  0
BLOCK_RECORD
  5
1D
330
1
100
AcDbSymbolTableRecord
100
AcDbBlockTableRecord
  2
*Model_Space
340
1E
  0
BLOCK_RECORD
  5
1B
330
1
100
AcDbSymbolTableRecord
100
AcDbBlockTableRecord
  2
*Paper_Space
340
1C
  0
BLOCK_RECORD
  5
5D
330
1
100
AcDbSymbolTableRecord
100
AcDbBlockTableRecord
  2
*U0
340
0
102
{BLKREFS
331
1F0
102
}
  0
BLOCK_RECORD
  5
66
330
1
100
AcDbSymbolTableRecord
100
AcDbBlockTableRecord
  2
*U1
340
0
102
{BLKREFS
331
258
102
}
  0
BLOCK_RECORD
  5
6E
330
1
100
AcDbSymbolTableRecord
100
AcDbBlockTableRecord
  2
*U2
340
0
102
{BLKREFS
331
259
102
}
  0
BLOCK_RECORD
  5
77
330
1
100
AcDbSymbolTableRecord
100
AcDbBlockTableRecord
  2
*U3
340
0
102
{BLKREFS
331
288
102
}
  0
BLOCK_RECORD
  5
10C
330
1
100
AcDbSymbolTableRecord
100
AcDbBlockTableRecord
  2
*U4
340
0
102
{BLKREFS
331
25A
102
}
  0
BLOCK_RECORD
  5
114
330
1
100
AcDbSymbolTableRecord
100
AcDbBlockTableRecord
  2
*U5
340
0
102
{BLKREFS
331
25B
102
}
  0
BLOCK_RECORD
  5
11B
330
1
100
AcDbSymbolTableRecord
100
AcDbBlockTableRecord
  2
*U6
340
0
102
{BLKREFS
331
25C
102
}
  0
BLOCK_RECORD
  5
124
330
1
100
AcDbSymbolTableRecord
100
AcDbBlockTableRecord
  2
*U7
340
0
102
{BLKREFS
331
25D
102
}
  0
BLOCK_RECORD
  5
12C
330
1
100
AcDbSymbolTableRecord
100
AcDbBlockTableRecord
  2
*U8
340
0
102
{BLKREFS
331
25E
102
}
  0
BLOCK_RECORD
  5
135
330
1
100
AcDbSymbolTableRecord
100
AcDbBlockTableRecord
  2
*U9
340
0
102
{BLKREFS
331
25F
102
}
  0
BLOCK_RECORD
  5
13E
330
1
100
AcDbSymbolTableRecord
100
AcDbBlockTableRecord
  2
*U10
340
0
102
{BLKREFS
331
260
102
}
  0
BLOCK_RECORD
  5
147
330
1
100
AcDbSymbolTableRecord
100
AcDbBlockTableRecord
  2
*U11
340
0
102
{BLKREFS
331
261
102
}
  0
BLOCK_RECORD
  5
14E
330
1
100
AcDbSymbolTableRecord
100
AcDbBlockTableRecord
  2
*U12
340
0
102
{BLKREFS
331
262
102
}
  0
BLOCK_RECORD
  5
155
330
1
100
AcDbSymbolTableRecord
100
AcDbBlockTableRecord
  2
*U13
340
0
102
{BLKREFS
331
263
102
}
  0
BLOCK_RECORD
  5
15D
330
1
100
AcDbSymbolTableRecord
100
AcDbBlockTableRecord
  2
*U14
340
0
102
{BLKREFS
331
264
102
}
  0
BLOCK_RECORD
  5
165
330
1
100
AcDbSymbolTableRecord
100
AcDbBlockTableRecord
  2
*U15
340
0
102
{BLKREFS
331
265
102
}
  0
BLOCK_RECORD
  5
16D
330
1
100
AcDbSymbolTableRecord
100
AcDbBlockTableRecord
  2
*U16
340
0
102
{BLKREFS
331
266
102
}
  0
BLOCK_RECORD
  5
176
330
1
100
AcDbSymbolTableRecord
100
AcDbBlockTableRecord
  2
*U17
340
0
102
{BLKREFS
331
267
102
}
  0
BLOCK_RECORD
  5
17E
330
1
100
AcDbSymbolTableRecord
100
AcDbBlockTableRecord
  2
*U18
340
0
102
{BLKREFS
331
268
102
}
  0
BLOCK_RECORD
  5
187
330
1
100
AcDbSymbolTableRecord
100
AcDbBlockTableRecord
  2
*U19
340
0
102
{BLKREFS
331
289
102
}
  0
BLOCK_RECORD
  5
1A0
330
1
100
AcDbSymbolTableRecord
100
AcDbBlockTableRecord
  2
*U20
340
0
102
{BLKREFS
331
28A
102
}
  0
BLOCK_RECORD
  5
1B9
330
1
100
AcDbSymbolTableRecord
100
AcDbBlockTableRecord
  2
*U21
340
0
102
{BLKREFS
331
28B
102
}
  0
BLOCK_RECORD
  5
1D2
330
1
100
AcDbSymbolTableRecord
100
AcDbBlockTableRecord
  2
*U22
340
0
102
{BLKREFS
331
28C
102
}
  0
ENDTAB
  0
ENDSEC
  0
SECTION
  2
BLOCKS
  0
BLOCK
  5
292
330
1D
100
AcDbEntity
  8
0
100
AcDbBlockBegin
  2
*Model_Space
 70
     0
 71
     0
 10
0.0
 20
0.0
 30
0.0
  3
*Model_Space
  1

  0
ENDBLK
  5
293
330
1D
100
AcDbEntity
  8
0
100
AcDbBlockEnd
  0
BLOCK
  5
294
330
1B
100
AcDbEntity
 67
     1
  8
0
100
AcDbBlockBegin
  2
*Paper_Space
 70
     0
 71
     0
 10
0.0
 20
0.0
 30
0.0
  3
*Paper_Space
  1

  0
ENDBLK
  5
295
330
1B
100
AcDbEntity
 67
     1
  8
0
100
AcDbBlockEnd
  0
BLOCK
  5
5C
330
5D
100
AcDbEntity
  8
0
100
AcDbBlockBegin
  2
*U0
 70
     1
 71
     0
 10
0.0
 20
0.0
 30
0.0
  3
*U0
  1

  0
LINE
  5
5E
330
5D
100
AcDbEntity
  8
型材断面
  6
Continuous
100
AcDbLine
 10
195.0
 20
133.5
 30
0.0
 11
195.0
 21
-133.5
 31
0.0
  0
LINE
  5
5F
330
5D
100
AcDbEntity
  8
型材断面
  6
Continuous
100
AcDbLine
 10
195.0
 20
-133.5
 30
0.0
 11
-185.0
 21
-133.5
 31
0.0
  0
LINE
  5
60
330
5D
100
AcDbEntity
  8
型材断面
  6
Continuous
100
AcDbLine
 10
-185.0
 20
-133.5
 30
0.0
 11
-185.0
 21
133.5
 31
0.0
  0
LINE
  5
61
330
5D
100
AcDbEntity
  8
型材断面
  6
Continuous
100
AcDbLine
 10
195.0
 20
133.5
 30
0.0
 11
-185.0
 21
133.5
 31
0.0
  0
LINE
  5
62
330
5D
100
AcDbEntity
  8
型材断面
  6
Continuous
100
AcDbLine
 10
145.0
 20
-133.5
 30
0.0
 11
145.0
 21
-118.5
 31
0.0
  0
LINE
  5
63
330
5D
100
AcDbEntity
  8
型材断面
  6
Continuous
100
AcDbLine
 10
195.0
 20
-118.5
 30
0.0
 11
145.0
 21
-118.5
 31
0.0
  0
ENDBLK
  5
64
330
5D
100
AcDbEntity
  8
0
100
AcDbBlockEnd
  0
BLOCK
  5
65
330
66
100
AcDbEntity
  8
0
100
AcDbBlockBegin
  2
*U1
 70
     1
 71
     0
 10
0.0
 20
0.0
 30
0.0
  3
*U1
  1

  0
LINE
  5
67
330
66
100
AcDbEntity
  8
寸法
  6
ByBlock
 62
     0
100
AcDbLine
 10
-78.59693300000001
 20
-13.511205
 30
0.0
 11
-78.59693300000001
 21
-13.121378
 31
0.0
  0
LINE
  5
68
330
66
100
AcDbEntity
  8
寸法
  6
ByBlock
 62
     0
100
AcDbLine
 10
21.403067
 20
-13.121378
 30
0.0
 11
-78.59693300000001
 21
-13.121378
 31
0.0
  0
POINT
  5
69
330
66
100
AcDbEntity
  8
寸法
 62
     0
100
AcDbPoint
 10
21.403067
 20
-13.121378
 30
0.0
  0
POINT
  5
6A
330
66
100
AcDbEntity
  8
寸法
 62
     0
100
AcDbPoint
 10
-78.59693300000001
 20
-13.121378
 30
0.0
  0
TEXT
  5
6B
330
66
100
AcDbEntity
  8
寸法
  6
Continuous
 62
     0
100
AcDbText
 10
-40.31875
 20
-12.75
 30
0.0
 40
3.0
  1
呼称寸法　3000
  7
TextStyle03
 72
     5
 11
-16.88125
 21
-12.75
 31
0.0
100
AcDbText
  0
ENDBLK
  5
6C
330
66
100
AcDbEntity
  8
0
100
AcDbBlockEnd
  0
BLOCK
  5
6D
330
6E
100
AcDbEntity
  8
0
100
AcDbBlockBegin
  2
*U2
 70
     1
 71
     0
 10
0.0
 20
0.0
 30
0.0
  3
*U2
  1

  0
LINE
  5
6F
330
6E
100
AcDbEntity
  8
寸法
  6
ByBlock
 62
     0
100
AcDbLine
 10
-61.930265
 20
19.183902
 30
0.0
 11
-61.930265
 21
14.10329
 31
0.0
  0
LINE
  5
70
330
6E
100
AcDbEntity
  8
寸法
  6
ByBlock
 62
     0
100
AcDbLine
 10
4.7364
 20
19.183902
 30
0.0
 11
4.7364
 21
14.10329
 31
0.0
  0
LINE
  5
71
330
6E
100
AcDbEntity
  8
寸法
  6
ByBlock
 62
     0
100
AcDbLine
 10
-61.930265
 20
14.10329
 30
0.0
 11
4.7364
 21
14.10329
 31
0.0
  0
POINT
  5
72
330
6E
100
AcDbEntity
  8
寸法
 62
     0
100
AcDbPoint
 10
-61.930265
 20
14.10329
 30
0.0
  0
POINT
  5
73
330
6E
100
AcDbEntity
  8
寸法
 62
     0
100
AcDbPoint
 10
4.7364
 20
14.10329
 30
0.0
  0
TEXT
  5
74
330
6E
100
AcDbEntity
  8
寸法
  6
Continuous
 62
     0
100
AcDbText
 10
-31.88125
 20
14.475
 30
0.0
 40
3.0
  1
2000
  7
TextStyle03
 72
     5
 11
-25.31875
 21
14.475
 31
0.0
100
AcDbText
  0
ENDBLK
  5
75
330
6E
100
AcDbEntity
  8
0
100
AcDbBlockEnd
  0
BLOCK
  5
76
330
77
100
AcDbEntity
  8
0
100
AcDbBlockBegin
  2
*U3
 70
     1
 71
     0
 10
0.0
 20
0.0
 30
0.0
  3
*U3
  1

  0
LINE
  5
78
330
77
100
AcDbEntity
  8
別途部材
  6
Continuous
 62
    96
100
AcDbLine
 10
-80.263598
 20
-70.209613
 30
0.0
 11
-80.66359799999999
 21
-71.209613
 31
0.0
  0
ARC
  5
79
330
77
100
AcDbEntity
  8
別途部材
  6
Continuous
100
AcDbCircle
 10
-63.596932
 20
-79.542947
 30
0.0
 40
17.666667
100
AcDbArc
 50
90.0
 51
148.109204
  0
LINE
  5
7A
330
77
100
AcDbEntity
  8
別途部材
  6
Continuous
 62
    96
100
AcDbLine
 10
-80.263598
 20
-70.209613
 30
0.0
 11
-28.596933
 21
-70.209613
 31
0.0
  0
LINE
  5
7B
330
77
100
AcDbEntity
  8
別途部材
  6
Continuous
100
AcDbLine
 10
-80.66359799999999
 20
-71.209613
 30
0.0
 11
-28.596933
 21
-71.209613
 31
0.0
  0
LINE
  5
7C
330
77
100
AcDbEntity
  8
別途部材
  6
Continuous
100
AcDbLine
 10
-29.096933
 20
-60.87628
 30
0.0
 11
-30.096933
 21
-61.87628
 31
0.0
  0
LINE
  5
7D
330
77
100
AcDbEntity
  8
別途部材
  6
Continuous
100
AcDbLine
 10
-31.096933
 20
-61.87628
 30
0.0
 11
-32.096933
 21
-60.87628
 31
0.0
  0
LINE
  5
7E
330
77
100
AcDbEntity
  8
別途部材
  6
Continuous
100
AcDbLine
 10
-33.096933
 20
-60.87628
 30
0.0
 11
-34.096933
 21
-61.87628
 31
0.0
  0
LINE
  5
7F
330
77
100
AcDbEntity
  8
別途部材
  6
Continuous
100
AcDbLine
 10
-32.096933
 20
-60.87628
 30
0.0
 11
-33.096933
 21
-60.87628
 31
0.0
  0
LINE
  5
80
330
77
100
AcDbEntity
  8
別途部材
  6
Continuous
100
AcDbLine
 10
-29.096933
 20
-60.87628
 30
0.0
 11
-28.596933
 21
-60.87628
 31
0.0
  0
LINE
  5
81
330
77
100
AcDbEntity
  8
別途部材
  6
Continuous
100
AcDbLine
 10
-35.096933
 20
-61.87628
 30
0.0
 11
-36.096933
 21
-60.87628
 31
0.0
  0
LINE
  5
82
330
77
100
AcDbEntity
  8
別途部材
  6
Continuous
100
AcDbLine
 10
-37.096933
 20
-60.87628
 30
0.0
 11
-38.096933
 21
-61.87628
 31
0.0
  0
LINE
  5
83
330
77
100
AcDbEntity
  8
別途部材
  6
Continuous
100
AcDbLine
 10
-36.096933
 20
-60.87628
 30
0.0
 11
-37.096933
 21
-60.87628
 31
0.0
  0
LINE
  5
84
330
77
100
AcDbEntity
  8
別途部材
  6
Continuous
100
AcDbLine
 10
-39.096933
 20
-61.87628
 30
0.0
 11
-40.096933
 21
-60.87628
 31
0.0
  0
LINE
  5
85
330
77
100
AcDbEntity
  8
別途部材
  6
Continuous
100
AcDbLine
 10
-41.096933
 20
-60.87628
 30
0.0
 11
-42.096933
 21
-61.87628
 31
0.0
  0
LINE
  5
86
330
77
100
AcDbEntity
  8
別途部材
  6
Continuous
100
AcDbLine
 10
-40.096933
 20
-60.87628
 30
0.0
 11
-41.096933
 21
-60.87628
 31
0.0
  0
LINE
  5
87
330
77
100
AcDbEntity
  8
別途部材
  6
Continuous
100
AcDbLine
 10
-43.096933
 20
-61.87628
 30
0.0
 11
-44.096933
 21
-60.87628
 31
0.0
  0
LINE
  5
88
330
77
100
AcDbEntity
  8
別途部材
  6
Continuous
100
AcDbLine
 10
-45.096933
 20
-60.87628
 30
0.0
 11
-46.096933
 21
-61.87628
 31
0.0
  0
LINE
  5
89
330
77
100
AcDbEntity
  8
別途部材
  6
Continuous
100
AcDbLine
 10
-44.096933
 20
-60.87628
 30
0.0
 11
-45.096933
 21
-60.87628
 31
0.0
  0
LINE
  5
8A
330
77
100
AcDbEntity
  8
別途部材
  6
Continuous
100
AcDbLine
 10
-47.096933
 20
-61.87628
 30
0.0
 11
-48.096933
 21
-60.87628
 31
0.0
  0
LINE
  5
8B
330
77
100
AcDbEntity
  8
別途部材
  6
Continuous
100
AcDbLine
 10
-49.096933
 20
-60.87628
 30
0.0
 11
-50.096933
 21
-61.87628
 31
0.0
  0
LINE
  5
8C
330
77
100
AcDbEntity
  8
別途部材
  6
Continuous
100
AcDbLine
 10
-48.096933
 20
-60.87628
 30
0.0
 11
-49.096933
 21
-60.87628
 31
0.0
  0
LINE
  5
8D
330
77
100
AcDbEntity
  8
別途部材
  6
Continuous
100
AcDbLine
 10
-51.096933
 20
-61.87628
 30
0.0
 11
-52.096933
 21
-60.87628
 31
0.0
  0
LINE
  5
8E
330
77
100
AcDbEntity
  8
別途部材
  6
Continuous
100
AcDbLine
 10
-53.096933
 20
-60.87628
 30
0.0
 11
-54.096933
 21
-61.87628
 31
0.0
  0
LINE
  5
8F
330
77
100
AcDbEntity
  8
別途部材
  6
Continuous
100
AcDbLine
 10
-52.096933
 20
-60.87628
 30
0.0
 11
-53.096933
 21
-60.87628
 31
0.0
  0
LINE
  5
90
330
77
100
AcDbEntity
  8
別途部材
  6
Continuous
100
AcDbLine
 10
-55.096933
 20
-61.87628
 30
0.0
 11
-56.096933
 21
-60.87628
 31
0.0
  0
LINE
  5
91
330
77
100
AcDbEntity
  8
別途部材
  6
Continuous
100
AcDbLine
 10
-57.096933
 20
-60.87628
 30
0.0
 11
-58.096933
 21
-61.87628
 31
0.0
  0
LINE
  5
92
330
77
100
AcDbEntity
  8
別途部材
  6
Continuous
100
AcDbLine
 10
-56.096933
 20
-60.87628
 30
0.0
 11
-57.096933
 21
-60.87628
 31
0.0
  0
LINE
  5
93
330
77
100
AcDbEntity
  8
別途部材
  6
Continuous
100
AcDbLine
 10
-59.096933
 20
-61.87628
 30
0.0
 11
-60.096933
 21
-60.87628
 31
0.0
  0
LINE
  5
94
330
77
100
AcDbEntity
  8
別途部材
  6
Continuous
100
AcDbLine
 10
-61.096933
 20
-60.87628
 30
0.0
 11
-62.096933
 21
-61.87628
 31
0.0
  0
LINE
  5
95
330
77
100
AcDbEntity
  8
別途部材
  6
Continuous
100
AcDbLine
 10
-60.096933
 20
-60.87628
 30
0.0
 11
-61.096933
 21
-60.87628
 31
0.0
  0
LINE
  5
96
330
77
100
AcDbEntity
  8
別途部材
  6
Continuous
100
AcDbLine
 10
-58.096933
 20
-61.87628
 30
0.0
 11
-59.096933
 21
-61.87628
 31
0.0
  0
LINE
  5
97
330
77
100
AcDbEntity
  8
別途部材
  6
Continuous
100
AcDbLine
 10
-54.096933
 20
-61.87628
 30
0.0
 11
-55.096933
 21
-61.87628
 31
0.0
  0
LINE
  5
98
330
77
100
AcDbEntity
  8
別途部材
  6
Continuous
100
AcDbLine
 10
-50.096933
 20
-61.87628
 30
0.0
 11
-51.096933
 21
-61.87628
 31
0.0
  0
LINE
  5
99
330
77
100
AcDbEntity
  8
別途部材
  6
Continuous
100
AcDbLine
 10
-46.096933
 20
-61.87628
 30
0.0
 11
-47.096933
 21
-61.87628
 31
0.0
  0
LINE
  5
9A
330
77
100
AcDbEntity
  8
別途部材
  6
Continuous
100
AcDbLine
 10
-42.096933
 20
-61.87628
 30
0.0
 11
-43.096933
 21
-61.87628
 31
0.0
  0
LINE
  5
9B
330
77
100
AcDbEntity
  8
別途部材
  6
Continuous
100
AcDbLine
 10
-38.096933
 20
-61.87628
 30
0.0
 11
-39.096933
 21
-61.87628
 31
0.0
  0
LINE
  5
9C
330
77
100
AcDbEntity
  8
別途部材
  6
Continuous
100
AcDbLine
 10
-34.096933
 20
-61.87628
 30
0.0
 11
-35.096933
 21
-61.87628
 31
0.0
  0
LINE
  5
9D
330
77
100
AcDbEntity
  8
別途部材
  6
Continuous
100
AcDbLine
 10
-31.096933
 20
-61.87628
 30
0.0
 11
-30.096933
 21
-61.87628
 31
0.0
  0
LINE
  5
9E
330
77
100
AcDbEntity
  8
別途部材
  6
Continuous
100
AcDbLine
 10
-62.096933
 20
-61.87628
 30
0.0
 11
-62.096933
 21
-70.209613
 31
0.0
  0
LINE
  5
9F
330
77
100
AcDbEntity
  8
別途部材
  6
Continuous
100
AcDbLine
 10
-61.096933
 20
-60.87628
 30
0.0
 11
-61.096933
 21
-70.209613
 31
0.0
  0
LINE
  5
A0
330
77
100
AcDbEntity
  8
別途部材
  6
Continuous
100
AcDbLine
 10
-59.096933
 20
-61.87628
 30
0.0
 11
-59.096933
 21
-70.209613
 31
0.0
  0
LINE
  5
A1
330
77
100
AcDbEntity
  8
別途部材
  6
Continuous
100
AcDbLine
 10
-60.096933
 20
-60.87628
 30
0.0
 11
-60.096933
 21
-70.209613
 31
0.0
  0
LINE
  5
A2
330
77
100
AcDbEntity
  8
別途部材
  6
Continuous
100
AcDbLine
 10
-57.096933
 20
-60.87628
 30
0.0
 11
-57.096933
 21
-70.209613
 31
0.0
  0
LINE
  5
A3
330
77
100
AcDbEntity
  8
別途部材
  6
Continuous
100
AcDbLine
 10
-58.096933
 20
-61.87628
 30
0.0
 11
-58.096933
 21
-70.209613
 31
0.0
  0
LINE
  5
A4
330
77
100
AcDbEntity
  8
別途部材
  6
Continuous
100
AcDbLine
 10
-54.096933
 20
-61.87628
 30
0.0
 11
-54.096933
 21
-70.209613
 31
0.0
  0
LINE
  5
A5
330
77
100
AcDbEntity
  8
別途部材
  6
Continuous
100
AcDbLine
 10
-53.096933
 20
-60.87628
 30
0.0
 11
-53.096933
 21
-70.209613
 31
0.0
  0
LINE
  5
A6
330
77
100
AcDbEntity
  8
別途部材
  6
Continuous
100
AcDbLine
 10
-52.096933
 20
-60.87628
 30
0.0
 11
-52.096933
 21
-70.209613
 31
0.0
  0
LINE
  5
A7
330
77
100
AcDbEntity
  8
別途部材
  6
Continuous
100
AcDbLine
 10
-55.096933
 20
-61.87628
 30
0.0
 11
-55.096933
 21
-70.209613
 31
0.0
  0
LINE
  5
A8
330
77
100
AcDbEntity
  8
別途部材
  6
Continuous
100
AcDbLine
 10
-56.096933
 20
-60.87628
 30
0.0
 11
-56.096933
 21
-70.209613
 31
0.0
  0
LINE
  5
A9
330
77
100
AcDbEntity
  8
別途部材
  6
Continuous
100
AcDbLine
 10
-48.096933
 20
-60.87628
 30
0.0
 11
-48.096933
 21
-70.209613
 31
0.0
  0
LINE
  5
AA
330
77
100
AcDbEntity
  8
別途部材
  6
Continuous
100
AcDbLine
 10
-50.096933
 20
-61.87628
 30
0.0
 11
-50.096933
 21
-70.209613
 31
0.0
  0
LINE
  5
AB
330
77
100
AcDbEntity
  8
別途部材
  6
Continuous
100
AcDbLine
 10
-51.096933
 20
-61.87628
 30
0.0
 11
-51.096933
 21
-70.209613
 31
0.0
  0
LINE
  5
AC
330
77
100
AcDbEntity
  8
別途部材
  6
Continuous
100
AcDbLine
 10
-49.096933
 20
-60.87628
 30
0.0
 11
-49.096933
 21
-70.209613
 31
0.0
  0
LINE
  5
AD
330
77
100
AcDbEntity
  8
別途部材
  6
Continuous
100
AcDbLine
 10
-47.096933
 20
-61.87628
 30
0.0
 11
-47.096933
 21
-70.209613
 31
0.0
  0
LINE
  5
AE
330
77
100
AcDbEntity
  8
別途部材
  6
Continuous
100
AcDbLine
 10
-45.096933
 20
-60.87628
 30
0.0
 11
-45.096933
 21
-70.209613
 31
0.0
  0
LINE
  5
AF
330
77
100
AcDbEntity
  8
別途部材
  6
Continuous
100
AcDbLine
 10
-44.096933
 20
-60.87628
 30
0.0
 11
-44.096933
 21
-70.209613
 31
0.0
  0
LINE
  5
B0
330
77
100
AcDbEntity
  8
別途部材
  6
Continuous
100
AcDbLine
 10
-42.096933
 20
-61.87628
 30
0.0
 11
-42.096933
 21
-70.209613
 31
0.0
  0
LINE
  5
B1
330
77
100
AcDbEntity
  8
別途部材
  6
Continuous
100
AcDbLine
 10
-43.096933
 20
-61.87628
 30
0.0
 11
-43.096933
 21
-70.209613
 31
0.0
  0
LINE
  5
B2
330
77
100
AcDbEntity
  8
別途部材
  6
Continuous
100
AcDbLine
 10
-46.096933
 20
-61.87628
 30
0.0
 11
-46.096933
 21
-70.209613
 31
0.0
  0
LINE
  5
B3
330
77
100
AcDbEntity
  8
別途部材
  6
Continuous
100
AcDbLine
 10
-41.096933
 20
-60.87628
 30
0.0
 11
-41.096933
 21
-70.209613
 31
0.0
  0
LINE
  5
B4
330
77
100
AcDbEntity
  8
別途部材
  6
Continuous
100
AcDbLine
 10
-39.096933
 20
-61.87628
 30
0.0
 11
-39.096933
 21
-70.209613
 31
0.0
  0
LINE
  5
B5
330
77
100
AcDbEntity
  8
別途部材
  6
Continuous
100
AcDbLine
 10
-40.096933
 20
-60.87628
 30
0.0
 11
-40.096933
 21
-70.209613
 31
0.0
  0
LINE
  5
B6
330
77
100
AcDbEntity
  8
別途部材
  6
Continuous
100
AcDbLine
 10
-38.096933
 20
-61.87628
 30
0.0
 11
-38.096933
 21
-70.209613
 31
0.0
  0
LINE
  5
B7
330
77
100
AcDbEntity
  8
別途部材
  6
Continuous
100
AcDbLine
 10
-37.096933
 20
-60.87628
 30
0.0
 11
-37.096933
 21
-70.209613
 31
0.0
  0
LINE
  5
B8
330
77
100
AcDbEntity
  8
別途部材
  6
Continuous
100
AcDbLine
 10
-35.096933
 20
-61.87628
 30
0.0
 11
-35.096933
 21
-70.209613
 31
0.0
  0
LINE
  5
B9
330
77
100
AcDbEntity
  8
別途部材
  6
Continuous
100
AcDbLine
 10
-36.096933
 20
-60.87628
 30
0.0
 11
-36.096933
 21
-70.209613
 31
0.0
  0
LINE
  5
BA
330
77
100
AcDbEntity
  8
別途部材
  6
Continuous
100
AcDbLine
 10
-34.096933
 20
-61.87628
 30
0.0
 11
-34.096933
 21
-70.209613
 31
0.0
  0
LINE
  5
BB
330
77
100
AcDbEntity
  8
別途部材
  6
Continuous
100
AcDbLine
 10
-33.096933
 20
-60.87628
 30
0.0
 11
-33.096933
 21
-70.209613
 31
0.0
  0
LINE
  5
BC
330
77
100
AcDbEntity
  8
別途部材
  6
Continuous
100
AcDbLine
 10
-31.096933
 20
-61.87628
 30
0.0
 11
-31.096933
 21
-70.209613
 31
0.0
  0
LINE
  5
BD
330
77
100
AcDbEntity
  8
別途部材
  6
Continuous
100
AcDbLine
 10
-32.096933
 20
-60.87628
 30
0.0
 11
-32.096933
 21
-70.209613
 31
0.0
  0
LINE
  5
BE
330
77
100
AcDbEntity
  8
別途部材
  6
Continuous
100
AcDbLine
 10
-30.096933
 20
-61.87628
 30
0.0
 11
-30.096933
 21
-70.209613
 31
0.0
  0
LINE
  5
BF
330
77
100
AcDbEntity
  8
別途部材
  6
Continuous
100
AcDbLine
 10
-29.096933
 20
-60.87628
 30
0.0
 11
-29.096933
 21
-70.209613
 31
0.0
  0
LINE
  5
C0
330
77
100
AcDbEntity
  8
別途部材
  6
Continuous
100
AcDbLine
 10
-62.096933
 20
-61.87628
 30
0.0
 11
-63.596933
 21
-61.87628
 31
0.0
  0
LINE
  5
C1
330
77
100
AcDbEntity
  8
別途部材
  6
Continuous
 62
    96
100
AcDbLine
 10
23.069735
 20
-70.209613
 30
0.0
 11
23.469735
 21
-71.209613
 31
0.0
  0
ARC
  5
C2
330
77
100
AcDbEntity
  8
別途部材
  6
Continuous
100
AcDbCircle
 10
6.403068
 20
-79.542947
 30
0.0
 40
17.666667
100
AcDbArc
 50
31.890796
 51
90.0
  0
LINE
  5
C3
330
77
100
AcDbEntity
  8
別途部材
  6
Continuous
 62
    96
100
AcDbLine
 10
23.069735
 20
-70.209613
 30
0.0
 11
-28.596933
 21
-70.209613
 31
0.0
  0
LINE
  5
C4
330
77
100
AcDbEntity
  8
別途部材
  6
Continuous
100
AcDbLine
 10
23.469735
 20
-71.209613
 30
0.0
 11
-28.596933
 21
-71.209613
 31
0.0
  0
LINE
  5
C5
330
77
100
AcDbEntity
  8
別途部材
  6
Continuous
100
AcDbLine
 10
-28.096933
 20
-60.87628
 30
0.0
 11
-27.096933
 21
-61.87628
 31
0.0
  0
LINE
  5
C6
330
77
100
AcDbEntity
  8
別途部材
  6
Continuous
100
AcDbLine
 10
-26.096933
 20
-61.87628
 30
0.0
 11
-25.096933
 21
-60.87628
 31
0.0
  0
LINE
  5
C7
330
77
100
AcDbEntity
  8
別途部材
  6
Continuous
100
AcDbLine
 10
-24.096933
 20
-60.87628
 30
0.0
 11
-23.096933
 21
-61.87628
 31
0.0
  0
LINE
  5
C8
330
77
100
AcDbEntity
  8
別途部材
  6
Continuous
100
AcDbLine
 10
-25.096933
 20
-60.87628
 30
0.0
 11
-24.096933
 21
-60.87628
 31
0.0
  0
LINE
  5
C9
330
77
100
AcDbEntity
  8
別途部材
  6
Continuous
100
AcDbLine
 10
-28.096933
 20
-60.87628
 30
0.0
 11
-28.596933
 21
-60.87628
 31
0.0
  0
LINE
  5
CA
330
77
100
AcDbEntity
  8
別途部材
  6
Continuous
100
AcDbLine
 10
-22.096933
 20
-61.87628
 30
0.0
 11
-21.096933
 21
-60.87628
 31
0.0
  0
LINE
  5
CB
330
77
100
AcDbEntity
  8
別途部材
  6
Continuous
100
AcDbLine
 10
-20.096933
 20
-60.87628
 30
0.0
 11
-19.096933
 21
-61.87628
 31
0.0
  0
LINE
  5
CC
330
77
100
AcDbEntity
  8
別途部材
  6
Continuous
100
AcDbLine
 10
-21.096933
 20
-60.87628
 30
0.0
 11
-20.096933
 21
-60.87628
 31
0.0
  0
LINE
  5
CD
330
77
100
AcDbEntity
  8
別途部材
  6
Continuous
100
AcDbLine
 10
-18.096933
 20
-61.87628
 30
0.0
 11
-17.096933
 21
-60.87628
 31
0.0
  0
LINE
  5
CE
330
77
100
AcDbEntity
  8
別途部材
  6
Continuous
100
AcDbLine
 10
-16.096933
 20
-60.87628
 30
0.0
 11
-15.096933
 21
-61.87628
 31
0.0
  0
LINE
  5
CF
330
77
100
AcDbEntity
  8
別途部材
  6
Continuous
100
AcDbLine
 10
-17.096933
 20
-60.87628
 30
0.0
 11
-16.096933
 21
-60.87628
 31
0.0
  0
LINE
  5
D0
330
77
100
AcDbEntity
  8
別途部材
  6
Continuous
100
AcDbLine
 10
-14.096933
 20
-61.87628
 30
0.0
 11
-13.096933
 21
-60.87628
 31
0.0
  0
LINE
  5
D1
330
77
100
AcDbEntity
  8
別途部材
  6
Continuous
100
AcDbLine
 10
-12.096933
 20
-60.87628
 30
0.0
 11
-11.096933
 21
-61.87628
 31
0.0
  0
LINE
  5
D2
330
77
100
AcDbEntity
  8
別途部材
  6
Continuous
100
AcDbLine
 10
-13.096933
 20
-60.87628
 30
0.0
 11
-12.096933
 21
-60.87628
 31
0.0
  0
LINE
  5
D3
330
77
100
AcDbEntity
  8
別途部材
  6
Continuous
100
AcDbLine
 10
-10.096933
 20
-61.87628
 30
0.0
 11
-9.096933
 21
-60.87628
 31
0.0
  0
LINE
  5
D4
330
77
100
AcDbEntity
  8
別途部材
  6
Continuous
100
AcDbLine
 10
-8.096933
 20
-60.87628
 30
0.0
 11
-7.096933
 21
-61.87628
 31
0.0
  0
LINE
  5
D5
330
77
100
AcDbEntity
  8
別途部材
  6
Continuous
100
AcDbLine
 10
-9.096933
 20
-60.87628
 30
0.0
 11
-8.096933
 21
-60.87628
 31
0.0
  0
LINE
  5
D6
330
77
100
AcDbEntity
  8
別途部材
  6
Continuous
100
AcDbLine
 10
-6.096933
 20
-61.87628
 30
0.0
 11
-5.096933
 21
-60.87628
 31
0.0
  0
LINE
  5
D7
330
77
100
AcDbEntity
  8
別途部材
  6
Continuous
100
AcDbLine
 10
-4.096933
 20
-60.87628
 30
0.0
 11
-3.096933
 21
-61.87628
 31
0.0
  0
LINE
  5
D8
330
77
100
AcDbEntity
  8
別途部材
  6
Continuous
100
AcDbLine
 10
-5.096933
 20
-60.87628
 30
0.0
 11
-4.096933
 21
-60.87628
 31
0.0
  0
LINE
  5
D9
330
77
100
AcDbEntity
  8
別途部材
  6
Continuous
100
AcDbLine
 10
-2.096933
 20
-61.87628
 30
0.0
 11
-1.096933
 21
-60.87628
 31
0.0
  0
LINE
  5
DA
330
77
100
AcDbEntity
  8
別途部材
  6
Continuous
100
AcDbLine
 10
-0.096933
 20
-60.87628
 30
0.0
 11
0.903067
 21
-61.87628
 31
0.0
  0
LINE
  5
DB
330
77
100
AcDbEntity
  8
別途部材
  6
Continuous
100
AcDbLine
 10
-1.096933
 20
-60.87628
 30
0.0
 11
-0.096933
 21
-60.87628
 31
0.0
  0
LINE
  5
DC
330
77
100
AcDbEntity
  8
別途部材
  6
Continuous
100
AcDbLine
 10
1.903067
 20
-61.87628
 30
0.0
 11
2.903067
 21
-60.87628
 31
0.0
  0
LINE
  5
DD
330
77
100
AcDbEntity
  8
別途部材
  6
Continuous
100
AcDbLine
 10
3.903067
 20
-60.87628
 30
0.0
 11
4.903067
 21
-61.87628
 31
0.0
  0
LINE
  5
DE
330
77
100
AcDbEntity
  8
別途部材
  6
Continuous
100
AcDbLine
 10
2.903067
 20
-60.87628
 30
0.0
 11
3.903067
 21
-60.87628
 31
0.0
  0
LINE
  5
DF
330
77
100
AcDbEntity
  8
別途部材
  6
Continuous
100
AcDbLine
 10
0.903067
 20
-61.87628
 30
0.0
 11
1.903067
 21
-61.87628
 31
0.0
  0
LINE
  5
E0
330
77
100
AcDbEntity
  8
別途部材
  6
Continuous
100
AcDbLine
 10
-3.096933
 20
-61.87628
 30
0.0
 11
-2.096933
 21
-61.87628
 31
0.0
  0
LINE
  5
E1
330
77
100
AcDbEntity
  8
別途部材
  6
Continuous
100
AcDbLine
 10
-7.096933
 20
-61.87628
 30
0.0
 11
-6.096933
 21
-61.87628
 31
0.0
  0
LINE
  5
E2
330
77
100
AcDbEntity
  8
別途部材
  6
Continuous
100
AcDbLine
 10
-11.096933
 20
-61.87628
 30
0.0
 11
-10.096933
 21
-61.87628
 31
0.0
  0
LINE
  5
E3
330
77
100
AcDbEntity
  8
別途部材
  6
Continuous
100
AcDbLine
 10
-15.096933
 20
-61.87628
 30
0.0
 11
-14.096933
 21
-61.87628
 31
0.0
  0
LINE
  5
E4
330
77
100
AcDbEntity
  8
別途部材
  6
Continuous
100
AcDbLine
 10
-19.096933
 20
-61.87628
 30
0.0
 11
-18.096933
 21
-61.87628
 31
0.0
  0
LINE
  5
E5
330
77
100
AcDbEntity
  8
別途部材
  6
Continuous
100
AcDbLine
 10
-23.096933
 20
-61.87628
 30
0.0
 11
-22.096933
 21
-61.87628
 31
0.0
  0
LINE
  5
E6
330
77
100
AcDbEntity
  8
別途部材
  6
Continuous
100
AcDbLine
 10
-26.096933
 20
-61.87628
 30
0.0
 11
-27.096933
 21
-61.87628
 31
0.0
  0
LINE
  5
E7
330
77
100
AcDbEntity
  8
別途部材
  6
Continuous
100
AcDbLine
 10
4.903067
 20
-61.87628
 30
0.0
 11
4.903067
 21
-70.209613
 31
0.0
  0
LINE
  5
E8
330
77
100
AcDbEntity
  8
別途部材
  6
Continuous
100
AcDbLine
 10
3.903067
 20
-60.87628
 30
0.0
 11
3.903067
 21
-70.209613
 31
0.0
  0
LINE
  5
E9
330
77
100
AcDbEntity
  8
別途部材
  6
Continuous
100
AcDbLine
 10
1.903067
 20
-61.87628
 30
0.0
 11
1.903067
 21
-70.209613
 31
0.0
  0
LINE
  5
EA
330
77
100
AcDbEntity
  8
別途部材
  6
Continuous
100
AcDbLine
 10
2.903067
 20
-60.87628
 30
0.0
 11
2.903067
 21
-70.209613
 31
0.0
  0
LINE
  5
EB
330
77
100
AcDbEntity
  8
別途部材
  6
Continuous
100
AcDbLine
 10
-0.096933
 20
-60.87628
 30
0.0
 11
-0.096933
 21
-70.209613
 31
0.0
  0
LINE
  5
EC
330
77
100
AcDbEntity
  8
別途部材
  6
Continuous
100
AcDbLine
 10
0.903067
 20
-61.87628
 30
0.0
 11
0.903067
 21
-70.209613
 31
0.0
  0
LINE
  5
ED
330
77
100
AcDbEntity
  8
別途部材
  6
Continuous
100
AcDbLine
 10
-3.096933
 20
-61.87628
 30
0.0
 11
-3.096933
 21
-70.209613
 31
0.0
  0
LINE
  5
EE
330
77
100
AcDbEntity
  8
別途部材
  6
Continuous
100
AcDbLine
 10
-4.096933
 20
-60.87628
 30
0.0
 11
-4.096933
 21
-70.209613
 31
0.0
  0
LINE
  5
EF
330
77
100
AcDbEntity
  8
別途部材
  6
Continuous
100
AcDbLine
 10
-5.096933
 20
-60.87628
 30
0.0
 11
-5.096933
 21
-70.209613
 31
0.0
  0
LINE
  5
F0
330
77
100
AcDbEntity
  8
別途部材
  6
Continuous
100
AcDbLine
 10
-2.096933
 20
-61.87628
 30
0.0
 11
-2.096933
 21
-70.209613
 31
0.0
  0
LINE
  5
F1
330
77
100
AcDbEntity
  8
別途部材
  6
Continuous
100
AcDbLine
 10
-1.096933
 20
-60.87628
 30
0.0
 11
-1.096933
 21
-70.209613
 31
0.0
  0
LINE
  5
F2
330
77
100
AcDbEntity
  8
別途部材
  6
Continuous
100
AcDbLine
 10
-9.096933
 20
-60.87628
 30
0.0
 11
-9.096933
 21
-70.209613
 31
0.0
  0
LINE
  5
F3
330
77
100
AcDbEntity
  8
別途部材
  6
Continuous
100
AcDbLine
 10
-7.096933
 20
-61.87628
 30
0.0
 11
-7.096933
 21
-70.209613
 31
0.0
  0
LINE
  5
F4
330
77
100
AcDbEntity
  8
別途部材
  6
Continuous
100
AcDbLine
 10
-6.096933
 20
-61.87628
 30
0.0
 11
-6.096933
 21
-70.209613
 31
0.0
  0
LINE
  5
F5
330
77
100
AcDbEntity
  8
別途部材
  6
Continuous
100
AcDbLine
 10
-8.096933
 20
-60.87628
 30
0.0
 11
-8.096933
 21
-70.209613
 31
0.0
  0
LINE
  5
F6
330
77
100
AcDbEntity
  8
別途部材
  6
Continuous
100
AcDbLine
 10
-10.096933
 20
-61.87628
 30
0.0
 11
-10.096933
 21
-70.209613
 31
0.0
  0
LINE
  5
F7
330
77
100
AcDbEntity
  8
別途部材
  6
Continuous
100
AcDbLine
 10
-12.096933
 20
-60.87628
 30
0.0
 11
-12.096933
 21
-70.209613
 31
0.0
  0
LINE
  5
F8
330
77
100
AcDbEntity
  8
別途部材
  6
Continuous
100
AcDbLine
 10
-13.096933
 20
-60.87628
 30
0.0
 11
-13.096933
 21
-70.209613
 31
0.0
  0
LINE
  5
F9
330
77
100
AcDbEntity
  8
別途部材
  6
Continuous
100
AcDbLine
 10
-15.096933
 20
-61.87628
 30
0.0
 11
-15.096933
 21
-70.209613
 31
0.0
  0
LINE
  5
FA
330
77
100
AcDbEntity
  8
別途部材
  6
Continuous
100
AcDbLine
 10
-14.096933
 20
-61.87628
 30
0.0
 11
-14.096933
 21
-70.209613
 31
0.0
  0
LINE
  5
FB
330
77
100
AcDbEntity
  8
別途部材
  6
Continuous
100
AcDbLine
 10
-11.096933
 20
-61.87628
 30
0.0
 11
-11.096933
 21
-70.209613
 31
0.0
  0
LINE
  5
FC
330
77
100
AcDbEntity
  8
別途部材
  6
Continuous
100
AcDbLine
 10
-16.096933
 20
-60.87628
 30
0.0
 11
-16.096933
 21
-70.209613
 31
0.0
  0
LINE
  5
FD
330
77
100
AcDbEntity
  8
別途部材
  6
Continuous
100
AcDbLine
 10
-18.096933
 20
-61.87628
 30
0.0
 11
-18.096933
 21
-70.209613
 31
0.0
  0
LINE
  5
FE
330
77
100
AcDbEntity
  8
別途部材
  6
Continuous
100
AcDbLine
 10
-17.096933
 20
-60.87628
 30
0.0
 11
-17.096933
 21
-70.209613
 31
0.0
  0
LINE
  5
FF
330
77
100
AcDbEntity
  8
別途部材
  6
Continuous
100
AcDbLine
 10
-19.096933
 20
-61.87628
 30
0.0
 11
-19.096933
 21
-70.209613
 31
0.0
  0
LINE
  5
100
330
77
100
AcDbEntity
  8
別途部材
  6
Continuous
100
AcDbLine
 10
-20.096933
 20
-60.87628
 30
0.0
 11
-20.096933
 21
-70.209613
 31
0.0
  0
LINE
  5
101
330
77
100
AcDbEntity
  8
別途部材
  6
Continuous
100
AcDbLine
 10
-22.096933
 20
-61.87628
 30
0.0
 11
-22.096933
 21
-70.209613
 31
0.0
  0
LINE
  5
102
330
77
100
AcDbEntity
  8
別途部材
  6
Continuous
100
AcDbLine
 10
-21.096933
 20
-60.87628
 30
0.0
 11
-21.096933
 21
-70.209613
 31
0.0
  0
LINE
  5
103
330
77
100
AcDbEntity
  8
別途部材
  6
Continuous
100
AcDbLine
 10
-23.096933
 20
-61.87628
 30
0.0
 11
-23.096933
 21
-70.209613
 31
0.0
  0
LINE
  5
104
330
77
100
AcDbEntity
  8
別途部材
  6
Continuous
100
AcDbLine
 10
-24.096933
 20
-60.87628
 30
0.0
 11
-24.096933
 21
-70.209613
 31
0.0
  0
LINE
  5
105
330
77
100
AcDbEntity
  8
別途部材
  6
Continuous
100
AcDbLine
 10
-26.096933
 20
-61.87628
 30
0.0
 11
-26.096933
 21
-70.209613
 31
0.0
  0
LINE
  5
106
330
77
100
AcDbEntity
  8
別途部材
  6
Continuous
100
AcDbLine
 10
-25.096933
 20
-60.87628
 30
0.0
 11
-25.096933
 21
-70.209613
 31
0.0
  0
LINE
  5
107
330
77
100
AcDbEntity
  8
別途部材
  6
Continuous
100
AcDbLine
 10
-27.096933
 20
-61.87628
 30
0.0
 11
-27.096933
 21
-70.209613
 31
0.0
  0
LINE
  5
108
330
77
100
AcDbEntity
  8
別途部材
  6
Continuous
100
AcDbLine
 10
-28.096933
 20
-60.87628
 30
0.0
 11
-28.096933
 21
-70.209613
 31
0.0
  0
LINE
  5
109
330
77
100
AcDbEntity
  8
別途部材
  6
Continuous
100
AcDbLine
 10
4.903067
 20
-61.87628
 30
0.0
 11
6.403067
 21
-61.87628
 31
0.0
  0
ENDBLK
  5
10A
330
77
100
AcDbEntity
  8
0
100
AcDbBlockEnd
  0
BLOCK
  5
10B
330
10C
100
AcDbEntity
  8
0
100
AcDbBlockBegin
  2
*U4
 70
     1
 71
     0
 10
0.0
 20
0.0
 30
0.0
  3
*U4
  1

  0
LINE
  5
10D
330
10C
100
AcDbEntity
  8
寸法
  6
ByBlock
 62
     0
100
AcDbLine
 10
102.603
 20
38.814033
 30
0.0
 11
102.603
 21
68.369967
 31
0.0
  0
LINE
  5
10E
330
10C
100
AcDbEntity
  8
寸法
  6
ByBlock
 62
     0
100
AcDbLine
 10
110.936333
 20
68.369967
 30
0.0
 11
102.603
 21
68.369967
 31
0.0
  0
POINT
  5
10F
330
10C
100
AcDbEntity
  8
寸法
 62
     0
100
AcDbPoint
 10
110.936333
 20
68.369967
 30
0.0
  0
POINT
  5
110
330
10C
100
AcDbEntity
  8
寸法
 62
     0
100
AcDbPoint
 10
102.603
 20
68.369967
 30
0.0
  0
TEXT
  5
111
330
10C
100
AcDbEntity
  8
寸法
  6
Continuous
 62
     0
100
AcDbText
 10
104.3625
 20
68.72499999999999
 30
0.0
 40
3.0
  1
250
  7
TextStyle03
 72
     5
 11
109.2375
 21
68.72499999999999
 31
0.0
100
AcDbText
  0
ENDBLK
  5
112
330
10C
100
AcDbEntity
  8
0
100
AcDbBlockEnd
  0
BLOCK
  5
113
330
114
100
AcDbEntity
  8
0
100
AcDbBlockBegin
  2
*U5
 70
     1
 71
     0
 10
0.0
 20
0.0
 30
0.0
  3
*U5
  1

  0
LINE
  5
115
330
114
100
AcDbEntity
  8
寸法
  6
ByBlock
 62
     0
100
AcDbLine
 10
55.422717
 20
22.814033
 30
0.0
 11
55.422717
 21
52.814033
 31
0.0
  0
POINT
  5
116
330
114
100
AcDbEntity
  8
寸法
 62
     0
100
AcDbPoint
 10
55.422717
 20
22.814033
 30
0.0
  0
POINT
  5
117
330
114
100
AcDbEntity
  8
寸法
 62
     0
100
AcDbPoint
 10
55.422717
 20
52.814033
 30
0.0
  0
TEXT
  5
118
330
114
100
AcDbEntity
  8
寸法
  6
Continuous
 62
     0
100
AcDbText
 10
55.1
 20
26.9
 30
0.0
 40
3.0
  1
呼称寸法　900
 50
90.0
  7
TextStyle03
 72
     5
 11
55.1
 21
48.65
 31
0.0
100
AcDbText
  0
ENDBLK
  5
119
330
114
100
AcDbEntity
  8
0
100
AcDbBlockEnd
  0
BLOCK
  5
11A
330
11B
100
AcDbEntity
  8
0
100
AcDbBlockBegin
  2
*U6
 70
     1
 71
     0
 10
0.0
 20
0.0
 30
0.0
  3
*U6
  1

  0
LINE
  5
11C
330
11B
100
AcDbEntity
  8
寸法
  6
ByBlock
 62
     0
100
AcDbLine
 10
110.936333
 20
57.4807
 30
0.0
 11
110.936333
 21
68.369967
 31
0.0
  0
LINE
  5
11D
330
11B
100
AcDbEntity
  8
寸法
  6
ByBlock
 62
     0
100
AcDbLine
 10
114.769905
 20
59.147367
 30
0.0
 11
114.769905
 21
68.369967
 31
0.0
  0
LINE
  5
11E
330
11B
100
AcDbEntity
  8
寸法
  6
ByBlock
 62
     0
100
AcDbLine
 10
110.936333
 20
68.369967
 30
0.0
 11
114.769905
 21
68.369967
 31
0.0
  0
POINT
  5
11F
330
11B
100
AcDbEntity
  8
寸法
 62
     0
100
AcDbPoint
 10
110.936333
 20
68.369967
 30
0.0
  0
POINT
  5
120
330
11B
100
AcDbEntity
  8
寸法
 62
     0
100
AcDbPoint
 10
114.769905
 20
68.369967
 30
0.0
  0
TEXT
  5
121
330
11B
100
AcDbEntity
  8
寸法
  6
Continuous
 62
     0
100
AcDbText
 10
115.4625
 20
68.72499999999999
 30
0.0
 40
3.0
  1
115
  7
TextStyle03
 72
     5
 11
120.3375
 21
68.72499999999999
 31
0.0
100
AcDbText
  0
ENDBLK
  5
122
330
11B
100
AcDbEntity
  8
0
100
AcDbBlockEnd
  0
BLOCK
  5
123
330
124
100
AcDbEntity
  8
0
100
AcDbBlockBegin
  2
*U7
 70
     1
 71
     0
 10
0.0
 20
0.0
 30
0.0
  3
*U7
  1

  0
LINE
  5
125
330
124
100
AcDbEntity
  8
寸法
  6
ByBlock
 62
     0
100
AcDbLine
 10
7.403067
 20
-61.87628
 30
0.0
 11
37.372718
 21
-61.87628
 31
0.0
  0
LINE
  5
126
330
124
100
AcDbEntity
  8
寸法
  6
ByBlock
 62
     0
100
AcDbLine
 10
37.372718
 20
-70.209613
 30
0.0
 11
37.372718
 21
-61.87628
 31
0.0
  0
POINT
  5
127
330
124
100
AcDbEntity
  8
寸法
 62
     0
100
AcDbPoint
 10
37.372718
 20
-70.209613
 30
0.0
  0
POINT
  5
128
330
124
100
AcDbEntity
  8
寸法
 62
     0
100
AcDbPoint
 10
37.372718
 20
-61.87628
 30
0.0
  0
TEXT
  5
129
330
124
100
AcDbEntity
  8
寸法
  6
Continuous
 62
     0
100
AcDbText
 10
37.05
 20
-68.5125
 30
0.0
 40
3.0
  1
250
 50
90.0
  7
TextStyle03
 72
     5
 11
37.05
 21
-63.6375
 31
0.0
100
AcDbText
  0
ENDBLK
  5
12A
330
124
100
AcDbEntity
  8
0
100
AcDbBlockEnd
  0
BLOCK
  5
12B
330
12C
100
AcDbEntity
  8
0
100
AcDbBlockBegin
  2
*U8
 70
     1
 71
     0
 10
0.0
 20
0.0
 30
0.0
  3
*U8
  1

  0
LINE
  5
12D
330
12C
100
AcDbEntity
  8
寸法
  6
ByBlock
 62
     0
100
AcDbLine
 10
26.069735
 20
-70.209613
 30
0.0
 11
37.372718
 21
-70.209613
 31
0.0
  0
LINE
  5
12E
330
12C
100
AcDbEntity
  8
寸法
  6
ByBlock
 62
     0
100
AcDbLine
 10
27.736403
 20
-74.04318499999999
 30
0.0
 11
37.372718
 21
-74.04318499999999
 31
0.0
  0
LINE
  5
12F
330
12C
100
AcDbEntity
  8
寸法
  6
ByBlock
 62
     0
100
AcDbLine
 10
37.372718
 20
-70.209613
 30
0.0
 11
37.372718
 21
-74.04318499999999
 31
0.0
  0
POINT
  5
130
330
12C
100
AcDbEntity
  8
寸法
 62
     0
100
AcDbPoint
 10
37.372718
 20
-70.209613
 30
0.0
  0
POINT
  5
131
330
12C
100
AcDbEntity
  8
寸法
 62
     0
100
AcDbPoint
 10
37.372718
 20
-74.04318499999999
 30
0.0
  0
TEXT
  5
132
330
12C
100
AcDbEntity
  8
寸法
  6
Continuous
 62
     0
100
AcDbText
 10
36.975
 20
-79.6375
 30
0.0
 40
3.0
  1
115
 50
90.0
  7
TextStyle03
 72
     5
 11
36.975
 21
-74.7625
 31
0.0
100
AcDbText
  0
ENDBLK
  5
133
330
12C
100
AcDbEntity
  8
0
100
AcDbBlockEnd
  0
BLOCK
  5
134
330
135
100
AcDbEntity
  8
0
100
AcDbBlockBegin
  2
*U9
 70
     1
 71
     0
 10
0.0
 20
0.0
 30
0.0
  3
*U9
  1

  0
LINE
  5
136
330
135
100
AcDbEntity
  8
寸法
  6
ByBlock
 62
     0
100
AcDbLine
 10
-81.59693300000001
 20
47.814033
 30
0.0
 11
-94.88977
 21
47.814033
 31
0.0
  0
LINE
  5
137
330
135
100
AcDbEntity
  8
寸法
  6
ByBlock
 62
     0
100
AcDbLine
 10
-81.59693300000001
 20
27.814033
 30
0.0
 11
-94.88977
 21
27.814033
 31
0.0
  0
LINE
  5
138
330
135
100
AcDbEntity
  8
寸法
  6
ByBlock
 62
     0
100
AcDbLine
 10
-94.88977
 20
47.814033
 30
0.0
 11
-94.88977
 21
27.814033
 31
0.0
  0
POINT
  5
139
330
135
100
AcDbEntity
  8
寸法
 62
     0
100
AcDbPoint
 10
-94.88977
 20
47.814033
 30
0.0
  0
POINT
  5
13A
330
135
100
AcDbEntity
  8
寸法
 62
     0
100
AcDbPoint
 10
-94.88977
 20
27.814033
 30
0.0
  0
TEXT
  5
13B
330
135
100
AcDbEntity
  8
寸法
  6
Continuous
 62
     0
100
AcDbText
 10
-95.25
 20
35.3625
 30
0.0
 40
3.0
  1
600
 50
90.0
  7
TextStyle03
 72
     5
 11
-95.25
 21
40.2375
 31
0.0
100
AcDbText
  0
ENDBLK
  5
13C
330
135
100
AcDbEntity
  8
0
100
AcDbBlockEnd
  0
BLOCK
  5
13D
330
13E
100
AcDbEntity
  8
0
100
AcDbBlockBegin
  2
*U10
 70
     1
 71
     0
 10
0.0
 20
0.0
 30
0.0
  3
*U10
  1

  0
LINE
  5
13F
330
13E
100
AcDbEntity
  8
寸法
  6
ByBlock
 62
     0
100
AcDbLine
 10
-68.59693300000001
 20
55.814033
 30
0.0
 11
-68.59693300000001
 21
84.922105
 31
0.0
  0
LINE
  5
140
330
13E
100
AcDbEntity
  8
寸法
  6
ByBlock
 62
     0
100
AcDbLine
 10
-41.930265
 20
55.814033
 30
0.0
 11
-41.930265
 21
84.922105
 31
0.0
  0
LINE
  5
141
330
13E
100
AcDbEntity
  8
寸法
  6
ByBlock
 62
     0
100
AcDbLine
 10
-68.59693300000001
 20
84.922105
 30
0.0
 11
-41.930265
 21
84.922105
 31
0.0
  0
POINT
  5
142
330
13E
100
AcDbEntity
  8
寸法
 62
     0
100
AcDbPoint
 10
-68.59693300000001
 20
84.922105
 30
0.0
  0
POINT
  5
143
330
13E
100
AcDbEntity
  8
寸法
 62
     0
100
AcDbPoint
 10
-41.930265
 20
84.922105
 30
0.0
  0
TEXT
  5
144
330
13E
100
AcDbEntity
  8
寸法
  6
Continuous
 62
     0
100
AcDbText
 10
-57.7375
 20
85.27500000000001
 30
0.0
 40
3.0
  1
800
  7
TextStyle03
 72
     5
 11
-52.8625
 21
85.27500000000001
 31
0.0
100
AcDbText
  0
ENDBLK
  5
145
330
13E
100
AcDbEntity
  8
0
100
AcDbBlockEnd
  0
BLOCK
  5
146
330
147
100
AcDbEntity
  8
0
100
AcDbBlockBegin
  2
*U11
 70
     1
 71
     0
 10
0.0
 20
0.0
 30
0.0
  3
*U11
  1

  0
LINE
  5
148
330
147
100
AcDbEntity
  8
寸法
  6
ByBlock
 62
     0
100
AcDbLine
 10
-15.2636
 20
55.814033
 30
0.0
 11
-15.2636
 21
84.922105
 31
0.0
  0
LINE
  5
149
330
147
100
AcDbEntity
  8
寸法
  6
ByBlock
 62
     0
100
AcDbLine
 10
-41.930265
 20
84.922105
 30
0.0
 11
-15.2636
 21
84.922105
 31
0.0
  0
POINT
  5
14A
330
147
100
AcDbEntity
  8
寸法
 62
     0
100
AcDbPoint
 10
-15.2636
 20
84.922105
 30
0.0
  0
TEXT
  5
14B
330
147
100
AcDbEntity
  8
寸法
  6
Continuous
 62
     0
100
AcDbText
 10
-31.0625
 20
85.27500000000001
 30
0.0
 40
3.0
  1
800
  7
TextStyle03
 72
     5
 11
-26.1875
 21
85.27500000000001
 31
0.0
100
AcDbText
  0
ENDBLK
  5
14C
330
147
100
AcDbEntity
  8
0
100
AcDbBlockEnd
  0
BLOCK
  5
14D
330
14E
100
AcDbEntity
  8
0
100
AcDbBlockBegin
  2
*U12
 70
     1
 71
     0
 10
0.0
 20
0.0
 30
0.0
  3
*U12
  1

  0
LINE
  5
14F
330
14E
100
AcDbEntity
  8
寸法
  6
ByBlock
 62
     0
100
AcDbLine
 10
11.403067
 20
55.814033
 30
0.0
 11
11.403067
 21
84.922105
 31
0.0
  0
LINE
  5
150
330
14E
100
AcDbEntity
  8
寸法
  6
ByBlock
 62
     0
100
AcDbLine
 10
-15.2636
 20
84.922105
 30
0.0
 11
11.403067
 21
84.922105
 31
0.0
  0
POINT
  5
151
330
14E
100
AcDbEntity
  8
寸法
 62
     0
100
AcDbPoint
 10
11.403067
 20
84.922105
 30
0.0
  0
TEXT
  5
152
330
14E
100
AcDbEntity
  8
寸法
  6
Continuous
 62
     0
100
AcDbText
 10
-4.3875
 20
85.27500000000001
 30
0.0
 40
3.0
  1
800
  7
TextStyle03
 72
     5
 11
0.4875
 21
85.27500000000001
 31
0.0
100
AcDbText
  0
ENDBLK
  5
153
330
14E
100
AcDbEntity
  8
0
100
AcDbBlockEnd
  0
BLOCK
  5
154
330
155
100
AcDbEntity
  8
0
100
AcDbBlockBegin
  2
*U13
 70
     1
 71
     0
 10
0.0
 20
0.0
 30
0.0
  3
*U13
  1

  0
LINE
  5
156
330
155
100
AcDbEntity
  8
寸法
  6
ByBlock
 62
     0
100
AcDbLine
 10
24.569735
 20
-70.54318499999999
 30
0.0
 11
24.569735
 21
-13.121378
 31
0.0
  0
LINE
  5
157
330
155
100
AcDbEntity
  8
寸法
  6
ByBlock
 62
     0
100
AcDbLine
 10
21.403067
 20
-13.121378
 30
0.0
 11
24.569735
 21
-13.121378
 31
0.0
  0
POINT
  5
158
330
155
100
AcDbEntity
  8
寸法
 62
     0
100
AcDbPoint
 10
21.403067
 20
-13.121378
 30
0.0
  0
POINT
  5
159
330
155
100
AcDbEntity
  8
寸法
 62
     0
100
AcDbPoint
 10
24.569735
 20
-13.121378
 30
0.0
  0
TEXT
  5
15A
330
155
100
AcDbEntity
  8
寸法
  6
Continuous
 62
     0
100
AcDbText
 10
21.38125
 20
-12.75
 30
0.0
 40
3.0
  1
95
  7
TextStyle03
 72
     5
 11
24.56875
 21
-12.75
 31
0.0
100
AcDbText
  0
ENDBLK
  5
15B
330
155
100
AcDbEntity
  8
0
100
AcDbBlockEnd
  0
BLOCK
  5
15C
330
15D
100
AcDbEntity
  8
0
100
AcDbBlockBegin
  2
*U14
 70
     1
 71
     0
 10
0.0
 20
0.0
 30
0.0
  3
*U14
  1

  0
LINE
  5
15E
330
15D
100
AcDbEntity
  8
寸法
  6
ByBlock
 62
     0
100
AcDbLine
 10
111.269905
 20
55.9807
 30
0.0
 11
55.422717
 21
55.9807
 31
0.0
  0
LINE
  5
15F
330
15D
100
AcDbEntity
  8
寸法
  6
ByBlock
 62
     0
100
AcDbLine
 10
55.422717
 20
52.814033
 30
0.0
 11
55.422717
 21
55.9807
 31
0.0
  0
POINT
  5
160
330
15D
100
AcDbEntity
  8
寸法
 62
     0
100
AcDbPoint
 10
55.422717
 20
52.814033
 30
0.0
  0
POINT
  5
161
330
15D
100
AcDbEntity
  8
寸法
 62
     0
100
AcDbPoint
 10
55.422717
 20
55.9807
 30
0.0
  0
TEXT
  5
162
330
15D
100
AcDbEntity
  8
寸法
  6
Continuous
 62
     0
100
AcDbText
 10
55.025
 20
52.78125
 30
0.0
 40
3.0
  1
95
 50
90.0
  7
TextStyle03
 72
     5
 11
55.025
 21
55.96875
 31
0.0
100
AcDbText
  0
ENDBLK
  5
163
330
15D
100
AcDbEntity
  8
0
100
AcDbBlockEnd
  0
BLOCK
  5
164
330
165
100
AcDbEntity
  8
0
100
AcDbBlockBegin
  2
*U15
 70
     1
 71
     0
 10
0.0
 20
0.0
 30
0.0
  3
*U15
  1

  0
LINE
  5
166
330
165
100
AcDbEntity
  8
寸法
  6
ByBlock
 62
     0
100
AcDbLine
 10
111.269905
 20
19.647365
 30
0.0
 11
55.422717
 21
19.647365
 31
0.0
  0
LINE
  5
167
330
165
100
AcDbEntity
  8
寸法
  6
ByBlock
 62
     0
100
AcDbLine
 10
55.422717
 20
22.814033
 30
0.0
 11
55.422717
 21
19.647365
 31
0.0
  0
POINT
  5
168
330
165
100
AcDbEntity
  8
寸法
 62
     0
100
AcDbPoint
 10
55.422717
 20
22.814033
 30
0.0
  0
POINT
  5
169
330
165
100
AcDbEntity
  8
寸法
 62
     0
100
AcDbPoint
 10
55.422717
 20
19.647365
 30
0.0
  0
TEXT
  5
16A
330
165
100
AcDbEntity
  8
寸法
  6
Continuous
 62
     0
100
AcDbText
 10
55.025
 20
19.63125
 30
0.0
 40
3.0
  1
95
 50
90.0
  7
TextStyle03
 72
     5
 11
55.025
 21
22.81875
 31
0.0
100
AcDbText
  0
ENDBLK
  5
16B
330
165
100
AcDbEntity
  8
0
100
AcDbBlockEnd
  0
BLOCK
  5
16C
330
16D
100
AcDbEntity
  8
0
100
AcDbBlockBegin
  2
*U16
 70
     1
 71
     0
 10
0.0
 20
0.0
 30
0.0
  3
*U16
  1

  0
LINE
  5
16E
330
16D
100
AcDbEntity
  8
寸法
  6
Continuous
100
AcDbLine
 10
158.00956
 20
-79.20038
 30
0.0
 11
168.562107
 21
-79.20038
 31
0.0
  0
LINE
  5
16F
330
16D
100
AcDbEntity
  8
寸法
  6
Continuous
100
AcDbLine
 10
158.00956
 20
-49.533713
 30
0.0
 11
168.562107
 21
-49.533713
 31
0.0
  0
LINE
  5
170
330
16D
100
AcDbEntity
  8
寸法
  6
Continuous
100
AcDbLine
 10
168.562107
 20
-79.20038
 30
0.0
 11
168.562107
 21
-49.533713
 31
0.0
  0
POINT
  5
171
330
16D
100
AcDbEntity
  8
寸法
100
AcDbPoint
 10
168.562107
 20
-79.20038
 30
0.0
  0
POINT
  5
172
330
16D
100
AcDbEntity
  8
寸法
100
AcDbPoint
 10
168.562107
 20
-49.533713
 30
0.0
  0
TEXT
  5
173
330
16D
100
AcDbEntity
  8
寸法
  6
Continuous
100
AcDbText
 10
168.175
 20
-66.8125
 30
0.0
 40
3.0
  1
890
 50
90.0
  7
TextStyle03
 72
     5
 11
168.175
 21
-61.9375
 31
0.0
100
AcDbText
  0
ENDBLK
  5
174
330
16D
100
AcDbEntity
  8
0
100
AcDbBlockEnd
  0
BLOCK
  5
175
330
176
100
AcDbEntity
  8
0
100
AcDbBlockBegin
  2
*U17
 70
     1
 71
     0
 10
0.0
 20
0.0
 30
0.0
  3
*U17
  1

  0
LINE
  5
177
330
176
100
AcDbEntity
  8
寸法
  6
ByBlock
 62
     0
100
AcDbLine
 10
-81.7636
 20
-70.153358
 30
0.0
 11
-81.7636
 21
-13.121378
 31
0.0
  0
LINE
  5
178
330
176
100
AcDbEntity
  8
寸法
  6
ByBlock
 62
     0
100
AcDbLine
 10
-78.59693300000001
 20
-13.121378
 30
0.0
 11
-81.7636
 21
-13.121378
 31
0.0
  0
POINT
  5
179
330
176
100
AcDbEntity
  8
寸法
 62
     0
100
AcDbPoint
 10
-78.59693300000001
 20
-13.121378
 30
0.0
  0
POINT
  5
17A
330
176
100
AcDbEntity
  8
寸法
 62
     0
100
AcDbPoint
 10
-81.7636
 20
-13.121378
 30
0.0
  0
TEXT
  5
17B
330
176
100
AcDbEntity
  8
寸法
  6
Continuous
 62
     0
100
AcDbText
 10
-81.79375
 20
-12.775
 30
0.0
 40
3.0
  1
95
  7
TextStyle03
 72
     5
 11
-78.60625
 21
-12.775
 31
0.0
100
AcDbText
  0
ENDBLK
  5
17C
330
176
100
AcDbEntity
  8
0
100
AcDbBlockEnd
  0
BLOCK
  5
17D
330
17E
100
AcDbEntity
  8
0
100
AcDbBlockBegin
  2
*U18
 70
     1
 71
     0
 10
0.0
 20
0.0
 30
0.0
  3
*U18
  1

  0
LINE
  5
17F
330
17E
100
AcDbEntity
  8
寸法
  6
Continuous
100
AcDbLine
 10
155.537835
 20
-44.533713
 30
0.0
 11
155.537835
 21
-37.730077
 31
0.0
  0
LINE
  5
180
330
17E
100
AcDbEntity
  8
寸法
  6
Continuous
100
AcDbLine
 10
123.026835
 20
-44.533713
 30
0.0
 11
123.026835
 21
-37.730077
 31
0.0
  0
LINE
  5
181
330
17E
100
AcDbEntity
  8
寸法
  6
Continuous
100
AcDbLine
 10
155.537835
 20
-37.730077
 30
0.0
 11
123.026835
 21
-37.730077
 31
0.0
  0
POINT
  5
182
330
17E
100
AcDbEntity
  8
寸法
100
AcDbPoint
 10
155.537835
 20
-37.730077
 30
0.0
  0
POINT
  5
183
330
17E
100
AcDbEntity
  8
寸法
100
AcDbPoint
 10
123.026835
 20
-37.730077
 30
0.0
  0
TEXT
  5
184
330
17E
100
AcDbEntity
  8
寸法
  6
Continuous
100
AcDbText
 10
135.15
 20
-37.375
 30
0.0
 40
3.0
  1
975.3
  7
TextStyle03
 72
     5
 11
143.4
 21
-37.375
 31
0.0
100
AcDbText
  0
ENDBLK
  5
185
330
17E
100
AcDbEntity
  8
0
100
AcDbBlockEnd
  0
BLOCK
  5
186
330
187
100
AcDbEntity
  8
0
100
AcDbBlockBegin
  2
*U19
 70
     1
 71
     0
 10
0.0
 20
0.0
 30
0.0
  3
*U19
  1

  0
LINE
  5
188
330
187
100
AcDbEntity
  8
ボルト／ビス
  6
Continuous
100
AcDbLine
 10
-79.2636
 20
-70.209613
 30
0.0
 11
-79.2636
 21
-69.74294500000001
 31
0.0
  0
LINE
  5
189
330
187
100
AcDbEntity
  8
ボルト／ビス
  6
Continuous
100
AcDbLine
 10
-79.63026499999999
 20
-70.209613
 30
0.0
 11
-79.63026499999999
 21
-70.142945
 31
0.0
  0
LINE
  5
18A
330
187
100
AcDbEntity
  8
ボルト／ビス
  6
Continuous
100
AcDbLine
 10
-79.63026499999999
 20
-70.142945
 30
0.0
 11
-78.896933
 21
-70.142945
 31
0.0
  0
LINE
  5
18B
330
187
100
AcDbEntity
  8
ボルト／ビス
  6
Continuous
100
AcDbLine
 10
-78.896933
 20
-70.142945
 30
0.0
 11
-78.896933
 21
-70.209613
 31
0.0
  0
LINE
  5
18C
330
187
100
AcDbEntity
  8
ボルト／ビス
  6
Continuous
100
AcDbLine
 10
-79.63026499999999
 20
-70.209613
 30
0.0
 11
-78.896933
 21
-70.209613
 31
0.0
  0
LINE
  5
18D
330
187
100
AcDbEntity
  8
ボルト／ビス
  6
Continuous
100
AcDbLine
 10
-79.56359999999999
 20
-70.109612
 30
0.0
 11
-79.56359999999999
 21
-70.142945
 31
0.0
  0
LINE
  5
18E
330
187
100
AcDbEntity
  8
ボルト／ビス
  6
Continuous
100
AcDbLine
 10
-79.56359999999999
 20
-70.109612
 30
0.0
 11
-78.9636
 21
-70.109612
 31
0.0
  0
LINE
  5
18F
330
187
100
AcDbEntity
  8
ボルト／ビス
  6
Continuous
100
AcDbLine
 10
-78.9636
 20
-70.109612
 30
0.0
 11
-78.9636
 21
-70.142945
 31
0.0
  0
LINE
  5
190
330
187
100
AcDbEntity
  8
ボルト／ビス
  6
Continuous
 62
    64
100
AcDbLine
 10
-79.423975
 20
-69.90961299999999
 30
0.0
 11
-79.45605000000001
 21
-69.921288
 31
0.0
  0
ARC
  5
191
330
187
100
AcDbEntity
  8
ボルト／ビス
  6
Continuous
 62
    64
100
AcDbCircle
 10
-79.407935
 20
-70.01459
 30
0.0
 40
0.104978
100
AcDbArc
 50
62.721967
 51
90.0
  0
ARC
  5
192
330
187
100
AcDbEntity
  8
ボルト／ビス
  6
Continuous
 62
    64
100
AcDbCircle
 10
-79.263598
 20
-70.31201400000001
 30
0.0
 40
0.402402
100
AcDbArc
 50
76.165002
 51
103.834985
  0
LINE
  5
193
330
187
100
AcDbEntity
  8
ボルト／ビス
  6
Continuous
 62
    64
100
AcDbLine
 10
-79.103225
 20
-69.90961299999999
 30
0.0
 11
-79.07115
 21
-69.921288
 31
0.0
  0
ARC
  5
194
330
187
100
AcDbEntity
  8
ボルト／ビス
  6
Continuous
 62
    64
100
AcDbCircle
 10
-79.11926
 20
-70.01459
 30
0.0
 40
0.104978
100
AcDbArc
 50
90.0
 51
117.278033
  0
LINE
  5
195
330
187
100
AcDbEntity
  8
ボルト／ビス
  6
Continuous
 62
    64
100
AcDbLine
 10
-79.423975
 20
-69.90961299999999
 30
0.0
 11
-79.103225
 21
-69.90961299999999
 31
0.0
  0
LINE
  5
196
330
187
100
AcDbEntity
  8
ボルト／ビス
  6
Continuous
 62
    64
100
AcDbLine
 10
-79.07115
 20
-69.921288
 30
0.0
 11
-79.07115
 21
-70.042945
 31
0.0
  0
LINE
  5
197
330
187
100
AcDbEntity
  8
ボルト／ビス
  6
Continuous
 62
    64
100
AcDbLine
 10
-79.16737500000001
 20
-69.921288
 30
0.0
 11
-79.16737500000001
 21
-70.042945
 31
0.0
  0
LINE
  5
198
330
187
100
AcDbEntity
  8
ボルト／ビス
  6
Continuous
 62
    64
100
AcDbLine
 10
-79.45605000000001
 20
-69.921288
 30
0.0
 11
-79.45605000000001
 21
-70.042945
 31
0.0
  0
LINE
  5
199
330
187
100
AcDbEntity
  8
ボルト／ビス
  6
Continuous
 62
    64
100
AcDbLine
 10
-79.359825
 20
-69.921288
 30
0.0
 11
-79.359825
 21
-70.042945
 31
0.0
  0
LINE
  5
19A
330
187
100
AcDbEntity
  8
ボルト／ビス
  6
Continuous
100
AcDbLine
 10
-79.45605000000001
 20
-70.042945
 30
0.0
 11
-79.07115
 21
-70.042945
 31
0.0
  0
LINE
  5
19B
330
187
100
AcDbEntity
  8
ボルト／ビス
  6
Continuous
100
AcDbLine
 10
-79.4636
 20
-70.042945
 30
0.0
 11
-79.4636
 21
-70.109612
 31
0.0
  0
LINE
  5
19C
330
187
100
AcDbEntity
  8
ボルト／ビス
  6
Continuous
100
AcDbLine
 10
-79.4636
 20
-70.042945
 30
0.0
 11
-79.06359999999999
 21
-70.042945
 31
0.0
  0
LINE
  5
19D
330
187
100
AcDbEntity
  8
ボルト／ビス
  6
Continuous
100
AcDbLine
 10
-79.06359999999999
 20
-70.042945
 30
0.0
 11
-79.06359999999999
 21
-70.109612
 31
0.0
  0
ENDBLK
  5
19E
330
187
100
AcDbEntity
  8
0
100
AcDbBlockEnd
  0
BLOCK
  5
19F
330
1A0
100
AcDbEntity
  8
0
100
AcDbBlockBegin
  2
*U20
 70
     1
 71
     0
 10
0.0
 20
0.0
 30
0.0
  3
*U20
  1

  0
LINE
  5
1A1
330
1A0
100
AcDbEntity
  8
ボルト／ビス
  6
Continuous
100
AcDbLine
 10
22.069735
 20
-70.209613
 30
0.0
 11
22.069735
 21
-69.74294500000001
 31
0.0
  0
LINE
  5
1A2
330
1A0
100
AcDbEntity
  8
ボルト／ビス
  6
Continuous
100
AcDbLine
 10
21.70307
 20
-70.209613
 30
0.0
 11
21.70307
 21
-70.142945
 31
0.0
  0
LINE
  5
1A3
330
1A0
100
AcDbEntity
  8
ボルト／ビス
  6
Continuous
100
AcDbLine
 10
21.70307
 20
-70.142945
 30
0.0
 11
22.436403
 21
-70.142945
 31
0.0
  0
LINE
  5
1A4
330
1A0
100
AcDbEntity
  8
ボルト／ビス
  6
Continuous
100
AcDbLine
 10
22.436403
 20
-70.142945
 30
0.0
 11
22.436403
 21
-70.209613
 31
0.0
  0
LINE
  5
1A5
330
1A0
100
AcDbEntity
  8
ボルト／ビス
  6
Continuous
100
AcDbLine
 10
21.70307
 20
-70.209613
 30
0.0
 11
22.436403
 21
-70.209613
 31
0.0
  0
LINE
  5
1A6
330
1A0
100
AcDbEntity
  8
ボルト／ビス
  6
Continuous
100
AcDbLine
 10
21.769735
 20
-70.109612
 30
0.0
 11
21.769735
 21
-70.142945
 31
0.0
  0
LINE
  5
1A7
330
1A0
100
AcDbEntity
  8
ボルト／ビス
  6
Continuous
100
AcDbLine
 10
21.769735
 20
-70.109612
 30
0.0
 11
22.369735
 21
-70.109612
 31
0.0
  0
LINE
  5
1A8
330
1A0
100
AcDbEntity
  8
ボルト／ビス
  6
Continuous
100
AcDbLine
 10
22.369735
 20
-70.109612
 30
0.0
 11
22.369735
 21
-70.142945
 31
0.0
  0
LINE
  5
1A9
330
1A0
100
AcDbEntity
  8
ボルト／ビス
  6
Continuous
 62
    64
100
AcDbLine
 10
21.90936
 20
-69.90961299999999
 30
0.0
 11
21.877285
 21
-69.921288
 31
0.0
  0
ARC
  5
1AA
330
1A0
100
AcDbEntity
  8
ボルト／ビス
  6
Continuous
 62
    64
100
AcDbCircle
 10
21.9254
 20
-70.01459
 30
0.0
 40
0.104978
100
AcDbArc
 50
62.721967
 51
90.0
  0
ARC
  5
1AB
330
1A0
100
AcDbEntity
  8
ボルト／ビス
  6
Continuous
 62
    64
100
AcDbCircle
 10
22.069737
 20
-70.31201400000001
 30
0.0
 40
0.402402
100
AcDbArc
 50
76.165002
 51
103.834985
  0
LINE
  5
1AC
330
1A0
100
AcDbEntity
  8
ボルト／ビス
  6
Continuous
 62
    64
100
AcDbLine
 10
22.23011
 20
-69.90961299999999
 30
0.0
 11
22.262185
 21
-69.921288
 31
0.0
  0
ARC
  5
1AD
330
1A0
100
AcDbEntity
  8
ボルト／ビス
  6
Continuous
 62
    64
100
AcDbCircle
 10
22.214075
 20
-70.01459
 30
0.0
 40
0.104978
100
AcDbArc
 50
90.0
 51
117.278033
  0
LINE
  5
1AE
330
1A0
100
AcDbEntity
  8
ボルト／ビス
  6
Continuous
 62
    64
100
AcDbLine
 10
21.90936
 20
-69.90961299999999
 30
0.0
 11
22.23011
 21
-69.90961299999999
 31
0.0
  0
LINE
  5
1AF
330
1A0
100
AcDbEntity
  8
ボルト／ビス
  6
Continuous
 62
    64
100
AcDbLine
 10
22.262185
 20
-69.921288
 30
0.0
 11
22.262185
 21
-70.042945
 31
0.0
  0
LINE
  5
1B0
330
1A0
100
AcDbEntity
  8
ボルト／ビス
  6
Continuous
 62
    64
100
AcDbLine
 10
22.16596
 20
-69.921288
 30
0.0
 11
22.16596
 21
-70.042945
 31
0.0
  0
LINE
  5
1B1
330
1A0
100
AcDbEntity
  8
ボルト／ビス
  6
Continuous
 62
    64
100
AcDbLine
 10
21.877285
 20
-69.921288
 30
0.0
 11
21.877285
 21
-70.042945
 31
0.0
  0
LINE
  5
1B2
330
1A0
100
AcDbEntity
  8
ボルト／ビス
  6
Continuous
 62
    64
100
AcDbLine
 10
21.97351
 20
-69.921288
 30
0.0
 11
21.97351
 21
-70.042945
 31
0.0
  0
LINE
  5
1B3
330
1A0
100
AcDbEntity
  8
ボルト／ビス
  6
Continuous
100
AcDbLine
 10
21.877285
 20
-70.042945
 30
0.0
 11
22.262185
 21
-70.042945
 31
0.0
  0
LINE
  5
1B4
330
1A0
100
AcDbEntity
  8
ボルト／ビス
  6
Continuous
100
AcDbLine
 10
21.869735
 20
-70.042945
 30
0.0
 11
21.869735
 21
-70.109612
 31
0.0
  0
LINE
  5
1B5
330
1A0
100
AcDbEntity
  8
ボルト／ビス
  6
Continuous
100
AcDbLine
 10
21.869735
 20
-70.042945
 30
0.0
 11
22.269735
 21
-70.042945
 31
0.0
  0
LINE
  5
1B6
330
1A0
100
AcDbEntity
  8
ボルト／ビス
  6
Continuous
100
AcDbLine
 10
22.269735
 20
-70.042945
 30
0.0
 11
22.269735
 21
-70.109612
 31
0.0
  0
ENDBLK
  5
1B7
330
1A0
100
AcDbEntity
  8
0
100
AcDbBlockEnd
  0
BLOCK
  5
1B8
330
1B9
100
AcDbEntity
  8
0
100
AcDbBlockBegin
  2
*U21
 70
     1
 71
     0
 10
0.0
 20
0.0
 30
0.0
  3
*U21
  1

  0
LINE
  5
1BA
330
1B9
100
AcDbEntity
  8
ボルト／ビス
  6
Continuous
100
AcDbLine
 10
110.936333
 20
22.147365
 30
0.0
 11
110.469665
 21
22.147365
 31
0.0
  0
LINE
  5
1BB
330
1B9
100
AcDbEntity
  8
ボルト／ビス
  6
Continuous
100
AcDbLine
 10
110.936333
 20
21.7807
 30
0.0
 11
110.869665
 21
21.7807
 31
0.0
  0
LINE
  5
1BC
330
1B9
100
AcDbEntity
  8
ボルト／ビス
  6
Continuous
100
AcDbLine
 10
110.869665
 20
21.7807
 30
0.0
 11
110.869665
 21
22.514033
 31
0.0
  0
LINE
  5
1BD
330
1B9
100
AcDbEntity
  8
ボルト／ビス
  6
Continuous
100
AcDbLine
 10
110.869665
 20
22.514033
 30
0.0
 11
110.936333
 21
22.514033
 31
0.0
  0
LINE
  5
1BE
330
1B9
100
AcDbEntity
  8
ボルト／ビス
  6
Continuous
100
AcDbLine
 10
110.936333
 20
21.7807
 30
0.0
 11
110.936333
 21
22.514033
 31
0.0
  0
LINE
  5
1BF
330
1B9
100
AcDbEntity
  8
ボルト／ビス
  6
Continuous
100
AcDbLine
 10
110.836333
 20
21.847365
 30
0.0
 11
110.869665
 21
21.847365
 31
0.0
  0
LINE
  5
1C0
330
1B9
100
AcDbEntity
  8
ボルト／ビス
  6
Continuous
100
AcDbLine
 10
110.836333
 20
21.847365
 30
0.0
 11
110.836333
 21
22.447365
 31
0.0
  0
LINE
  5
1C1
330
1B9
100
AcDbEntity
  8
ボルト／ビス
  6
Continuous
100
AcDbLine
 10
110.836333
 20
22.447365
 30
0.0
 11
110.869665
 21
22.447365
 31
0.0
  0
LINE
  5
1C2
330
1B9
100
AcDbEntity
  8
ボルト／ビス
  6
Continuous
 62
    64
100
AcDbLine
 10
110.636333
 20
21.98699
 30
0.0
 11
110.648007
 21
21.954915
 31
0.0
  0
ARC
  5
1C3
330
1B9
100
AcDbEntity
  8
ボルト／ビス
  6
Continuous
 62
    64
100
AcDbCircle
 10
110.741312
 20
22.00303
 30
0.0
 40
0.104978
100
AcDbArc
 50
152.721967
 51
180.0
  0
ARC
  5
1C4
330
1B9
100
AcDbEntity
  8
ボルト／ビス
  6
Continuous
 62
    64
100
AcDbCircle
 10
111.038736
 20
22.147368
 30
0.0
 40
0.402402
100
AcDbArc
 50
166.165002
 51
193.834985
  0
LINE
  5
1C5
330
1B9
100
AcDbEntity
  8
ボルト／ビス
  6
Continuous
 62
    64
100
AcDbLine
 10
110.636333
 20
22.30774
 30
0.0
 11
110.648007
 21
22.339815
 31
0.0
  0
ARC
  5
1C6
330
1B9
100
AcDbEntity
  8
ボルト／ビス
  6
Continuous
 62
    64
100
AcDbCircle
 10
110.741312
 20
22.291705
 30
0.0
 40
0.104978
100
AcDbArc
 50
180.0
 51
207.278033
  0
LINE
  5
1C7
330
1B9
100
AcDbEntity
  8
ボルト／ビス
  6
Continuous
 62
    64
100
AcDbLine
 10
110.636333
 20
21.98699
 30
0.0
 11
110.636333
 21
22.30774
 31
0.0
  0
LINE
  5
1C8
330
1B9
100
AcDbEntity
  8
ボルト／ビス
  6
Continuous
 62
    64
100
AcDbLine
 10
110.648007
 20
22.339815
 30
0.0
 11
110.769665
 21
22.339815
 31
0.0
  0
LINE
  5
1C9
330
1B9
100
AcDbEntity
  8
ボルト／ビス
  6
Continuous
 62
    64
100
AcDbLine
 10
110.648007
 20
22.24359
 30
0.0
 11
110.769665
 21
22.24359
 31
0.0
  0
LINE
  5
1CA
330
1B9
100
AcDbEntity
  8
ボルト／ビス
  6
Continuous
 62
    64
100
AcDbLine
 10
110.648007
 20
21.954915
 30
0.0
 11
110.769665
 21
21.954915
 31
0.0
  0
LINE
  5
1CB
330
1B9
100
AcDbEntity
  8
ボルト／ビス
  6
Continuous
 62
    64
100
AcDbLine
 10
110.648007
 20
22.05114
 30
0.0
 11
110.769665
 21
22.05114
 31
0.0
  0
LINE
  5
1CC
330
1B9
100
AcDbEntity
  8
ボルト／ビス
  6
Continuous
100
AcDbLine
 10
110.769665
 20
21.954915
 30
0.0
 11
110.769665
 21
22.339815
 31
0.0
  0
LINE
  5
1CD
330
1B9
100
AcDbEntity
  8
ボルト／ビス
  6
Continuous
100
AcDbLine
 10
110.769665
 20
21.947365
 30
0.0
 11
110.836333
 21
21.947365
 31
0.0
  0
LINE
  5
1CE
330
1B9
100
AcDbEntity
  8
ボルト／ビス
  6
Continuous
100
AcDbLine
 10
110.769665
 20
21.947365
 30
0.0
 11
110.769665
 21
22.347365
 31
0.0
  0
LINE
  5
1CF
330
1B9
100
AcDbEntity
  8
ボルト／ビス
  6
Continuous
100
AcDbLine
 10
110.769665
 20
22.347365
 30
0.0
 11
110.836333
 21
22.347365
 31
0.0
  0
ENDBLK
  5
1D0
330
1B9
100
AcDbEntity
  8
0
100
AcDbBlockEnd
  0
BLOCK
  5
1D1
330
1D2
100
AcDbEntity
  8
0
100
AcDbBlockBegin
  2
*U22
 70
     1
 71
     0
 10
0.0
 20
0.0
 30
0.0
  3
*U22
  1

  0
LINE
  5
1D3
330
1D2
100
AcDbEntity
  8
ボルト／ビス
  6
Continuous
100
AcDbLine
 10
110.936333
 20
53.4807
 30
0.0
 11
110.469665
 21
53.4807
 31
0.0
  0
LINE
  5
1D4
330
1D2
100
AcDbEntity
  8
ボルト／ビス
  6
Continuous
100
AcDbLine
 10
110.936333
 20
53.114035
 30
0.0
 11
110.869665
 21
53.114035
 31
0.0
  0
LINE
  5
1D5
330
1D2
100
AcDbEntity
  8
ボルト／ビス
  6
Continuous
100
AcDbLine
 10
110.869665
 20
53.114035
 30
0.0
 11
110.869665
 21
53.847367
 31
0.0
  0
LINE
  5
1D6
330
1D2
100
AcDbEntity
  8
ボルト／ビス
  6
Continuous
100
AcDbLine
 10
110.869665
 20
53.847367
 30
0.0
 11
110.936333
 21
53.847367
 31
0.0
  0
LINE
  5
1D7
330
1D2
100
AcDbEntity
  8
ボルト／ビス
  6
Continuous
100
AcDbLine
 10
110.936333
 20
53.114035
 30
0.0
 11
110.936333
 21
53.847367
 31
0.0
  0
LINE
  5
1D8
330
1D2
100
AcDbEntity
  8
ボルト／ビス
  6
Continuous
100
AcDbLine
 10
110.836333
 20
53.1807
 30
0.0
 11
110.869665
 21
53.1807
 31
0.0
  0
LINE
  5
1D9
330
1D2
100
AcDbEntity
  8
ボルト／ビス
  6
Continuous
100
AcDbLine
 10
110.836333
 20
53.1807
 30
0.0
 11
110.836333
 21
53.7807
 31
0.0
  0
LINE
  5
1DA
330
1D2
100
AcDbEntity
  8
ボルト／ビス
  6
Continuous
100
AcDbLine
 10
110.836333
 20
53.7807
 30
0.0
 11
110.869665
 21
53.7807
 31
0.0
  0
LINE
  5
1DB
330
1D2
100
AcDbEntity
  8
ボルト／ビス
  6
Continuous
 62
    64
100
AcDbLine
 10
110.636333
 20
53.320325
 30
0.0
 11
110.648007
 21
53.28825
 31
0.0
  0
ARC
  5
1DC
330
1D2
100
AcDbEntity
  8
ボルト／ビス
  6
Continuous
 62
    64
100
AcDbCircle
 10
110.741312
 20
53.336365
 30
0.0
 40
0.104978
100
AcDbArc
 50
152.721967
 51
180.0
  0
ARC
  5
1DD
330
1D2
100
AcDbEntity
  8
ボルト／ビス
  6
Continuous
 62
    64
100
AcDbCircle
 10
111.038736
 20
53.480703
 30
0.0
 40
0.402402
100
AcDbArc
 50
166.165002
 51
193.834985
  0
LINE
  5
1DE
330
1D2
100
AcDbEntity
  8
ボルト／ビス
  6
Continuous
 62
    64
100
AcDbLine
 10
110.636333
 20
53.641075
 30
0.0
 11
110.648007
 21
53.67315
 31
0.0
  0
ARC
  5
1DF
330
1D2
100
AcDbEntity
  8
ボルト／ビス
  6
Continuous
 62
    64
100
AcDbCircle
 10
110.741312
 20
53.62504
 30
0.0
 40
0.104978
100
AcDbArc
 50
180.0
 51
207.278033
  0
LINE
  5
1E0
330
1D2
100
AcDbEntity
  8
ボルト／ビス
  6
Continuous
 62
    64
100
AcDbLine
 10
110.636333
 20
53.320325
 30
0.0
 11
110.636333
 21
53.641075
 31
0.0
  0
LINE
  5
1E1
330
1D2
100
AcDbEntity
  8
ボルト／ビス
  6
Continuous
 62
    64
100
AcDbLine
 10
110.648007
 20
53.67315
 30
0.0
 11
110.769665
 21
53.67315
 31
0.0
  0
LINE
  5
1E2
330
1D2
100
AcDbEntity
  8
ボルト／ビス
  6
Continuous
 62
    64
100
AcDbLine
 10
110.648007
 20
53.576925
 30
0.0
 11
110.769665
 21
53.576925
 31
0.0
  0
LINE
  5
1E3
330
1D2
100
AcDbEntity
  8
ボルト／ビス
  6
Continuous
 62
    64
100
AcDbLine
 10
110.648007
 20
53.28825
 30
0.0
 11
110.769665
 21
53.28825
 31
0.0
  0
LINE
  5
1E4
330
1D2
100
AcDbEntity
  8
ボルト／ビス
  6
Continuous
 62
    64
100
AcDbLine
 10
110.648007
 20
53.384475
 30
0.0
 11
110.769665
 21
53.384475
 31
0.0
  0
LINE
  5
1E5
330
1D2
100
AcDbEntity
  8
ボルト／ビス
  6
Continuous
100
AcDbLine
 10
110.769665
 20
53.28825
 30
0.0
 11
110.769665
 21
53.67315
 31
0.0
  0
LINE
  5
1E6
330
1D2
100
AcDbEntity
  8
ボルト／ビス
  6
Continuous
100
AcDbLine
 10
110.769665
 20
53.2807
 30
0.0
 11
110.836333
 21
53.2807
 31
0.0
  0
LINE
  5
1E7
330
1D2
100
AcDbEntity
  8
ボルト／ビス
  6
Continuous
100
AcDbLine
 10
110.769665
 20
53.2807
 30
0.0
 11
110.769665
 21
53.6807
 31
0.0
  0
LINE
  5
1E8
330
1D2
100
AcDbEntity
  8
ボルト／ビス
  6
Continuous
100
AcDbLine
 10
110.769665
 20
53.6807
 30
0.0
 11
110.836333
 21
53.6807
 31
0.0
  0
ENDBLK
  5
1E9
330
1D2
100
AcDbEntity
  8
0
100
AcDbBlockEnd
  0
ENDSEC
  0
SECTION
  2
ENTITIES
  0
LWPOLYLINE
  5
1EA
330
1D
100
AcDbEntity
  8
通り芯
  6
Continuous
100
AcDbPolyline
 90
        4
 70
     1
 43
0.0
 10
-210.0
 20
-148.5
 10
210.0
 20
-148.5
 10
210.0
 20
148.5
 10
-210.0
 20
148.5
  0
INSERT
  5
1F0
330
1D
100
AcDbEntity
  8
型材断面
  6
Continuous
100
AcDbBlockReference
  2
*U0
 10
0.0
 20
0.0
 30
0.0
  0
LINE
  5
1F1
330
1D
100
AcDbEntity
  8
型材断面
  6
DASHDOT
100
AcDbLine
 10
21.403067
 20
-77.83644200000001
 30
0.0
 11
21.403067
 21
52.814033
 31
0.0
  0
LINE
  5
1F2
330
1D
100
AcDbEntity
  8
型材断面
  6
DASHDOT
100
AcDbLine
 10
-28.596933
 20
-77.83644200000001
 30
0.0
 11
-28.596933
 21
52.814033
 31
0.0
  0
LINE
  5
1F3
330
1D
100
AcDbEntity
  8
型材断面
  6
DASHDOT
100
AcDbLine
 10
-78.59693300000001
 20
-77.83644200000001
 30
0.0
 11
-78.59693300000001
 21
52.814033
 31
0.0
  0
LINE
  5
1F4
330
1D
100
AcDbEntity
  8
型材断面
  6
DASHDOT
100
AcDbLine
 10
119.07983
 20
52.814033
 30
0.0
 11
-78.59693300000001
 21
52.814033
 31
0.0
  0
LINE
  5
1F5
330
1D
100
AcDbEntity
  8
型材断面
  6
DASHDOT
100
AcDbLine
 10
119.07983
 20
37.814033
 30
0.0
 11
-78.59693300000001
 21
37.814033
 31
0.0
  0
LINE
  5
1F6
330
1D
100
AcDbEntity
  8
型材断面
  6
DASHDOT
100
AcDbLine
 10
119.07983
 20
22.814033
 30
0.0
 11
-78.59693300000001
 21
22.814033
 31
0.0
  0
LINE
  5
1F7
330
1D
100
AcDbEntity
  8
型材断面
  6
Continuous
100
AcDbLine
 10
-61.930265
 20
55.444162
 30
0.0
 11
-63.425895
 21
58.03467
 31
0.0
  0
LINE
  5
1F8
330
1D
100
AcDbEntity
  8
型材断面
  6
Continuous
100
AcDbLine
 10
-61.930265
 20
55.444162
 30
0.0
 11
-60.434635
 21
58.03467
 31
0.0
  0
LINE
  5
1F9
330
1D
100
AcDbEntity
  8
型材断面
  6
Continuous
100
AcDbLine
 10
-60.434635
 20
58.03467
 30
0.0
 11
-63.425895
 21
58.03467
 31
0.0
  0
LINE
  5
1FA
330
1D
100
AcDbEntity
  8
型材断面
  6
Continuous
100
AcDbLine
 10
-81.227063
 20
37.814033
 30
0.0
 11
-83.81757
 21
39.309663
 31
0.0
  0
LINE
  5
1FB
330
1D
100
AcDbEntity
  8
型材断面
  6
Continuous
100
AcDbLine
 10
-81.227063
 20
37.814033
 30
0.0
 11
-83.81757
 21
36.318403
 31
0.0
  0
LINE
  5
1FC
330
1D
100
AcDbEntity
  8
型材断面
  6
Continuous
100
AcDbLine
 10
-83.81757
 20
36.318403
 30
0.0
 11
-83.81757
 21
39.309663
 31
0.0
  0
LINE
  5
1FD
330
1D
100
AcDbEntity
  8
型材断面
  6
Continuous
100
AcDbLine
 10
-61.930265
 20
20.183902
 30
0.0
 11
-63.425895
 21
17.593395
 31
0.0
  0
LINE
  5
1FE
330
1D
100
AcDbEntity
  8
型材断面
  6
Continuous
100
AcDbLine
 10
-61.930265
 20
20.183902
 30
0.0
 11
-60.434635
 21
17.593395
 31
0.0
  0
LINE
  5
1FF
330
1D
100
AcDbEntity
  8
型材断面
  6
Continuous
100
AcDbLine
 10
-60.434635
 20
17.593395
 30
0.0
 11
-63.425895
 21
17.593395
 31
0.0
  0
LINE
  5
200
330
1D
100
AcDbEntity
  8
型材断面
  6
Continuous
100
AcDbLine
 10
-132.475455
 20
97.32138000000001
 30
0.0
 11
-133.971085
 21
94.730873
 31
0.0
  0
LINE
  5
201
330
1D
100
AcDbEntity
  8
型材断面
  6
Continuous
100
AcDbLine
 10
-132.475455
 20
97.32138000000001
 30
0.0
 11
-130.979825
 21
94.730873
 31
0.0
  0
LINE
  5
202
330
1D
100
AcDbEntity
  8
型材断面
  6
Continuous
100
AcDbLine
 10
-130.979825
 20
94.730873
 30
0.0
 11
-133.971085
 21
94.730873
 31
0.0
  0
LINE
  5
203
330
1D
100
AcDbEntity
  8
型材断面
  6
Continuous
100
AcDbLine
 10
-138.498042
 20
93.792277
 30
0.0
 11
-92.256265
 21
93.792277
 31
0.0
  0
LINE
  5
204
330
1D
100
AcDbEntity
  8
型材断面
  6
Continuous
100
AcDbLine
 10
4.7364
 20
55.444162
 30
0.0
 11
6.23203
 21
58.03467
 31
0.0
  0
LINE
  5
205
330
1D
100
AcDbEntity
  8
型材断面
  6
Continuous
100
AcDbLine
 10
4.7364
 20
55.444162
 30
0.0
 11
3.24077
 21
58.03467
 31
0.0
  0
LINE
  5
206
330
1D
100
AcDbEntity
  8
型材断面
  6
Continuous
100
AcDbLine
 10
3.24077
 20
58.03467
 30
0.0
 11
6.23203
 21
58.03467
 31
0.0
  0
LINE
  5
207
330
1D
100
AcDbEntity
  8
型材断面
  6
Continuous
100
AcDbLine
 10
4.7364
 20
20.183902
 30
0.0
 11
6.23203
 21
17.593395
 31
0.0
  0
LINE
  5
208
330
1D
100
AcDbEntity
  8
型材断面
  6
Continuous
100
AcDbLine
 10
4.7364
 20
20.183902
 30
0.0
 11
3.24077
 21
17.593395
 31
0.0
  0
LINE
  5
209
330
1D
100
AcDbEntity
  8
型材断面
  6
Continuous
100
AcDbLine
 10
3.24077
 20
17.593395
 30
0.0
 11
6.23203
 21
17.593395
 31
0.0
  0
LINE
  5
20A
330
1D
100
AcDbEntity
  8
型材断面
  6
Continuous
100
AcDbLine
 10
-138.498042
 20
87.835802
 30
0.0
 11
-92.256265
 21
87.835802
 31
0.0
  0
LINE
  5
20B
330
1D
100
AcDbEntity
  8
型材断面
  6
Continuous
100
AcDbLine
 10
23.469735
 20
54.8807
 30
0.0
 11
24.569732
 21
55.980697
 31
0.0
  0
LINE
  5
20C
330
1D
100
AcDbEntity
  8
型材断面
  6
Continuous
100
AcDbLine
 10
24.569732
 20
55.980697
 30
0.0
 11
24.569732
 21
19.647367
 31
0.0
  0
LINE
  5
20D
330
1D
100
AcDbEntity
  8
型材断面
  6
Continuous
100
AcDbLine
 10
23.469735
 20
20.747365
 30
0.0
 11
24.569732
 21
19.647367
 31
0.0
  0
LINE
  5
20E
330
1D
100
AcDbEntity
  8
型材断面
  6
Continuous
100
AcDbLine
 10
24.569732
 20
19.647367
 30
0.0
 11
-81.763598
 21
19.647367
 31
0.0
  0
LINE
  5
20F
330
1D
100
AcDbEntity
  8
型材断面
  6
Continuous
100
AcDbLine
 10
-80.6636
 20
20.747365
 30
0.0
 11
-81.763598
 21
19.647367
 31
0.0
  0
LINE
  5
210
330
1D
100
AcDbEntity
  8
型材断面
  6
Continuous
100
AcDbLine
 10
-81.763598
 20
19.647367
 30
0.0
 11
-81.763598
 21
55.980697
 31
0.0
  0
LINE
  5
211
330
1D
100
AcDbEntity
  8
型材断面
  6
Continuous
100
AcDbLine
 10
24.569732
 20
55.980697
 30
0.0
 11
-81.763598
 21
55.980697
 31
0.0
  0
LINE
  5
212
330
1D
100
AcDbEntity
  8
型材断面
  6
Continuous
100
AcDbLine
 10
-80.6636
 20
54.8807
 30
0.0
 11
-81.763598
 21
55.980697
 31
0.0
  0
LINE
  5
213
330
1D
100
AcDbEntity
  8
型材断面
  6
DOT
100
AcDbLine
 10
-44.135822
 20
22.814033
 30
0.0
 11
-44.135822
 21
52.814033
 31
0.0
  0
LINE
  5
214
330
1D
100
AcDbEntity
  8
型材断面
  6
DOT
100
AcDbLine
 10
-46.635822
 20
22.814033
 30
0.0
 11
-46.635822
 21
52.814033
 31
0.0
  0
LINE
  5
215
330
1D
100
AcDbEntity
  8
型材断面
  6
DASHDOT
100
AcDbLine
 10
-45.385822
 20
22.814033
 30
0.0
 11
-45.385822
 21
52.814033
 31
0.0
  0
LINE
  5
216
330
1D
100
AcDbEntity
  8
型材断面
  6
DOT
100
AcDbLine
 10
-13.058043
 20
22.814033
 30
0.0
 11
-13.058043
 21
52.814033
 31
0.0
  0
LINE
  5
217
330
1D
100
AcDbEntity
  8
型材断面
  6
DOT
100
AcDbLine
 10
-10.558043
 20
22.814033
 30
0.0
 11
-10.558043
 21
52.814033
 31
0.0
  0
LINE
  5
218
330
1D
100
AcDbEntity
  8
型材断面
  6
DASHDOT
100
AcDbLine
 10
-11.808043
 20
22.814033
 30
0.0
 11
-11.808043
 21
52.814033
 31
0.0
  0
LINE
  5
219
330
1D
100
AcDbEntity
  8
型材断面
  6
Continuous
 62
    14
100
AcDbLine
 10
24.569732
 20
-74.043182
 30
0.0
 11
24.569732
 21
-73.543182
 31
0.0
  0
LINE
  5
21A
330
1D
100
AcDbEntity
  8
型材断面
  6
Continuous
100
AcDbLine
 10
22.736398
 20
-73.376518
 30
0.0
 11
24.569732
 21
-73.543182
 31
0.0
  0
LINE
  5
21B
330
1D
100
AcDbEntity
  8
型材断面
  6
Continuous
100
AcDbLine
 10
24.569732
 20
-73.543182
 30
0.0
 11
24.569732
 21
-74.043182
 31
0.0
  0
LINE
  5
21C
330
1D
100
AcDbEntity
  8
型材断面
  6
Continuous
100
AcDbLine
 10
23.736398
 20
-74.043182
 30
0.0
 11
23.736398
 21
-74.376518
 31
0.0
  0
LWPOLYLINE
  5
21D
330
1D
100
AcDbEntity
  8
型材断面
  6
Continuous
100
AcDbPolyline
 90
        3
 70
     0
 43
0.0
 10
22.60307
 20
-71.209613
 10
22.60307
 20
-71.55985
 10
22.736403
 20
-71.69318199999999
  0
LINE
  5
222
330
1D
100
AcDbEntity
  8
型材断面
  6
Continuous
100
AcDbLine
 10
22.736398
 20
-73.376518
 30
0.0
 11
22.736398
 21
-71.693178
 31
0.0
  0
LINE
  5
223
330
1D
100
AcDbEntity
  8
型材断面
  6
Continuous
 62
    14
100
AcDbLine
 10
-81.76358999999999
 20
-74.043182
 30
0.0
 11
-81.76358999999999
 21
-73.543182
 31
0.0
  0
LINE
  5
224
330
1D
100
AcDbEntity
  8
型材断面
  6
Continuous
100
AcDbLine
 10
-79.930255
 20
-73.376518
 30
0.0
 11
-81.76358999999999
 21
-73.543182
 31
0.0
  0
LINE
  5
225
330
1D
100
AcDbEntity
  8
型材断面
  6
Continuous
100
AcDbLine
 10
-81.76358999999999
 20
-73.543182
 30
0.0
 11
-81.76358999999999
 21
-74.043182
 31
0.0
  0
LINE
  5
226
330
1D
100
AcDbEntity
  8
型材断面
  6
Continuous
100
AcDbLine
 10
-80.930255
 20
-74.043182
 30
0.0
 11
-80.930255
 21
-74.376518
 31
0.0
  0
LWPOLYLINE
  5
227
330
1D
100
AcDbEntity
  8
型材断面
  6
Continuous
100
AcDbPolyline
 90
        3
 70
     0
 43
0.0
 10
-79.79692799999999
 20
-71.209613
 10
-79.79692799999999
 20
-71.55985
 10
-79.93026
 20
-71.69318199999999
  0
LINE
  5
22C
330
1D
100
AcDbEntity
  8
型材断面
  6
Continuous
100
AcDbLine
 10
-79.930255
 20
-73.376518
 30
0.0
 11
-79.930255
 21
-71.693178
 31
0.0
  0
LINE
  5
22D
330
1D
100
AcDbEntity
  8
型材断面
  6
Continuous
100
AcDbLine
 10
24.569732
 20
-73.543182
 30
0.0
 11
-81.76358999999999
 21
-73.543182
 31
0.0
  0
LINE
  5
22E
330
1D
100
AcDbEntity
  8
型材断面
  6
Continuous
100
AcDbLine
 10
24.569732
 20
-74.043182
 30
0.0
 11
-81.76358999999999
 21
-74.043182
 31
0.0
  0
LINE
  5
22F
330
1D
100
AcDbEntity
  8
型材断面
  6
Continuous
100
AcDbLine
 10
23.736398
 20
-74.376515
 30
0.0
 11
-80.930255
 21
-74.376515
 31
0.0
  0
LINE
  5
230
330
1D
100
AcDbEntity
  8
型材断面
  6
Continuous
100
AcDbLine
 10
22.736398
 20
-73.376518
 30
0.0
 11
-79.930255
 21
-73.376518
 31
0.0
  0
LINE
  5
231
330
1D
100
AcDbEntity
  8
型材断面
  6
Continuous
100
AcDbLine
 10
22.60307
 20
-71.55985
 30
0.0
 11
-79.79692799999999
 21
-71.55985
 31
0.0
  0
LINE
  5
232
330
1D
100
AcDbEntity
  8
型材断面
  6
Continuous
100
AcDbLine
 10
22.736403
 20
-71.69318199999999
 30
0.0
 11
-79.93026
 21
-71.69318199999999
 31
0.0
  0
LINE
  5
233
330
1D
100
AcDbEntity
  8
型材断面
  6
Continuous
 62
    14
100
AcDbLine
 10
114.769902
 20
55.980697
 30
0.0
 11
114.269902
 21
55.980697
 31
0.0
  0
LINE
  5
234
330
1D
100
AcDbEntity
  8
型材断面
  6
Continuous
100
AcDbLine
 10
114.103238
 20
54.147363
 30
0.0
 11
114.269902
 21
55.980697
 31
0.0
  0
LINE
  5
235
330
1D
100
AcDbEntity
  8
型材断面
  6
Continuous
100
AcDbLine
 10
114.269902
 20
55.980697
 30
0.0
 11
114.769902
 21
55.980697
 31
0.0
  0
LINE
  5
236
330
1D
100
AcDbEntity
  8
型材断面
  6
Continuous
100
AcDbLine
 10
114.769902
 20
55.147363
 30
0.0
 11
115.103238
 21
55.147363
 31
0.0
  0
LWPOLYLINE
  5
237
330
1D
100
AcDbEntity
  8
型材断面
  6
Continuous
100
AcDbPolyline
 90
        3
 70
     0
 43
0.0
 10
111.936333
 20
54.014035
 10
112.28657
 20
54.014035
 10
112.419902
 20
54.147367
  0
LINE
  5
23C
330
1D
100
AcDbEntity
  8
型材断面
  6
Continuous
100
AcDbLine
 10
114.103238
 20
54.147363
 30
0.0
 11
112.419897
 21
54.147363
 31
0.0
  0
LINE
  5
23D
330
1D
100
AcDbEntity
  8
型材断面
  6
Continuous
 62
    14
100
AcDbLine
 10
114.769902
 20
19.647375
 30
0.0
 11
114.269902
 21
19.647375
 31
0.0
  0
LINE
  5
23E
330
1D
100
AcDbEntity
  8
型材断面
  6
Continuous
100
AcDbLine
 10
114.103238
 20
21.48071
 30
0.0
 11
114.269902
 21
19.647375
 31
0.0
  0
LINE
  5
23F
330
1D
100
AcDbEntity
  8
型材断面
  6
Continuous
100
AcDbLine
 10
114.269902
 20
19.647375
 30
0.0
 11
114.769902
 21
19.647375
 31
0.0
  0
LINE
  5
240
330
1D
100
AcDbEntity
  8
型材断面
  6
Continuous
100
AcDbLine
 10
114.769902
 20
20.48071
 30
0.0
 11
115.103238
 21
20.48071
 31
0.0
  0
LWPOLYLINE
  5
241
330
1D
100
AcDbEntity
  8
型材断面
  6
Continuous
100
AcDbPolyline
 90
        3
 70
     0
 43
0.0
 10
111.936333
 20
21.614038
 10
112.28657
 20
21.614038
 10
112.419902
 20
21.480705
  0
LINE
  5
246
330
1D
100
AcDbEntity
  8
型材断面
  6
Continuous
100
AcDbLine
 10
114.103238
 20
21.48071
 30
0.0
 11
112.419897
 21
21.48071
 31
0.0
  0
LINE
  5
247
330
1D
100
AcDbEntity
  8
型材断面
  6
Continuous
100
AcDbLine
 10
114.269902
 20
55.980697
 30
0.0
 11
114.269902
 21
19.647375
 31
0.0
  0
LINE
  5
248
330
1D
100
AcDbEntity
  8
型材断面
  6
Continuous
100
AcDbLine
 10
114.769902
 20
55.980697
 30
0.0
 11
114.769902
 21
19.647375
 31
0.0
  0
LINE
  5
249
330
1D
100
AcDbEntity
  8
型材断面
  6
Continuous
100
AcDbLine
 10
115.103235
 20
55.147363
 30
0.0
 11
115.103235
 21
20.48071
 31
0.0
  0
LINE
  5
24A
330
1D
100
AcDbEntity
  8
型材断面
  6
Continuous
100
AcDbLine
 10
114.103238
 20
54.147363
 30
0.0
 11
114.103238
 21
21.48071
 31
0.0
  0
LINE
  5
24B
330
1D
100
AcDbEntity
  8
型材断面
  6
Continuous
100
AcDbLine
 10
112.28657
 20
54.014035
 30
0.0
 11
112.28657
 21
21.614038
 31
0.0
  0
LINE
  5
24C
330
1D
100
AcDbEntity
  8
型材断面
  6
Continuous
100
AcDbLine
 10
112.419902
 20
54.147367
 30
0.0
 11
112.419902
 21
21.480705
 31
0.0
  0
TEXT
  5
24D
330
1D
100
AcDbEntity
  8
文字
  6
Continuous
100
AcDbText
 10
-129.675
 20
94.925
 30
0.0
 40
3.0
  1
は排水穴位置を示す
  7
TextStyle03
 72
     5
 11
-99.675
 21
94.925
 31
0.0
100
AcDbText
  0
TEXT
  5
24E
330
1D
100
AcDbEntity
  8
文字
  6
Continuous
100
AcDbText
 10
137.0
 20
-72.77500000000001
 30
0.0
 40
3.0
  1
網入り6.8t
  7
TextStyle03
 72
     5
 11
153.6875
 21
-72.77500000000001
 31
0.0
100
AcDbText
  0
TEXT
  5
24F
330
1D
100
AcDbEntity
  8
文字
  6
Continuous
100
AcDbText
 10
143.675
 20
-77.45
 30
0.0
 40
3.0
  1
×３枚
  7
TextStyle03
 72
     5
 11
153.425
 21
-77.45
 31
0.0
100
AcDbText
  0
TEXT
  5
250
330
1D
100
AcDbEntity
  8
文字
  6
Continuous
100
AcDbText
 10
-99.575
 20
16.275
 30
0.0
 40
3.0
  1
アンカーピッチ
 50
90.0
  7
TextStyle03
 72
     5
 11
-99.575
 21
39.525
 31
0.0
100
AcDbText
  0
TEXT
  5
251
330
1D
100
AcDbEntity
  8
文字
  6
Continuous
100
AcDbText
 10
-68.65000000000001
 20
90.2
 30
0.0
 40
3.0
  1
アンカーピッチ
  7
TextStyle03
 72
     5
 11
-45.4
 21
90.2
 31
0.0
100
AcDbText
  0
TEXT
  5
252
330
1D
100
AcDbEntity
  8
文字
  6
Continuous
100
AcDbText
 10
-133.4
 20
88.75
 30
0.0
 40
3.0
  1
アンカー数量　１２ヶ所
  7
TextStyle03
 72
     5
 11
-96.65000000000001
 21
88.75
 31
0.0
100
AcDbText
  0
TEXT
  5
253
330
1D
100
AcDbEntity
  8
文字
  6
Continuous
100
AcDbText
 10
77.65000000000001
 20
104.325
 30
0.0
 40
5.0
  1
ＮＳコード：ＮＳＫＬ
  7
TextStyle03
 72
     5
 11
133.275
 21
104.325
 31
0.0
100
AcDbText
  0
TEXT
  5
254
330
1D
100
AcDbEntity
  8
文字
  6
Continuous
100
AcDbText
 10
78.09999999999999
 20
125.25
 30
0.0
 40
5.0
  1
シリーズ：ＴＤ１ＫＬ
  7
TextStyle03
 72
     5
 11
133.725
 21
125.25
 31
0.0
100
AcDbText
  0
TEXT
  5
255
330
1D
100
AcDbEntity
  8
文字
  6
Continuous
100
AcDbText
 10
78.09999999999999
 20
119.625
 30
0.0
 40
5.0
  1
　　　　　（固定）900×3000タイプ
  7
TextStyle03
 72
     5
 11
170.2875
 21
119.625
 31
0.0
100
AcDbText
  0
TEXT
  5
256
330
1D
100
AcDbEntity
  8
文字
  6
Continuous
100
AcDbText
 10
78.09999999999999
 20
114.0
 30
0.0
 40
5.0
  1
図面名　：外観姿図
  7
TextStyle03
 72
     5
 11
128.1
 21
114.0
 31
0.0
100
AcDbText
  0
TEXT
  5
257
330
1D
100
AcDbEntity
  8
文字
  6
Continuous
100
AcDbText
 10
78.09999999999999
 20
108.375
 30
0.0
 40
5.0
  1
　　　　　　
  7
TextStyle03
 72
     5
 11
111.225
 21
108.375
 31
0.0
100
AcDbText
  0
INSERT
  5
258
330
1D
100
AcDbEntity
  8
寸法
  6
Continuous
100
AcDbBlockReference
  2
*U1
 10
0.0
 20
0.0
 30
0.0
  0
INSERT
  5
259
330
1D
100
AcDbEntity
  8
寸法
  6
Continuous
100
AcDbBlockReference
  2
*U2
 10
0.0
 20
0.0
 30
0.0
  0
INSERT
  5
25A
330
1D
100
AcDbEntity
  8
寸法
  6
Continuous
100
AcDbBlockReference
  2
*U4
 10
0.0
 20
0.0
 30
0.0
  0
INSERT
  5
25B
330
1D
100
AcDbEntity
  8
寸法
  6
Continuous
100
AcDbBlockReference
  2
*U5
 10
0.0
 20
0.0
 30
0.0
  0
INSERT
  5
25C
330
1D
100
AcDbEntity
  8
寸法
  6
Continuous
100
AcDbBlockReference
  2
*U6
 10
0.0
 20
0.0
 30
0.0
  0
INSERT
  5
25D
330
1D
100
AcDbEntity
  8
寸法
  6
Continuous
100
AcDbBlockReference
  2
*U7
 10
0.0
 20
0.0
 30
0.0
  0
INSERT
  5
25E
330
1D
100
AcDbEntity
  8
寸法
  6
Continuous
100
AcDbBlockReference
  2
*U8
 10
0.0
 20
0.0
 30
0.0
  0
INSERT
  5
25F
330
1D
100
AcDbEntity
  8
寸法
  6
Continuous
100
AcDbBlockReference
  2
*U9
 10
0.0
 20
0.0
 30
0.0
  0
INSERT
  5
260
330
1D
100
AcDbEntity
  8
寸法
  6
Continuous
100
AcDbBlockReference
  2
*U10
 10
0.0
 20
0.0
 30
0.0
  0
INSERT
  5
261
330
1D
100
AcDbEntity
  8
寸法
  6
Continuous
100
AcDbBlockReference
  2
*U11
 10
0.0
 20
0.0
 30
0.0
  0
INSERT
  5
262
330
1D
100
AcDbEntity
  8
寸法
  6
Continuous
100
AcDbBlockReference
  2
*U12
 10
0.0
 20
0.0
 30
0.0
  0
INSERT
  5
263
330
1D
100
AcDbEntity
  8
寸法
  6
Continuous
100
AcDbBlockReference
  2
*U13
 10
0.0
 20
0.0
 30
0.0
  0
INSERT
  5
264
330
1D
100
AcDbEntity
  8
寸法
  6
Continuous
100
AcDbBlockReference
  2
*U14
 10
0.0
 20
0.0
 30
0.0
  0
INSERT
  5
265
330
1D
100
AcDbEntity
  8
寸法
  6
Continuous
100
AcDbBlockReference
  2
*U15
 10
0.0
 20
0.0
 30
0.0
  0
INSERT
  5
266
330
1D
100
AcDbEntity
  8
寸法
  6
Continuous
100
AcDbBlockReference
  2
*U16
 10
0.0
 20
0.0
 30
0.0
  0
INSERT
  5
267
330
1D
100
AcDbEntity
  8
寸法
  6
Continuous
100
AcDbBlockReference
  2
*U17
 10
0.0
 20
0.0
 30
0.0
  0
INSERT
  5
268
330
1D
100
AcDbEntity
  8
寸法
  6
Continuous
100
AcDbBlockReference
  2
*U18
 10
0.0
 20
0.0
 30
0.0
  0
LINE
  5
269
330
1D
100
AcDbEntity
  8
別途部材
  6
Continuous
100
AcDbLine
 10
23.469735
 20
20.747365
 30
0.0
 11
23.069735
 21
21.147365
 31
0.0
  0
LINE
  5
26A
330
1D
100
AcDbEntity
  8
別途部材
  6
Continuous
100
AcDbLine
 10
21.403067
 20
22.814033
 30
0.0
 11
13.343813
 21
30.87329
 31
0.0
  0
LINE
  5
26B
330
1D
100
AcDbEntity
  8
別途部材
  6
Continuous
 62
    96
100
AcDbLine
 10
110.936333
 20
21.147365
 30
0.0
 11
111.936333
 21
20.747365
 31
0.0
  0
LINE
  5
26C
330
1D
100
AcDbEntity
  8
別途部材
  6
Continuous
100
AcDbLine
 10
23.069735
 20
21.147365
 30
0.0
 11
23.069735
 21
37.814033
 31
0.0
  0
LINE
  5
26D
330
1D
100
AcDbEntity
  8
別途部材
  6
Continuous
100
AcDbLine
 10
23.469735
 20
20.747365
 30
0.0
 11
23.469735
 21
37.814033
 31
0.0
  0
LINE
  5
26E
330
1D
100
AcDbEntity
  8
別途部材
  6
Continuous
100
AcDbLine
 10
23.469735
 20
54.8807
 30
0.0
 11
23.069735
 21
54.4807
 31
0.0
  0
LINE
  5
26F
330
1D
100
AcDbEntity
  8
別途部材
  6
Continuous
100
AcDbLine
 10
21.403067
 20
52.814033
 30
0.0
 11
13.343813
 21
44.754775
 31
0.0
  0
LINE
  5
270
330
1D
100
AcDbEntity
  8
別途部材
  6
Continuous
100
AcDbLine
 10
23.069735
 20
54.4807
 30
0.0
 11
23.069735
 21
37.814033
 31
0.0
  0
LINE
  5
271
330
1D
100
AcDbEntity
  8
別途部材
  6
Continuous
100
AcDbLine
 10
23.469735
 20
54.8807
 30
0.0
 11
23.469735
 21
37.814033
 31
0.0
  0
LINE
  5
272
330
1D
100
AcDbEntity
  8
別途部材
  6
Continuous
 62
    96
100
AcDbLine
 10
110.936333
 20
21.147365
 30
0.0
 11
110.936333
 21
37.814033
 31
0.0
  0
LINE
  5
273
330
1D
100
AcDbEntity
  8
別途部材
  6
Continuous
100
AcDbLine
 10
111.936333
 20
20.747365
 30
0.0
 11
111.936333
 21
37.814033
 31
0.0
  0
LINE
  5
274
330
1D
100
AcDbEntity
  8
別途部材
  6
Continuous
 62
    96
100
AcDbLine
 10
110.936333
 20
54.4807
 30
0.0
 11
111.936333
 21
54.8807
 31
0.0
  0
LINE
  5
275
330
1D
100
AcDbEntity
  8
別途部材
  6
Continuous
 62
    96
100
AcDbLine
 10
110.936333
 20
54.4807
 30
0.0
 11
110.936333
 21
37.814033
 31
0.0
  0
LINE
  5
276
330
1D
100
AcDbEntity
  8
別途部材
  6
Continuous
100
AcDbLine
 10
111.936333
 20
54.8807
 30
0.0
 11
111.936333
 21
37.814033
 31
0.0
  0
ARC
  5
277
330
1D
100
AcDbEntity
  8
別途部材
  6
Continuous
100
AcDbCircle
 10
120.269665
 20
37.814033
 30
0.0
 40
17.666667
100
AcDbArc
 50
121.890796
 51
238.109204
  0
LINE
  5
278
330
1D
100
AcDbEntity
  8
別途部材
  6
Continuous
100
AcDbLine
 10
23.069735
 20
54.4807
 30
0.0
 11
-28.596933
 21
54.4807
 31
0.0
  0
LINE
  5
279
330
1D
100
AcDbEntity
  8
別途部材
  6
Continuous
100
AcDbLine
 10
23.469735
 20
54.8807
 30
0.0
 11
-28.596933
 21
54.8807
 31
0.0
  0
LINE
  5
27A
330
1D
100
AcDbEntity
  8
別途部材
  6
Continuous
100
AcDbLine
 10
23.069735
 20
21.147365
 30
0.0
 11
-28.596933
 21
21.147365
 31
0.0
  0
LINE
  5
27B
330
1D
100
AcDbEntity
  8
別途部材
  6
Continuous
100
AcDbLine
 10
23.469735
 20
20.747365
 30
0.0
 11
-28.596933
 21
20.747365
 31
0.0
  0
LINE
  5
27C
330
1D
100
AcDbEntity
  8
別途部材
  6
Continuous
100
AcDbLine
 10
-80.6636
 20
20.747365
 30
0.0
 11
-80.2636
 21
21.147365
 31
0.0
  0
LINE
  5
27D
330
1D
100
AcDbEntity
  8
別途部材
  6
Continuous
100
AcDbLine
 10
-78.59693300000001
 20
22.814033
 30
0.0
 11
-70.537677
 21
30.87329
 31
0.0
  0
LINE
  5
27E
330
1D
100
AcDbEntity
  8
別途部材
  6
Continuous
100
AcDbLine
 10
-80.2636
 20
21.147365
 30
0.0
 11
-80.2636
 21
37.814033
 31
0.0
  0
LINE
  5
27F
330
1D
100
AcDbEntity
  8
別途部材
  6
Continuous
100
AcDbLine
 10
-80.6636
 20
20.747365
 30
0.0
 11
-80.6636
 21
37.814033
 31
0.0
  0
LINE
  5
280
330
1D
100
AcDbEntity
  8
別途部材
  6
Continuous
100
AcDbLine
 10
-80.6636
 20
54.8807
 30
0.0
 11
-80.2636
 21
54.4807
 31
0.0
  0
LINE
  5
281
330
1D
100
AcDbEntity
  8
別途部材
  6
Continuous
100
AcDbLine
 10
-78.59693300000001
 20
52.814033
 30
0.0
 11
-70.537677
 21
44.754775
 31
0.0
  0
LINE
  5
282
330
1D
100
AcDbEntity
  8
別途部材
  6
Continuous
100
AcDbLine
 10
-80.2636
 20
54.4807
 30
0.0
 11
-80.2636
 21
37.814033
 31
0.0
  0
LINE
  5
283
330
1D
100
AcDbEntity
  8
別途部材
  6
Continuous
100
AcDbLine
 10
-80.6636
 20
54.8807
 30
0.0
 11
-80.6636
 21
37.814033
 31
0.0
  0
LINE
  5
284
330
1D
100
AcDbEntity
  8
別途部材
  6
Continuous
100
AcDbLine
 10
-80.2636
 20
54.4807
 30
0.0
 11
-28.596933
 21
54.4807
 31
0.0
  0
LINE
  5
285
330
1D
100
AcDbEntity
  8
別途部材
  6
Continuous
100
AcDbLine
 10
-80.6636
 20
54.8807
 30
0.0
 11
-28.596933
 21
54.8807
 31
0.0
  0
LINE
  5
286
330
1D
100
AcDbEntity
  8
別途部材
  6
Continuous
100
AcDbLine
 10
-80.2636
 20
21.147365
 30
0.0
 11
-28.596933
 21
21.147365
 31
0.0
  0
LINE
  5
287
330
1D
100
AcDbEntity
  8
別途部材
  6
Continuous
100
AcDbLine
 10
-80.6636
 20
20.747365
 30
0.0
 11
-28.596933
 21
20.747365
 31
0.0
  0
INSERT
  5
288
330
1D
100
AcDbEntity
  8
別途部材
  6
Continuous
100
AcDbBlockReference
  2
*U3
 10
0.0
 20
0.0
 30
0.0
  0
INSERT
  5
289
330
1D
100
AcDbEntity
  8
別途部材
  6
DOT
100
AcDbBlockReference
  2
*U19
 10
0.0
 20
0.0
 30
0.0
  0
INSERT
  5
28A
330
1D
100
AcDbEntity
  8
別途部材
  6
DOT
100
AcDbBlockReference
  2
*U20
 10
0.0
 20
0.0
 30
0.0
  0
INSERT
  5
28B
330
1D
100
AcDbEntity
  8
別途部材
  6
DOT
100
AcDbBlockReference
  2
*U21
 10
0.0
 20
0.0
 30
0.0
  0
INSERT
  5
28C
330
1D
100
AcDbEntity
  8
別途部材
  6
DOT
100
AcDbBlockReference
  2
*U22
 10
0.0
 20
0.0
 30
0.0
  0
LINE
  5
28D
330
1D
100
AcDbEntity
  8
曲げ物
  6
Continuous
100
AcDbLine
 10
155.537835
 20
-79.20038
 30
0.0
 11
155.537835
 21
-49.533713
 31
0.0
  0
LINE
  5
28E
330
1D
100
AcDbEntity
  8
曲げ物
  6
Continuous
100
AcDbLine
 10
155.537835
 20
-49.533713
 30
0.0
 11
123.026835
 21
-49.533713
 31
0.0
  0
LINE
  5
28F
330
1D
100
AcDbEntity
  8
曲げ物
  6
Continuous
100
AcDbLine
 10
155.537835
 20
-79.20038
 30
0.0
 11
123.026835
 21
-79.20038
 31
0.0
  0
LINE
  5
290
330
1D
100
AcDbEntity
  8
曲げ物
  6
Continuous
100
AcDbLine
 10
123.026835
 20
-49.533713
 30
0.0
 11
123.026835
 21
-79.20038
 31
0.0
  0
ENDSEC
  0
SECTION
  2
OBJECTS
  0
DICTIONARY
  5
C
330
0
100
AcDbDictionary
281
     1
  3
ACAD_GROUP
350
D
  3
ACAD_LAYOUT
350
1A
  3
ACAD_MLINESTYLE
350
17
  3
ACAD_PLOTSETTINGS
350
19
  3
ACAD_PLOTSTYLENAME
350
E
  0
DICTIONARY
  5
D
102
{ACAD_REACTORS
330
C
102
}
330
C
100
AcDbDictionary
281
     1
  0
DICTIONARY
  5
1A
102
{ACAD_REACTORS
330
C
102
}
330
C
100
AcDbDictionary
281
     1
  3
Layout1
350
1C
  3
Model
350
1E
  0
DICTIONARY
  5
17
102
{ACAD_REACTORS
330
C
102
}
330
C
100
AcDbDictionary
281
     1
  3
Standard
350
18
  0
DICTIONARY
  5
19
102
{ACAD_REACTORS
330
C
102
}
330
C
100
AcDbDictionary
281
     1
  0
ACDBDICTIONARYWDFLT
  5
E
102
{ACAD_REACTORS
330
C
102
}
330
C
100
AcDbDictionary
281
     1
  3
Normal
350
F
100
AcDbDictionaryWithDefault
340
F
  0
LAYOUT
  5
1C
102
{ACAD_REACTORS
330
1A
102
}
330
1A
100
AcDbPlotSettings
  1

  2

  4

  6

 40
0.0
 41
0.0
 42
0.0
 43
0.0
 44
0.0
 45
0.0
 46
0.0
 47
0.0
 48
0.0
 49
0.0
140
0.0
141
0.0
142
1.0
143
1.0
 70
   688
 72
     0
 73
     0
 74
     5
  7

 75
    16
 76
     0
 77
     2
 78
   300
147
1.0
148
0.0
149
0.0
100
AcDbLayout
  1
Layout1
 70
     1
 71
     1
 10
0.0
 20
0.0
 11
12.0
 21
9.0
 12
0.0
 22
0.0
 32
0.0
 14
1.000000000000000E+20
 24
1.000000000000000E+20
 34
1.000000000000000E+20
 15
-1.000000000000000E+20
 25
-1.000000000000000E+20
 35
-1.000000000000000E+20
146
0.0
 13
0.0
 23
0.0
 33
0.0
 16
1.0
 26
0.0
 36
0.0
 17
0.0
 27
1.0
 37
0.0
 76
     0
330
1B
  0
LAYOUT
  5
1E
102
{ACAD_REACTORS
330
1A
102
}
330
1A
100
AcDbPlotSettings
  1

  2

  4

  6

 40
0.0
 41
0.0
 42
0.0
 43
0.0
 44
0.0
 45
0.0
 46
0.0
 47
0.0
 48
0.0
 49
0.0
140
0.0
141
0.0
142
1.0
143
1.0
 70
  1712
 72
     0
 73
     0
 74
     0
  7

 75
     0
 76
     0
 77
     2
 78
   300
147
1.0
148
0.0
149
0.0
100
AcDbLayout
  1
Model
 70
     1
 71
     0
 10
0.0
 20
0.0
 11
0.0
 21
0.0
 12
0.0
 22
0.0
 32
0.0
 14
-210.0
 24
-148.5
 34
0.0
 15
210.0
 25
148.5
 35
0.0
146
0.0
 13
0.0
 23
0.0
 33
0.0
 16
1.0
 26
0.0
 36
0.0
 17
0.0
 27
1.0
 37
0.0
 76
     0
330
1D
  0
MLINESTYLE
  5
18
102
{ACAD_REACTORS
330
17
102
}
330
17
100
AcDbMlineStyle
  2
Standard
 70
     0
  3

 62
   256
 51
90.0
 52
90.0
 71
     2
 49
0.5
 62
   256
  6
BYLAYER
 49
-0.5
 62
   256
  6
BYLAYER
  0
ACDBPLACEHOLDER
  5
F
102
{ACAD_REACTORS
330
E
102
}
330
E
  0
ENDSEC
  0
EOF
