  0
SECTION
  2
HEADER
  9
$ACADVER
  1
AC1018
  9
$ACADMAINTVER
 70
     0
  9
$DWGCODEPAGE
  3
ANSI_932
  9
$INSBASE
 10
0.0
 20
0.0
 30
0.0
  9
$EXTMIN
 10
-210.0
 20
-148.5
 30
0.0
  9
$EXTMAX
 10
210.0
 20
148.5
 30
0.0
  9
$LIMMIN
 10
0.0
 20
0.0
  9
$LIMMAX
 10
12.0
 20
9.0
  9
$ORTHOMODE
 70
     0
  9
$REGENMODE
 70
     1
  9
$FILLMODE
 70
     1
  9
$QTEXTMODE
 70
     0
  9
$MIRRTEXT
 70
     1
  9
$LTSCALE
 40
10.0
  9
$ATTMODE
 70
     1
  9
$TEXTSIZE
 40
0.2
  9
$TRACEWID
 40
0.05
  9
$TEXTSTYLE
  7
STANDARD
  9
$CLAYER
  8
0
  9
$CELTYPE
  6
ByBlock
  9
$CECOLOR
 62
   256
  9
$CELTSCALE
 40
1.0
  9
$DISPSILH
 70
     0
  9
$DIMSCALE
 40
1.0
  9
$DIMASZ
 40
0.18
  9
$DIMEXO
 40
0.0625
  9
$DIMDLI
 40
0.38
  9
$DIMRND
 40
0.0
  9
$DIMDLE
 40
0.0
  9
$DIMEXE
 40
0.18
  9
$DIMTP
 40
0.0
  9
$DIMTM
 40
0.0
  9
$DIMTXT
 40
0.18
  9
$DIMCEN
 40
0.09
  9
$DIMTSZ
 40
0.0
  9
$DIMTOL
 70
     0
  9
$DIMLIM
 70
     0
  9
$DIMTIH
 70
     1
  9
$DIMTOH
 70
     1
  9
$DIMSE1
 70
     0
  9
$DIMSE2
 70
     0
  9
$DIMTAD
 70
     0
  9
$DIMZIN
 70
     0
  9
$DIMBLK
  1

  9
$DIMASO
 70
     1
  9
$DIMSHO
 70
     1
  9
$DIMPOST
  1

  9
$DIMAPOST
  1

  9
$DIMALT
 70
     0
  9
$DIMALTD
 70
     2
  9
$DIMALTF
 40
25.4
  9
$DIMLFAC
 40
1.0
  9
$DIMTOFL
 70
     0
  9
$DIMTVP
 40
0.0
  9
$DIMTIX
 70
     0
  9
$DIMSOXD
 70
     0
  9
$DIMSAH
 70
     0
  9
$DIMBLK1
  1

  9
$DIMBLK2
  1

  9
$DIMSTYLE
  2
Standard
  9
$DIMCLRD
 70
     0
  9
$DIMCLRE
 70
     0
  9
$DIMCLRT
 70
     0
  9
$DIMTFAC
 40
1.0
  9
$DIMGAP
 40
0.09
  9
$DIMJUST
 70
     0
  9
$DIMSD1
 70
     0
  9
$DIMSD2
 70
     0
  9
$DIMTOLJ
 70
     1
  9
$DIMTZIN
 70
     0
  9
$DIMALTZ
 70
     0
  9
$DIMALTTZ
 70
     0
  9
$DIMUPT
 70
     0
  9
$DIMDEC
 70
     4
  9
$DIMTDEC
 70
     4
  9
$DIMALTU
 70
     2
  9
$DIMALTTD
 70
     2
  9
$DIMTXSTY
  7
STANDARD
  9
$DIMAUNIT
 70
     0
  9
$DIMADEC
 70
     0
  9
$DIMALTRND
 40
0.0
  9
$DIMAZIN
 70
     0
  9
$DIMDSEP
 70
    46
  9
$DIMATFIT
 70
     3
  9
$DIMFRAC
 70
     0
  9
$DIMLDRBLK
  1

  9
$DIMLUNIT
 70
     2
  9
$DIMLWD
 70
    -2
  9
$DIMLWE
 70
    -2
  9
$DIMTMOVE
 70
     0
  9
$LUNITS
 70
     2
  9
$LUPREC
 70
     4
  9
$SKETCHINC
 40
0.1
  9
$FILLETRAD
 40
0.5
  9
$AUNITS
 70
     0
  9
$AUPREC
 70
     0
  9
$MENU
  1
.
  9
$ELEVATION
 40
0.0
  9
$PELEVATION
 40
0.0
  9
$THICKNESS
 40
0.0
  9
$LIMCHECK
 70
     0
  9
$CHAMFERA
 40
0.5
  9
$CHAMFERB
 40
0.5
  9
$CHAMFERC
 40
1.0
  9
$CHAMFERD
 40
0.0
  9
$SKPOLY
 70
     0
  9
$TDCREATE
 40
2460242.409785521
  9
$TDUCREATE
 40
2460242.034785521
  9
$TDUPDATE
 40
2460242.409785532
  9
$TDUUPDATE
 40
2460242.034785532
  9
$TDINDWG
 40
0.0000000116
  9
$TDUSRTIMER
 40
0.0000000116
  9
$USRTIMER
 70
     1
  9
$ANGBASE
 50
0.0
  9
$ANGDIR
 70
     0
  9
$PDMODE
 70
    32
  9
$PDSIZE
 40
1.5
  9
$PLINEWID
 40
0.0
  9
$SPLFRAME
 70
     0
  9
$SPLINETYPE
 70
     6
  9
$SPLINESEGS
 70
     8
  9
$HANDSEED
  5
3A6
  9
$SURFTAB1
 70
     6
  9
$SURFTAB2
 70
     6
  9
$SURFTYPE
 70
     6
  9
$SURFU
 70
     6
  9
$SURFV
 70
     6
  9
$UCSBASE
  2

  9
$UCSNAME
  2

  9
$UCSORG
 10
0.0
 20
0.0
 30
0.0
  9
$UCSXDIR
 10
1.0
 20
0.0
 30
0.0
  9
$UCSYDIR
 10
0.0
 20
1.0
 30
0.0
  9
$UCSORTHOREF
  2

  9
$UCSORTHOVIEW
 70
     0
  9
$UCSORGTOP
 10
0.0
 20
0.0
 30
0.0
  9
$UCSORGBOTTOM
 10
0.0
 20
0.0
 30
0.0
  9
$UCSORGLEFT
 10
0.0
 20
0.0
 30
0.0
  9
$UCSORGRIGHT
 10
0.0
 20
0.0
 30
0.0
  9
$UCSORGFRONT
 10
0.0
 20
0.0
 30
0.0
  9
$UCSORGBACK
 10
0.0
 20
0.0
 30
0.0
  9
$PUCSBASE
  2

  9
$PUCSNAME
  2

  9
$PUCSORG
 10
0.0
 20
0.0
 30
0.0
  9
$PUCSXDIR
 10
1.0
 20
0.0
 30
0.0
  9
$PUCSYDIR
 10
0.0
 20
1.0
 30
0.0
  9
$PUCSORTHOREF
  2

  9
$PUCSORTHOVIEW
 70
     0
  9
$PUCSORGTOP
 10
0.0
 20
0.0
 30
0.0
  9
$PUCSORGBOTTOM
 10
0.0
 20
0.0
 30
0.0
  9
$PUCSORGLEFT
 10
0.0
 20
0.0
 30
0.0
  9
$PUCSORGRIGHT
 10
0.0
 20
0.0
 30
0.0
  9
$PUCSORGFRONT
 10
0.0
 20
0.0
 30
0.0
  9
$PUCSORGBACK
 10
0.0
 20
0.0
 30
0.0
  9
$USERI1
 70
     0
  9
$USERI2
 70
     0
  9
$USERI3
 70
     0
  9
$USERI4
 70
     0
  9
$USERI5
 70
     0
  9
$USERR1
 40
0.0
  9
$USERR2
 40
0.0
  9
$USERR3
 40
0.0
  9
$USERR4
 40
0.0
  9
$USERR5
 40
0.0
  9
$WORLDVIEW
 70
     1
  9
$SHADEDGE
 70
     3
  9
$SHADEDIF
 70
    70
  9
$TILEMODE
 70
     1
  9
$MAXACTVP
 70
    64
  9
$PINSBASE
 10
0.0
 20
0.0
 30
0.0
  9
$PLIMCHECK
 70
     0
  9
$PEXTMIN
 10
1.000000000000000E+20
 20
1.000000000000000E+20
 30
1.000000000000000E+20
  9
$PEXTMAX
 10
-1.000000000000000E+20
 20
-1.000000000000000E+20
 30
-1.000000000000000E+20
  9
$PLIMMIN
 10
0.0
 20
0.0
  9
$PLIMMAX
 10
12.0
 20
9.0
  9
$UNITMODE
 70
     0
  9
$VISRETAIN
 70
     1
  9
$PLINEGEN
 70
     0
  9
$PSLTSCALE
 70
     1
  9
$TREEDEPTH
 70
  3020
  9
$CMLSTYLE
  2
Standard
  9
$CMLJUST
 70
     0
  9
$CMLSCALE
 40
1.0
  9
$PROXYGRAPHICS
 70
     1
  9
$MEASUREMENT
 70
     0
  9
$CELWEIGHT
370
    -1
  9
$ENDCAPS
280
     0
  9
$JOINSTYLE
280
     0
  9
$LWDISPLAY
290
     0
  9
$INSUNITS
 70
     0
  9
$HYPERLINKBASE
  1

  9
$STYLESHEET
  1

  9
$XEDIT
290
     1
  9
$CEPSNTYPE
380
     0
  9
$PSTYLEMODE
290
     1
  9
$FINGERPRINTGUID
  2
{40DED91C-BE41-4D19-A89E-870539415AEC}
  9
$VERSIONGUID
  2
{FAEB1C32-E019-11D5-929B-00C0DF256EC4}
  9
$EXTNAMES
290
     1
  9
$PSVPSCALE
 40
0.0
  9
$OLESTARTUP
290
     0
  9
$SORTENTS
280
   127
  9
$INDEXCTL
280
     0
  9
$HIDETEXT
280
     1
  9
$XCLIPFRAME
290
     0
  9
$HALOGAP
280
     0
  9
$OBSCOLOR
 70
   257
  9
$OBSLTYPE
280
     0
  9
$INTERSECTIONDISPLAY
280
     0
  9
$INTERSECTIONCOLOR
 70
   257
  9
$DIMASSOC
280
     2
  9
$PROJECTNAME
  1

  0
ENDSEC
  0
SECTION
  2
CLASSES
  0
CLASS
  1
ACDBDICTIONARYWDFLT
  2
AcDbDictionaryWithDefault
  3
ObjectDBX Classes
 90
        0
 91
        3
280
     0
281
     0
  0
ENDSEC
  0
SECTION
  2
TABLES
  0
TABLE
  2
VPORT
  5
8
330
0
100
AcDbSymbolTable
 70
     1
  0
VPORT
  5
3A1
330
8
100
AcDbSymbolTableRecord
100
AcDbViewportTableRecord
  2
*Active
 70
     0
 10
0.0
 20
0.0
 11
1.0
 21
1.0
 12
10.42990654205607
 22
4.5
 13
0.0
 23
0.0
 14
0.5
 24
0.5
 15
0.5
 25
0.5
 16
0.0
 26
0.0
 36
1.0
 17
0.0
 27
0.0
 37
0.0
 40
9.0
 41
1.972972972850329
 42
50.0
 43
0.0
 44
0.0
 50
0.0
 51
0.0
 71
     0
 72
   100
 73
     1
 74
     3
 75
     0
 76
     0
 77
     0
 78
     0
281
     0
 65
     1
110
0.0
120
0.0
130
0.0
111
1.0
121
0.0
131
0.0
112
0.0
122
1.0
132
0.0
 79
     0
146
0.0
  0
ENDTAB
  0
TABLE
  2
LTYPE
  5
5
330
0
100
AcDbSymbolTable
 70
     9
  0
LTYPE
  5
14
330
5
100
AcDbSymbolTableRecord
100
AcDbLinetypeTableRecord
  2
ByBlock
 70
     0
  3

 72
    65
 73
     0
 40
0.0
  0
LTYPE
  5
15
330
5
100
AcDbSymbolTableRecord
100
AcDbLinetypeTableRecord
  2
ByLayer
 70
     0
  3

 72
    65
 73
     0
 40
0.0
  0
LTYPE
  5
16
330
5
100
AcDbSymbolTableRecord
100
AcDbLinetypeTableRecord
  2
CONTINUOUS
 70
     0
  3
実線
 72
    65
 73
     0
 40
0.0
  0
LTYPE
  5
21
330
5
100
AcDbSymbolTableRecord
100
AcDbLinetypeTableRecord
  2
DASHED
 70
     0
  3
破線A
 72
    65
 73
     2
 40
0.6000000000000001
 49
0.4
 74
     0
 49
-0.2
 74
     0
  0
LTYPE
  5
22
330
5
100
AcDbSymbolTableRecord
100
AcDbLinetypeTableRecord
  2
DASHEDX2
 70
     0
  3
破線B
 72
    65
 73
     2
 40
1.3
 49
0.9
 74
     0
 49
-0.4
 74
     0
  0
LTYPE
  5
23
330
5
100
AcDbSymbolTableRecord
100
AcDbLinetypeTableRecord
  2
DASHDOT
 70
     0
  3
１点鎖線A
 72
    65
 73
     4
 40
0.5375
 49
0.375
 74
     0
 49
-0.05
 74
     0
 49
0.0625
 74
     0
 49
-0.05
 74
     0
  0
LTYPE
  5
24
330
5
100
AcDbSymbolTableRecord
100
AcDbLinetypeTableRecord
  2
DASHDOTX2
 70
     0
  3
１点鎖線B
 72
    65
 73
     4
 40
1.075
 49
0.75
 74
     0
 49
-0.1
 74
     0
 49
0.125
 74
     0
 49
-0.1
 74
     0
  0
LTYPE
  5
25
330
5
100
AcDbSymbolTableRecord
100
AcDbLinetypeTableRecord
  2
DIVIDE2
 70
     0
  3
２点鎖線A
 72
    65
 73
     6
 40
0.5125
 49
0.3
 74
     0
 49
-0.0375
 74
     0
 49
0.05
 74
     0
 49
-0.0375
 74
     0
 49
0.05
 74
     0
 49
-0.0375
 74
     0
  0
LTYPE
  5
26
330
5
100
AcDbSymbolTableRecord
100
AcDbLinetypeTableRecord
  2
DIVIDE
 70
     0
  3
２点鎖線B
 72
    65
 73
     6
 40
1.05
 49
0.55
 74
     0
 49
-0.1
 74
     0
 49
0.1
 74
     0
 49
-0.1
 74
     0
 49
0.1
 74
     0
 49
-0.1
 74
     0
  0
LTYPE
  5
27
330
5
100
AcDbSymbolTableRecord
100
AcDbLinetypeTableRecord
  2
DOT
 70
     0
  3
点線A
 72
    65
 73
     2
 40
0.1125
 49
0.0625
 74
     0
 49
-0.05
 74
     0
  0
LTYPE
  5
28
330
5
100
AcDbSymbolTableRecord
100
AcDbLinetypeTableRecord
  2
DOTX2
 70
     0
  3
点線B
 72
    65
 73
     2
 40
0.275
 49
0.15
 74
     0
 49
-0.125
 74
     0
  0
ENDTAB
  0
TABLE
  2
LAYER
  5
2
330
0
100
AcDbSymbolTable
 70
    34
  0
LAYER
  5
10
330
2
100
AcDbSymbolTableRecord
100
AcDbLayerTableRecord
  2
0
 70
     0
 62
    17
  6
CONTINUOUS
370
    -3
390
F
  0
LAYER
  5
2F
330
2
100
AcDbSymbolTableRecord
100
AcDbLayerTableRecord
  2
通り芯
 70
     0
 62
    15
  6
CONTINUOUS
370
    -3
390
F
  0
LAYER
  5
30
330
2
100
AcDbSymbolTableRecord
100
AcDbLayerTableRecord
  2
補助線
 70
     0
 62
    16
  6
DOT
370
    -3
390
F
  0
LAYER
  5
31
330
2
100
AcDbSymbolTableRecord
100
AcDbLayerTableRecord
  2
躯体
 70
     0
 62
    31
  6
CONTINUOUS
370
    -3
390
F
  0
LAYER
  5
32
330
2
100
AcDbSymbolTableRecord
100
AcDbLayerTableRecord
  2
型材
 70
     0
 62
    32
  6
CONTINUOUS
370
    -3
390
F
  0
LAYER
  5
33
330
2
100
AcDbSymbolTableRecord
100
AcDbLayerTableRecord
  2
型材断面
 70
     0
 62
    47
  6
CONTINUOUS
370
    -3
390
F
  0
LAYER
  5
34
330
2
100
AcDbSymbolTableRecord
100
AcDbLayerTableRecord
  2
ガラス
 70
     0
 62
    48
  6
CONTINUOUS
370
    -3
390
F
  0
LAYER
  5
35
330
2
100
AcDbSymbolTableRecord
100
AcDbLayerTableRecord
  2
ゴム等
 70
     0
 62
    63
  6
CONTINUOUS
370
    -3
390
F
  0
LAYER
  5
36
330
2
100
AcDbSymbolTableRecord
100
AcDbLayerTableRecord
  2
ボルト／ビス
 70
     0
 62
    64
  6
CONTINUOUS
370
    -3
390
F
  0
LAYER
  5
37
330
2
100
AcDbSymbolTableRecord
100
AcDbLayerTableRecord
  2
文字
 70
     0
 62
    79
  6
CONTINUOUS
370
    -3
390
F
  0
LAYER
  5
38
330
2
100
AcDbSymbolTableRecord
100
AcDbLayerTableRecord
  2
寸法
 70
     0
 62
    80
  6
CONTINUOUS
370
    -3
390
F
  0
LAYER
  5
39
330
2
100
AcDbSymbolTableRecord
100
AcDbLayerTableRecord
  2
ﾊｯﾁﾝｸﾞ
 70
     0
 62
    95
  6
CONTINUOUS
370
    -3
390
F
  0
LAYER
  5
3A
330
2
100
AcDbSymbolTableRecord
100
AcDbLayerTableRecord
  2
別途部材
 70
     0
 62
    96
  6
CONTINUOUS
370
    -3
390
F
  0
LAYER
  5
3B
330
2
100
AcDbSymbolTableRecord
100
AcDbLayerTableRecord
  2
曲げ物
 70
     0
 62
   111
  6
CONTINUOUS
370
    -3
390
F
  0
LAYER
  5
3C
330
2
100
AcDbSymbolTableRecord
100
AcDbLayerTableRecord
  2
鉄骨等
 70
     0
 62
   112
  6
CONTINUOUS
370
    -3
390
F
  0
LAYER
  5
3D
330
2
100
AcDbSymbolTableRecord
100
AcDbLayerTableRecord
  2
St
 70
     0
 62
   127
  6
CONTINUOUS
370
    -3
390
F
  0
LAYER
  5
3E
330
2
100
AcDbSymbolTableRecord
100
AcDbLayerTableRecord
  2
その他部品等
 70
     0
 62
   128
  6
CONTINUOUS
370
    -3
390
F
  0
LAYER
  5
3F
330
2
100
AcDbSymbolTableRecord
100
AcDbLayerTableRecord
  2
ｶﾞｽｹｯﾄ
 70
     0
 62
   143
  6
CONTINUOUS
370
    -3
390
F
  0
LAYER
  5
40
330
2
100
AcDbSymbolTableRecord
100
AcDbLayerTableRecord
  2
ｽｹｯﾁ
 70
     0
 62
    14
  6
CONTINUOUS
370
    -3
390
F
  0
LAYER
  5
42
330
2
100
AcDbSymbolTableRecord
100
AcDbLayerTableRecord
  2
1
 70
     0
 62
    30
  6
CONTINUOUS
370
    -3
390
F
  0
LAYER
  5
43
330
2
100
AcDbSymbolTableRecord
100
AcDbLayerTableRecord
  2
4
 70
     0
 62
    33
  6
CONTINUOUS
370
    -3
390
F
  0
LAYER
  5
44
330
2
100
AcDbSymbolTableRecord
100
AcDbLayerTableRecord
  2
ﾚｲﾔ3
 70
     0
 62
    46
  6
CONTINUOUS
370
    -3
390
F
  0
LAYER
  5
45
330
2
100
AcDbSymbolTableRecord
100
AcDbLayerTableRecord
  2
外形線
 70
     0
 62
    49
  6
CONTINUOUS
370
    -3
390
F
  0
LAYER
  5
46
330
2
100
AcDbSymbolTableRecord
100
AcDbLayerTableRecord
  2
部品
 70
     0
 62
    14
  6
CONTINUOUS
370
    -3
390
F
  0
LAYER
  5
47
330
2
100
AcDbSymbolTableRecord
100
AcDbLayerTableRecord
  2
サッシ芯
 70
     0
 62
    17
  6
DASHDOTX2
370
    -3
390
F
  0
LAYER
  5
48
330
2
100
AcDbSymbolTableRecord
100
AcDbLayerTableRecord
  2
寸法線
 70
     0
 62
    62
  6
CONTINUOUS
370
    -3
390
F
  0
LAYER
  5
49
330
2
100
AcDbSymbolTableRecord
100
AcDbLayerTableRecord
  2
姿図外形線
 70
     0
 62
    65
  6
CONTINUOUS
370
    -3
390
F
  0
LAYER
  5
4A
330
2
100
AcDbSymbolTableRecord
100
AcDbLayerTableRecord
  2
姿補助線
 70
     0
 62
    30
  6
CONTINUOUS
370
    -3
390
F
  0
LAYER
  5
4B
330
2
100
AcDbSymbolTableRecord
100
AcDbLayerTableRecord
  2
透視線
 70
     0
 62
    78
  6
DOT
370
    -3
390
F
  0
LAYER
  5
4C
330
2
100
AcDbSymbolTableRecord
100
AcDbLayerTableRecord
  2
用紙
 70
     0
 62
    81
  6
CONTINUOUS
370
    -3
390
F
  0
LAYER
  5
4D
330
2
100
AcDbSymbolTableRecord
100
AcDbLayerTableRecord
  2
実線図枠
 70
     0
 62
    94
  6
CONTINUOUS
370
    -3
390
F
  0
LAYER
  5
4E
330
2
100
AcDbSymbolTableRecord
100
AcDbLayerTableRecord
  2
補助図枠
 70
     0
 62
    97
  6
CONTINUOUS
370
    -3
390
F
  0
LAYER
  5
4F
330
2
100
AcDbSymbolTableRecord
100
AcDbLayerTableRecord
  2
建具記号
 70
     0
 62
   110
  6
CONTINUOUS
370
    -3
390
F
  0
LAYER
  5
50
330
2
100
AcDbSymbolTableRecord
100
AcDbLayerTableRecord
  2
補助文字
 70
     0
 62
   113
  6
CONTINUOUS
370
    -3
390
F
  0
ENDTAB
  0
TABLE
  2
STYLE
  5
3
330
0
100
AcDbSymbolTable
 70
    10
  0
STYLE
  5
11
330
3
100
AcDbSymbolTableRecord
100
AcDbTextStyleTableRecord
  2
STANDARD
 70
     0
 40
1.0
 41
1.0
 50
0.0
 71
     0
 42
1.0
  3
TXT
  4
BIGFONT
  0
STYLE
  5
52
330
3
100
AcDbSymbolTableRecord
100
AcDbTextStyleTableRecord
  2
TATE
 70
     4
 40
1.0
 41
1.0
 50
0.0
 71
     0
 42
1.0
  3
TXT
  4
BIGFONT
  0
STYLE
  5
53
330
3
100
AcDbSymbolTableRecord
100
AcDbTextStyleTableRecord
  2
TextStyle03
 70
     0
 40
1.0
 41
1.0
 50
0.0
 71
     0
 42
1.0
  3
MONOTXT
  4
BIGFONT
  0
STYLE
  5
54
330
3
100
AcDbSymbolTableRecord
100
AcDbTextStyleTableRecord
  2
TextStyle04
 70
     0
 40
1.0
 41
1.0
 50
0.0
 71
     0
 42
1.0
  3
MONOTXT
  4
BIGFONT
  0
STYLE
  5
55
330
3
100
AcDbSymbolTableRecord
100
AcDbTextStyleTableRecord
  2
TextStyle05
 70
     0
 40
1.0
 41
1.0
 50
0.0
 71
     0
 42
1.0
  3
MONOTXT
  4
BIGFONT
  0
STYLE
  5
56
330
3
100
AcDbSymbolTableRecord
100
AcDbTextStyleTableRecord
  2
TextStyle06
 70
     0
 40
1.0
 41
1.0
 50
0.0
 71
     0
 42
1.0
  3
MONOTXT
  4
BIGFONT
  0
STYLE
  5
57
330
3
100
AcDbSymbolTableRecord
100
AcDbTextStyleTableRecord
  2
TextStyle07
 70
     0
 40
1.0
 41
1.0
 50
0.0
 71
     0
 42
1.0
  3
MONOTXT
  4
BIGFONT
  0
STYLE
  5
58
330
3
100
AcDbSymbolTableRecord
100
AcDbTextStyleTableRecord
  2
TextStyle08
 70
     0
 40
1.0
 41
1.0
 50
0.0
 71
     0
 42
1.0
  3
MONOTXT
  4
BIGFONT
  0
STYLE
  5
59
330
3
100
AcDbSymbolTableRecord
100
AcDbTextStyleTableRecord
  2
TextStyle09
 70
     0
 40
1.0
 41
1.0
 50
0.0
 71
     0
 42
1.0
  3
MONOTXT
  4
BIGFONT
  0
STYLE
  5
5A
330
3
100
AcDbSymbolTableRecord
100
AcDbTextStyleTableRecord
  2
TextStyle10
 70
     0
 40
1.0
 41
1.0
 50
0.0
 71
     0
 42
1.0
  3
MONOTXT
  4
BIGFONT
  0
ENDTAB
  0
TABLE
  2
VIEW
  5
6
330
0
100
AcDbSymbolTable
 70
     0
  0
ENDTAB
  0
TABLE
  2
UCS
  5
7
330
0
100
AcDbSymbolTable
 70
     0
  0
ENDTAB
  0
TABLE
  2
APPID
  5
9
330
0
100
AcDbSymbolTable
 70
     1
  0
APPID
  5
12
330
9
100
AcDbSymbolTableRecord
100
AcDbRegAppTableRecord
  2
ACAD
 70
     0
  0
ENDTAB
  0
TABLE
  2
DIMSTYLE
  5
A
330
0
100
AcDbSymbolTable
 70
     1
100
AcDbDimStyleTable
  0
DIMSTYLE
105
5B
330
A
100
AcDbSymbolTableRecord
100
AcDbDimStyleTableRecord
  2
Standard
 70
     0
340
11
  0
ENDTAB
  0
TABLE
  2
BLOCK_RECORD
  5
1
330
0
100
AcDbSymbolTable
 70
    29
  0
BLOCK_RECORD
  5
1D
330
1
100
AcDbSymbolTableRecord
100
AcDbBlockTableRecord
  2
*Model_Space
340
1E
  0
BLOCK_RECORD
  5
1B
330
1
100
AcDbSymbolTableRecord
100
AcDbBlockTableRecord
  2
*Paper_Space
340
1C
  0
BLOCK_RECORD
  5
5D
330
1
100
AcDbSymbolTableRecord
100
AcDbBlockTableRecord
  2
*U0
340
0
102
{BLKREFS
331
2E9
102
}
  0
BLOCK_RECORD
  5
66
330
1
100
AcDbSymbolTableRecord
100
AcDbBlockTableRecord
  2
*U1
340
0
102
{BLKREFS
331
362
102
}
  0
BLOCK_RECORD
  5
6F
330
1
100
AcDbSymbolTableRecord
100
AcDbBlockTableRecord
  2
*U2
340
0
102
{BLKREFS
331
363
102
}
  0
BLOCK_RECORD
  5
78
330
1
100
AcDbSymbolTableRecord
100
AcDbBlockTableRecord
  2
*U3
340
0
102
{BLKREFS
331
364
102
}
  0
BLOCK_RECORD
  5
7F
330
1
100
AcDbSymbolTableRecord
100
AcDbBlockTableRecord
  2
*U4
340
0
102
{BLKREFS
331
398
102
}
  0
BLOCK_RECORD
  5
1E2
330
1
100
AcDbSymbolTableRecord
100
AcDbBlockTableRecord
  2
*U5
340
0
102
{BLKREFS
331
365
102
}
  0
BLOCK_RECORD
  5
1EA
330
1
100
AcDbSymbolTableRecord
100
AcDbBlockTableRecord
  2
*U6
340
0
102
{BLKREFS
331
366
102
}
  0
BLOCK_RECORD
  5
1F1
330
1
100
AcDbSymbolTableRecord
100
AcDbBlockTableRecord
  2
*U7
340
0
102
{BLKREFS
331
367
102
}
  0
BLOCK_RECORD
  5
1FA
330
1
100
AcDbSymbolTableRecord
100
AcDbBlockTableRecord
  2
*U8
340
0
102
{BLKREFS
331
368
102
}
  0
BLOCK_RECORD
  5
202
330
1
100
AcDbSymbolTableRecord
100
AcDbBlockTableRecord
  2
*U9
340
0
102
{BLKREFS
331
369
102
}
  0
BLOCK_RECORD
  5
20B
330
1
100
AcDbSymbolTableRecord
100
AcDbBlockTableRecord
  2
*U10
340
0
102
{BLKREFS
331
36A
102
}
  0
BLOCK_RECORD
  5
214
330
1
100
AcDbSymbolTableRecord
100
AcDbBlockTableRecord
  2
*U11
340
0
102
{BLKREFS
331
36B
102
}
  0
BLOCK_RECORD
  5
21D
330
1
100
AcDbSymbolTableRecord
100
AcDbBlockTableRecord
  2
*U12
340
0
102
{BLKREFS
331
36C
102
}
  0
BLOCK_RECORD
  5
224
330
1
100
AcDbSymbolTableRecord
100
AcDbBlockTableRecord
  2
*U13
340
0
102
{BLKREFS
331
36D
102
}
  0
BLOCK_RECORD
  5
22B
330
1
100
AcDbSymbolTableRecord
100
AcDbBlockTableRecord
  2
*U14
340
0
102
{BLKREFS
331
36E
102
}
  0
BLOCK_RECORD
  5
232
330
1
100
AcDbSymbolTableRecord
100
AcDbBlockTableRecord
  2
*U15
340
0
102
{BLKREFS
331
36F
102
}
  0
BLOCK_RECORD
  5
239
330
1
100
AcDbSymbolTableRecord
100
AcDbBlockTableRecord
  2
*U16
340
0
102
{BLKREFS
331
370
102
}
  0
BLOCK_RECORD
  5
240
330
1
100
AcDbSymbolTableRecord
100
AcDbBlockTableRecord
  2
*U17
340
0
102
{BLKREFS
331
371
102
}
  0
BLOCK_RECORD
  5
247
330
1
100
AcDbSymbolTableRecord
100
AcDbBlockTableRecord
  2
*U18
340
0
102
{BLKREFS
331
372
102
}
  0
BLOCK_RECORD
  5
24E
330
1
100
AcDbSymbolTableRecord
100
AcDbBlockTableRecord
  2
*U19
340
0
102
{BLKREFS
331
373
102
}
  0
BLOCK_RECORD
  5
256
330
1
100
AcDbSymbolTableRecord
100
AcDbBlockTableRecord
  2
*U20
340
0
102
{BLKREFS
331
374
102
}
  0
BLOCK_RECORD
  5
25E
330
1
100
AcDbSymbolTableRecord
100
AcDbBlockTableRecord
  2
*U21
340
0
102
{BLKREFS
331
375
102
}
  0
BLOCK_RECORD
  5
266
330
1
100
AcDbSymbolTableRecord
100
AcDbBlockTableRecord
  2
*U22
340
0
102
{BLKREFS
331
376
102
}
  0
BLOCK_RECORD
  5
26E
330
1
100
AcDbSymbolTableRecord
100
AcDbBlockTableRecord
  2
*U23
340
0
102
{BLKREFS
331
377
102
}
  0
BLOCK_RECORD
  5
277
330
1
100
AcDbSymbolTableRecord
100
AcDbBlockTableRecord
  2
*U24
340
0
102
{BLKREFS
331
378
102
}
  0
BLOCK_RECORD
  5
280
330
1
100
AcDbSymbolTableRecord
100
AcDbBlockTableRecord
  2
*U25
340
0
102
{BLKREFS
331
399
102
}
  0
BLOCK_RECORD
  5
299
330
1
100
AcDbSymbolTableRecord
100
AcDbBlockTableRecord
  2
*U26
340
0
102
{BLKREFS
331
39A
102
}
  0
BLOCK_RECORD
  5
2B2
330
1
100
AcDbSymbolTableRecord
100
AcDbBlockTableRecord
  2
*U27
340
0
102
{BLKREFS
331
39B
102
}
  0
BLOCK_RECORD
  5
2CB
330
1
100
AcDbSymbolTableRecord
100
AcDbBlockTableRecord
  2
*U28
340
0
102
{BLKREFS
331
39C
102
}
  0
ENDTAB
  0
ENDSEC
  0
SECTION
  2
BLOCKS
  0
BLOCK
  5
3A2
330
1D
100
AcDbEntity
  8
0
100
AcDbBlockBegin
  2
*Model_Space
 70
     0
 71
     0
 10
0.0
 20
0.0
 30
0.0
  3
*Model_Space
  1

  0
ENDBLK
  5
3A3
330
1D
100
AcDbEntity
  8
0
100
AcDbBlockEnd
  0
BLOCK
  5
3A4
330
1B
100
AcDbEntity
 67
     1
  8
0
100
AcDbBlockBegin
  2
*Paper_Space
 70
     0
 71
     0
 10
0.0
 20
0.0
 30
0.0
  3
*Paper_Space
  1

  0
ENDBLK
  5
3A5
330
1B
100
AcDbEntity
 67
     1
  8
0
100
AcDbBlockEnd
  0
BLOCK
  5
5C
330
5D
100
AcDbEntity
  8
0
100
AcDbBlockBegin
  2
*U0
 70
     1
 71
     0
 10
0.0
 20
0.0
 30
0.0
  3
*U0
  1

  0
LINE
  5
5E
330
5D
100
AcDbEntity
  8
型材断面
  6
Continuous
100
AcDbLine
 10
195.0
 20
133.5
 30
0.0
 11
195.0
 21
-133.5
 31
0.0
  0
LINE
  5
5F
330
5D
100
AcDbEntity
  8
型材断面
  6
Continuous
100
AcDbLine
 10
195.0
 20
-133.5
 30
0.0
 11
-185.0
 21
-133.5
 31
0.0
  0
LINE
  5
60
330
5D
100
AcDbEntity
  8
型材断面
  6
Continuous
100
AcDbLine
 10
-185.0
 20
-133.5
 30
0.0
 11
-185.0
 21
133.5
 31
0.0
  0
LINE
  5
61
330
5D
100
AcDbEntity
  8
型材断面
  6
Continuous
100
AcDbLine
 10
195.0
 20
133.5
 30
0.0
 11
-185.0
 21
133.5
 31
0.0
  0
LINE
  5
62
330
5D
100
AcDbEntity
  8
型材断面
  6
Continuous
100
AcDbLine
 10
145.0
 20
-133.5
 30
0.0
 11
145.0
 21
-118.5
 31
0.0
  0
LINE
  5
63
330
5D
100
AcDbEntity
  8
型材断面
  6
Continuous
100
AcDbLine
 10
195.0
 20
-118.5
 30
0.0
 11
145.0
 21
-118.5
 31
0.0
  0
ENDBLK
  5
64
330
5D
100
AcDbEntity
  8
0
100
AcDbBlockEnd
  0
BLOCK
  5
65
330
66
100
AcDbEntity
  8
0
100
AcDbBlockBegin
  2
*U1
 70
     1
 71
     0
 10
0.0
 20
0.0
 30
0.0
  3
*U1
  1

  0
LINE
  5
67
330
66
100
AcDbEntity
  8
寸法
  6
ByBlock
 62
     0
100
AcDbLine
 10
-128.742993
 20
-22.207025
 30
0.0
 11
-128.742993
 21
-22.536362
 31
0.0
  0
LINE
  5
68
330
66
100
AcDbEntity
  8
寸法
  6
ByBlock
 62
     0
100
AcDbLine
 10
71.257007
 20
-22.207025
 30
0.0
 11
71.257007
 21
-22.536362
 31
0.0
  0
LINE
  5
69
330
66
100
AcDbEntity
  8
寸法
  6
ByBlock
 62
     0
100
AcDbLine
 10
-128.742993
 20
-22.536362
 30
0.0
 11
71.257007
 21
-22.536362
 31
0.0
  0
POINT
  5
6A
330
66
100
AcDbEntity
  8
寸法
 62
     0
100
AcDbPoint
 10
-128.742993
 20
-22.536362
 30
0.0
  0
POINT
  5
6B
330
66
100
AcDbEntity
  8
寸法
 62
     0
100
AcDbPoint
 10
71.257007
 20
-22.536362
 30
0.0
  0
TEXT
  5
6C
330
66
100
AcDbEntity
  8
寸法
  6
Continuous
 62
     0
100
AcDbText
 10
-40.46875
 20
-22.175
 30
0.0
 40
3.0
  1
呼称寸法　6000
  7
TextStyle03
 72
     5
 11
-17.03125
 21
-22.175
 31
0.0
100
AcDbText
  0
ENDBLK
  5
6D
330
66
100
AcDbEntity
  8
0
100
AcDbBlockEnd
  0
BLOCK
  5
6E
330
6F
100
AcDbEntity
  8
0
100
AcDbBlockBegin
  2
*U2
 70
     1
 71
     0
 10
0.0
 20
0.0
 30
0.0
  3
*U2
  1

  0
LINE
  5
70
330
6F
100
AcDbEntity
  8
寸法
  6
ByBlock
 62
     0
100
AcDbLine
 10
-112.076325
 20
9.768917
 30
0.0
 11
-112.076325
 21
4.76842
 31
0.0
  0
LINE
  5
71
330
6F
100
AcDbEntity
  8
寸法
  6
ByBlock
 62
     0
100
AcDbLine
 10
-28.742993
 20
9.76892
 30
0.0
 11
-28.742993
 21
4.76842
 31
0.0
  0
LINE
  5
72
330
6F
100
AcDbEntity
  8
寸法
  6
ByBlock
 62
     0
100
AcDbLine
 10
-112.076325
 20
4.76842
 30
0.0
 11
-28.742993
 21
4.76842
 31
0.0
  0
POINT
  5
73
330
6F
100
AcDbEntity
  8
寸法
 62
     0
100
AcDbPoint
 10
-112.076325
 20
4.76842
 30
0.0
  0
POINT
  5
74
330
6F
100
AcDbEntity
  8
寸法
 62
     0
100
AcDbPoint
 10
-28.742993
 20
4.76842
 30
0.0
  0
TEXT
  5
75
330
6F
100
AcDbEntity
  8
寸法
  6
Continuous
 62
     0
100
AcDbText
 10
-73.70625
 20
5.125
 30
0.0
 40
3.0
  1
2500
  7
TextStyle03
 72
     5
 11
-67.14375
 21
5.125
 31
0.0
100
AcDbText
  0
ENDBLK
  5
76
330
6F
100
AcDbEntity
  8
0
100
AcDbBlockEnd
  0
BLOCK
  5
77
330
78
100
AcDbEntity
  8
0
100
AcDbBlockBegin
  2
*U3
 70
     1
 71
     0
 10
0.0
 20
0.0
 30
0.0
  3
*U3
  1

  0
LINE
  5
79
330
78
100
AcDbEntity
  8
寸法
  6
ByBlock
 62
     0
100
AcDbLine
 10
54.59034
 20
9.768917
 30
0.0
 11
54.59034
 21
4.76842
 31
0.0
  0
LINE
  5
7A
330
78
100
AcDbEntity
  8
寸法
  6
ByBlock
 62
     0
100
AcDbLine
 10
-28.742993
 20
4.76842
 30
0.0
 11
54.59034
 21
4.76842
 31
0.0
  0
POINT
  5
7B
330
78
100
AcDbEntity
  8
寸法
 62
     0
100
AcDbPoint
 10
54.59034
 20
4.76842
 30
0.0
  0
TEXT
  5
7C
330
78
100
AcDbEntity
  8
寸法
  6
Continuous
 62
     0
100
AcDbText
 10
9.61875
 20
5.125
 30
0.0
 40
3.0
  1
2500
  7
TextStyle03
 72
     5
 11
16.18125
 21
5.125
 31
0.0
100
AcDbText
  0
ENDBLK
  5
7D
330
78
100
AcDbEntity
  8
0
100
AcDbBlockEnd
  0
BLOCK
  5
7E
330
7F
100
AcDbEntity
  8
0
100
AcDbBlockBegin
  2
*U4
 70
     1
 71
     0
 10
0.0
 20
0.0
 30
0.0
  3
*U4
  1

  0
LINE
  5
80
330
7F
100
AcDbEntity
  8
別途部材
  6
Continuous
 62
    96
100
AcDbLine
 10
-130.409657
 20
-79.62459699999999
 30
0.0
 11
-130.809657
 21
-80.62459699999999
 31
0.0
  0
LINE
  5
81
330
7F
100
AcDbEntity
  8
別途部材
  6
Continuous
 62
    96
100
AcDbLine
 10
-130.409657
 20
-79.62459699999999
 30
0.0
 11
-28.742993
 21
-79.62459699999999
 31
0.0
  0
LINE
  5
82
330
7F
100
AcDbEntity
  8
別途部材
  6
Continuous
100
AcDbLine
 10
-130.809657
 20
-80.62459699999999
 30
0.0
 11
-28.742993
 21
-80.62459699999999
 31
0.0
  0
LINE
  5
83
330
7F
100
AcDbEntity
  8
別途部材
  6
Continuous
100
AcDbLine
 10
-29.242993
 20
-70.291265
 30
0.0
 11
-30.242993
 21
-71.291265
 31
0.0
  0
LINE
  5
84
330
7F
100
AcDbEntity
  8
別途部材
  6
Continuous
100
AcDbLine
 10
-31.242993
 20
-71.291265
 30
0.0
 11
-32.242993
 21
-70.291265
 31
0.0
  0
LINE
  5
85
330
7F
100
AcDbEntity
  8
別途部材
  6
Continuous
100
AcDbLine
 10
-33.242993
 20
-70.291265
 30
0.0
 11
-34.242993
 21
-71.291265
 31
0.0
  0
LINE
  5
86
330
7F
100
AcDbEntity
  8
別途部材
  6
Continuous
100
AcDbLine
 10
-32.242993
 20
-70.291265
 30
0.0
 11
-33.242993
 21
-70.291265
 31
0.0
  0
LINE
  5
87
330
7F
100
AcDbEntity
  8
別途部材
  6
Continuous
100
AcDbLine
 10
-29.242993
 20
-70.291265
 30
0.0
 11
-28.742993
 21
-70.291265
 31
0.0
  0
LINE
  5
88
330
7F
100
AcDbEntity
  8
別途部材
  6
Continuous
100
AcDbLine
 10
-35.242993
 20
-71.291265
 30
0.0
 11
-36.242993
 21
-70.291265
 31
0.0
  0
LINE
  5
89
330
7F
100
AcDbEntity
  8
別途部材
  6
Continuous
100
AcDbLine
 10
-37.242993
 20
-70.291265
 30
0.0
 11
-38.242993
 21
-71.291265
 31
0.0
  0
LINE
  5
8A
330
7F
100
AcDbEntity
  8
別途部材
  6
Continuous
100
AcDbLine
 10
-36.242993
 20
-70.291265
 30
0.0
 11
-37.242993
 21
-70.291265
 31
0.0
  0
LINE
  5
8B
330
7F
100
AcDbEntity
  8
別途部材
  6
Continuous
100
AcDbLine
 10
-39.242993
 20
-71.291265
 30
0.0
 11
-40.242993
 21
-70.291265
 31
0.0
  0
LINE
  5
8C
330
7F
100
AcDbEntity
  8
別途部材
  6
Continuous
100
AcDbLine
 10
-41.242993
 20
-70.291265
 30
0.0
 11
-42.242993
 21
-71.291265
 31
0.0
  0
LINE
  5
8D
330
7F
100
AcDbEntity
  8
別途部材
  6
Continuous
100
AcDbLine
 10
-40.242993
 20
-70.291265
 30
0.0
 11
-41.242993
 21
-70.291265
 31
0.0
  0
LINE
  5
8E
330
7F
100
AcDbEntity
  8
別途部材
  6
Continuous
100
AcDbLine
 10
-43.242993
 20
-71.291265
 30
0.0
 11
-44.242993
 21
-70.291265
 31
0.0
  0
LINE
  5
8F
330
7F
100
AcDbEntity
  8
別途部材
  6
Continuous
100
AcDbLine
 10
-45.242993
 20
-70.291265
 30
0.0
 11
-46.242993
 21
-71.291265
 31
0.0
  0
LINE
  5
90
330
7F
100
AcDbEntity
  8
別途部材
  6
Continuous
100
AcDbLine
 10
-44.242993
 20
-70.291265
 30
0.0
 11
-45.242993
 21
-70.291265
 31
0.0
  0
LINE
  5
91
330
7F
100
AcDbEntity
  8
別途部材
  6
Continuous
100
AcDbLine
 10
-47.242993
 20
-71.291265
 30
0.0
 11
-48.242993
 21
-70.291265
 31
0.0
  0
LINE
  5
92
330
7F
100
AcDbEntity
  8
別途部材
  6
Continuous
100
AcDbLine
 10
-49.242993
 20
-70.291265
 30
0.0
 11
-50.242993
 21
-71.291265
 31
0.0
  0
LINE
  5
93
330
7F
100
AcDbEntity
  8
別途部材
  6
Continuous
100
AcDbLine
 10
-48.242993
 20
-70.291265
 30
0.0
 11
-49.242993
 21
-70.291265
 31
0.0
  0
LINE
  5
94
330
7F
100
AcDbEntity
  8
別途部材
  6
Continuous
100
AcDbLine
 10
-51.242993
 20
-71.291265
 30
0.0
 11
-52.242993
 21
-70.291265
 31
0.0
  0
LINE
  5
95
330
7F
100
AcDbEntity
  8
別途部材
  6
Continuous
100
AcDbLine
 10
-53.242993
 20
-70.291265
 30
0.0
 11
-54.242993
 21
-71.291265
 31
0.0
  0
LINE
  5
96
330
7F
100
AcDbEntity
  8
別途部材
  6
Continuous
100
AcDbLine
 10
-52.242993
 20
-70.291265
 30
0.0
 11
-53.242993
 21
-70.291265
 31
0.0
  0
LINE
  5
97
330
7F
100
AcDbEntity
  8
別途部材
  6
Continuous
100
AcDbLine
 10
-55.242993
 20
-71.291265
 30
0.0
 11
-56.242993
 21
-70.291265
 31
0.0
  0
LINE
  5
98
330
7F
100
AcDbEntity
  8
別途部材
  6
Continuous
100
AcDbLine
 10
-57.242993
 20
-70.291265
 30
0.0
 11
-58.242993
 21
-71.291265
 31
0.0
  0
LINE
  5
99
330
7F
100
AcDbEntity
  8
別途部材
  6
Continuous
100
AcDbLine
 10
-56.242993
 20
-70.291265
 30
0.0
 11
-57.242993
 21
-70.291265
 31
0.0
  0
LINE
  5
9A
330
7F
100
AcDbEntity
  8
別途部材
  6
Continuous
100
AcDbLine
 10
-59.242993
 20
-71.291265
 30
0.0
 11
-60.242993
 21
-70.291265
 31
0.0
  0
LINE
  5
9B
330
7F
100
AcDbEntity
  8
別途部材
  6
Continuous
100
AcDbLine
 10
-61.242993
 20
-70.291265
 30
0.0
 11
-62.242993
 21
-71.291265
 31
0.0
  0
LINE
  5
9C
330
7F
100
AcDbEntity
  8
別途部材
  6
Continuous
100
AcDbLine
 10
-60.242993
 20
-70.291265
 30
0.0
 11
-61.242993
 21
-70.291265
 31
0.0
  0
LINE
  5
9D
330
7F
100
AcDbEntity
  8
別途部材
  6
Continuous
100
AcDbLine
 10
-63.242993
 20
-71.291265
 30
0.0
 11
-64.242993
 21
-70.291265
 31
0.0
  0
LINE
  5
9E
330
7F
100
AcDbEntity
  8
別途部材
  6
Continuous
100
AcDbLine
 10
-65.242993
 20
-70.291265
 30
0.0
 11
-66.242993
 21
-71.291265
 31
0.0
  0
LINE
  5
9F
330
7F
100
AcDbEntity
  8
別途部材
  6
Continuous
100
AcDbLine
 10
-64.242993
 20
-70.291265
 30
0.0
 11
-65.242993
 21
-70.291265
 31
0.0
  0
LINE
  5
A0
330
7F
100
AcDbEntity
  8
別途部材
  6
Continuous
100
AcDbLine
 10
-67.242993
 20
-71.291265
 30
0.0
 11
-68.242993
 21
-70.291265
 31
0.0
  0
LINE
  5
A1
330
7F
100
AcDbEntity
  8
別途部材
  6
Continuous
100
AcDbLine
 10
-69.242993
 20
-70.291265
 30
0.0
 11
-70.242993
 21
-71.291265
 31
0.0
  0
LINE
  5
A2
330
7F
100
AcDbEntity
  8
別途部材
  6
Continuous
100
AcDbLine
 10
-68.242993
 20
-70.291265
 30
0.0
 11
-69.242993
 21
-70.291265
 31
0.0
  0
LINE
  5
A3
330
7F
100
AcDbEntity
  8
別途部材
  6
Continuous
100
AcDbLine
 10
-71.242993
 20
-71.291265
 30
0.0
 11
-72.242993
 21
-70.291265
 31
0.0
  0
LINE
  5
A4
330
7F
100
AcDbEntity
  8
別途部材
  6
Continuous
100
AcDbLine
 10
-73.242993
 20
-70.291265
 30
0.0
 11
-74.242993
 21
-71.291265
 31
0.0
  0
LINE
  5
A5
330
7F
100
AcDbEntity
  8
別途部材
  6
Continuous
100
AcDbLine
 10
-72.242993
 20
-70.291265
 30
0.0
 11
-73.242993
 21
-70.291265
 31
0.0
  0
LINE
  5
A6
330
7F
100
AcDbEntity
  8
別途部材
  6
Continuous
100
AcDbLine
 10
-70.242993
 20
-71.291265
 30
0.0
 11
-71.242993
 21
-71.291265
 31
0.0
  0
LINE
  5
A7
330
7F
100
AcDbEntity
  8
別途部材
  6
Continuous
100
AcDbLine
 10
-66.242993
 20
-71.291265
 30
0.0
 11
-67.242993
 21
-71.291265
 31
0.0
  0
LINE
  5
A8
330
7F
100
AcDbEntity
  8
別途部材
  6
Continuous
100
AcDbLine
 10
-62.242993
 20
-71.291265
 30
0.0
 11
-63.242993
 21
-71.291265
 31
0.0
  0
LINE
  5
A9
330
7F
100
AcDbEntity
  8
別途部材
  6
Continuous
100
AcDbLine
 10
-58.242993
 20
-71.291265
 30
0.0
 11
-59.242993
 21
-71.291265
 31
0.0
  0
LINE
  5
AA
330
7F
100
AcDbEntity
  8
別途部材
  6
Continuous
100
AcDbLine
 10
-54.242993
 20
-71.291265
 30
0.0
 11
-55.242993
 21
-71.291265
 31
0.0
  0
LINE
  5
AB
330
7F
100
AcDbEntity
  8
別途部材
  6
Continuous
100
AcDbLine
 10
-50.242993
 20
-71.291265
 30
0.0
 11
-51.242993
 21
-71.291265
 31
0.0
  0
LINE
  5
AC
330
7F
100
AcDbEntity
  8
別途部材
  6
Continuous
100
AcDbLine
 10
-46.242993
 20
-71.291265
 30
0.0
 11
-47.242993
 21
-71.291265
 31
0.0
  0
LINE
  5
AD
330
7F
100
AcDbEntity
  8
別途部材
  6
Continuous
100
AcDbLine
 10
-42.242993
 20
-71.291265
 30
0.0
 11
-43.242993
 21
-71.291265
 31
0.0
  0
LINE
  5
AE
330
7F
100
AcDbEntity
  8
別途部材
  6
Continuous
100
AcDbLine
 10
-38.242993
 20
-71.291265
 30
0.0
 11
-39.242993
 21
-71.291265
 31
0.0
  0
LINE
  5
AF
330
7F
100
AcDbEntity
  8
別途部材
  6
Continuous
100
AcDbLine
 10
-34.242993
 20
-71.291265
 30
0.0
 11
-35.242993
 21
-71.291265
 31
0.0
  0
LINE
  5
B0
330
7F
100
AcDbEntity
  8
別途部材
  6
Continuous
100
AcDbLine
 10
-31.242993
 20
-71.291265
 30
0.0
 11
-30.242993
 21
-71.291265
 31
0.0
  0
LINE
  5
B1
330
7F
100
AcDbEntity
  8
別途部材
  6
Continuous
100
AcDbLine
 10
-75.242993
 20
-71.291265
 30
0.0
 11
-76.242993
 21
-70.291265
 31
0.0
  0
LINE
  5
B2
330
7F
100
AcDbEntity
  8
別途部材
  6
Continuous
100
AcDbLine
 10
-77.242993
 20
-70.291265
 30
0.0
 11
-78.242993
 21
-71.291265
 31
0.0
  0
LINE
  5
B3
330
7F
100
AcDbEntity
  8
別途部材
  6
Continuous
100
AcDbLine
 10
-76.242993
 20
-70.291265
 30
0.0
 11
-77.242993
 21
-70.291265
 31
0.0
  0
LINE
  5
B4
330
7F
100
AcDbEntity
  8
別途部材
  6
Continuous
100
AcDbLine
 10
-79.242993
 20
-71.291265
 30
0.0
 11
-80.242993
 21
-70.291265
 31
0.0
  0
LINE
  5
B5
330
7F
100
AcDbEntity
  8
別途部材
  6
Continuous
100
AcDbLine
 10
-81.242993
 20
-70.291265
 30
0.0
 11
-82.242993
 21
-71.291265
 31
0.0
  0
LINE
  5
B6
330
7F
100
AcDbEntity
  8
別途部材
  6
Continuous
100
AcDbLine
 10
-80.242993
 20
-70.291265
 30
0.0
 11
-81.242993
 21
-70.291265
 31
0.0
  0
LINE
  5
B7
330
7F
100
AcDbEntity
  8
別途部材
  6
Continuous
100
AcDbLine
 10
-83.242993
 20
-71.291265
 30
0.0
 11
-84.242993
 21
-70.291265
 31
0.0
  0
LINE
  5
B8
330
7F
100
AcDbEntity
  8
別途部材
  6
Continuous
100
AcDbLine
 10
-85.242993
 20
-70.291265
 30
0.0
 11
-86.242993
 21
-71.291265
 31
0.0
  0
LINE
  5
B9
330
7F
100
AcDbEntity
  8
別途部材
  6
Continuous
100
AcDbLine
 10
-84.242993
 20
-70.291265
 30
0.0
 11
-85.242993
 21
-70.291265
 31
0.0
  0
LINE
  5
BA
330
7F
100
AcDbEntity
  8
別途部材
  6
Continuous
100
AcDbLine
 10
-87.242993
 20
-71.291265
 30
0.0
 11
-88.242993
 21
-70.291265
 31
0.0
  0
LINE
  5
BB
330
7F
100
AcDbEntity
  8
別途部材
  6
Continuous
100
AcDbLine
 10
-89.242993
 20
-70.291265
 30
0.0
 11
-90.242993
 21
-71.291265
 31
0.0
  0
LINE
  5
BC
330
7F
100
AcDbEntity
  8
別途部材
  6
Continuous
100
AcDbLine
 10
-88.242993
 20
-70.291265
 30
0.0
 11
-89.242993
 21
-70.291265
 31
0.0
  0
LINE
  5
BD
330
7F
100
AcDbEntity
  8
別途部材
  6
Continuous
100
AcDbLine
 10
-91.242993
 20
-71.291265
 30
0.0
 11
-92.242993
 21
-70.291265
 31
0.0
  0
LINE
  5
BE
330
7F
100
AcDbEntity
  8
別途部材
  6
Continuous
100
AcDbLine
 10
-93.242993
 20
-70.291265
 30
0.0
 11
-94.242993
 21
-71.291265
 31
0.0
  0
LINE
  5
BF
330
7F
100
AcDbEntity
  8
別途部材
  6
Continuous
100
AcDbLine
 10
-92.242993
 20
-70.291265
 30
0.0
 11
-93.242993
 21
-70.291265
 31
0.0
  0
LINE
  5
C0
330
7F
100
AcDbEntity
  8
別途部材
  6
Continuous
100
AcDbLine
 10
-95.242993
 20
-71.291265
 30
0.0
 11
-96.242993
 21
-70.291265
 31
0.0
  0
LINE
  5
C1
330
7F
100
AcDbEntity
  8
別途部材
  6
Continuous
100
AcDbLine
 10
-97.242993
 20
-70.291265
 30
0.0
 11
-98.242993
 21
-71.291265
 31
0.0
  0
LINE
  5
C2
330
7F
100
AcDbEntity
  8
別途部材
  6
Continuous
100
AcDbLine
 10
-96.242993
 20
-70.291265
 30
0.0
 11
-97.242993
 21
-70.291265
 31
0.0
  0
LINE
  5
C3
330
7F
100
AcDbEntity
  8
別途部材
  6
Continuous
100
AcDbLine
 10
-99.242993
 20
-71.291265
 30
0.0
 11
-100.242993
 21
-70.291265
 31
0.0
  0
LINE
  5
C4
330
7F
100
AcDbEntity
  8
別途部材
  6
Continuous
100
AcDbLine
 10
-101.242993
 20
-70.291265
 30
0.0
 11
-102.242993
 21
-71.291265
 31
0.0
  0
LINE
  5
C5
330
7F
100
AcDbEntity
  8
別途部材
  6
Continuous
100
AcDbLine
 10
-100.242993
 20
-70.291265
 30
0.0
 11
-101.242993
 21
-70.291265
 31
0.0
  0
LINE
  5
C6
330
7F
100
AcDbEntity
  8
別途部材
  6
Continuous
100
AcDbLine
 10
-103.242993
 20
-71.291265
 30
0.0
 11
-104.242993
 21
-70.291265
 31
0.0
  0
LINE
  5
C7
330
7F
100
AcDbEntity
  8
別途部材
  6
Continuous
100
AcDbLine
 10
-105.242993
 20
-70.291265
 30
0.0
 11
-106.242993
 21
-71.291265
 31
0.0
  0
LINE
  5
C8
330
7F
100
AcDbEntity
  8
別途部材
  6
Continuous
100
AcDbLine
 10
-104.242993
 20
-70.291265
 30
0.0
 11
-105.242993
 21
-70.291265
 31
0.0
  0
LINE
  5
C9
330
7F
100
AcDbEntity
  8
別途部材
  6
Continuous
100
AcDbLine
 10
-102.242993
 20
-71.291265
 30
0.0
 11
-103.242993
 21
-71.291265
 31
0.0
  0
LINE
  5
CA
330
7F
100
AcDbEntity
  8
別途部材
  6
Continuous
100
AcDbLine
 10
-98.242993
 20
-71.291265
 30
0.0
 11
-99.242993
 21
-71.291265
 31
0.0
  0
LINE
  5
CB
330
7F
100
AcDbEntity
  8
別途部材
  6
Continuous
100
AcDbLine
 10
-94.242993
 20
-71.291265
 30
0.0
 11
-95.242993
 21
-71.291265
 31
0.0
  0
LINE
  5
CC
330
7F
100
AcDbEntity
  8
別途部材
  6
Continuous
100
AcDbLine
 10
-90.242993
 20
-71.291265
 30
0.0
 11
-91.242993
 21
-71.291265
 31
0.0
  0
LINE
  5
CD
330
7F
100
AcDbEntity
  8
別途部材
  6
Continuous
100
AcDbLine
 10
-86.242993
 20
-71.291265
 30
0.0
 11
-87.242993
 21
-71.291265
 31
0.0
  0
LINE
  5
CE
330
7F
100
AcDbEntity
  8
別途部材
  6
Continuous
100
AcDbLine
 10
-82.242993
 20
-71.291265
 30
0.0
 11
-83.242993
 21
-71.291265
 31
0.0
  0
LINE
  5
CF
330
7F
100
AcDbEntity
  8
別途部材
  6
Continuous
100
AcDbLine
 10
-78.242993
 20
-71.291265
 30
0.0
 11
-79.242993
 21
-71.291265
 31
0.0
  0
LINE
  5
D0
330
7F
100
AcDbEntity
  8
別途部材
  6
Continuous
100
AcDbLine
 10
-74.242993
 20
-71.291265
 30
0.0
 11
-75.242993
 21
-71.291265
 31
0.0
  0
LINE
  5
D1
330
7F
100
AcDbEntity
  8
別途部材
  6
Continuous
100
AcDbLine
 10
-106.242993
 20
-71.291265
 30
0.0
 11
-106.242993
 21
-79.62459699999999
 31
0.0
  0
LINE
  5
D2
330
7F
100
AcDbEntity
  8
別途部材
  6
Continuous
100
AcDbLine
 10
-104.242993
 20
-70.291265
 30
0.0
 11
-104.242993
 21
-79.62459699999999
 31
0.0
  0
LINE
  5
D3
330
7F
100
AcDbEntity
  8
別途部材
  6
Continuous
100
AcDbLine
 10
-105.242993
 20
-70.291265
 30
0.0
 11
-105.242993
 21
-79.62459699999999
 31
0.0
  0
LINE
  5
D4
330
7F
100
AcDbEntity
  8
別途部材
  6
Continuous
100
AcDbLine
 10
-102.242993
 20
-71.291265
 30
0.0
 11
-102.242993
 21
-79.62459699999999
 31
0.0
  0
LINE
  5
D5
330
7F
100
AcDbEntity
  8
別途部材
  6
Continuous
100
AcDbLine
 10
-103.242993
 20
-71.291265
 30
0.0
 11
-103.242993
 21
-79.62459699999999
 31
0.0
  0
LINE
  5
D6
330
7F
100
AcDbEntity
  8
別途部材
  6
Continuous
100
AcDbLine
 10
-101.242993
 20
-70.291265
 30
0.0
 11
-101.242993
 21
-79.62459699999999
 31
0.0
  0
LINE
  5
D7
330
7F
100
AcDbEntity
  8
別途部材
  6
Continuous
100
AcDbLine
 10
-99.242993
 20
-71.291265
 30
0.0
 11
-99.242993
 21
-79.62459699999999
 31
0.0
  0
LINE
  5
D8
330
7F
100
AcDbEntity
  8
別途部材
  6
Continuous
100
AcDbLine
 10
-100.242993
 20
-70.291265
 30
0.0
 11
-100.242993
 21
-79.62459699999999
 31
0.0
  0
LINE
  5
D9
330
7F
100
AcDbEntity
  8
別途部材
  6
Continuous
100
AcDbLine
 10
-98.242993
 20
-71.291265
 30
0.0
 11
-98.242993
 21
-79.62459699999999
 31
0.0
  0
LINE
  5
DA
330
7F
100
AcDbEntity
  8
別途部材
  6
Continuous
100
AcDbLine
 10
-97.242993
 20
-70.291265
 30
0.0
 11
-97.242993
 21
-79.62459699999999
 31
0.0
  0
LINE
  5
DB
330
7F
100
AcDbEntity
  8
別途部材
  6
Continuous
100
AcDbLine
 10
-95.242993
 20
-71.291265
 30
0.0
 11
-95.242993
 21
-79.62459699999999
 31
0.0
  0
LINE
  5
DC
330
7F
100
AcDbEntity
  8
別途部材
  6
Continuous
100
AcDbLine
 10
-96.242993
 20
-70.291265
 30
0.0
 11
-96.242993
 21
-79.62459699999999
 31
0.0
  0
LINE
  5
DD
330
7F
100
AcDbEntity
  8
別途部材
  6
Continuous
100
AcDbLine
 10
-93.242993
 20
-70.291265
 30
0.0
 11
-93.242993
 21
-79.62459699999999
 31
0.0
  0
LINE
  5
DE
330
7F
100
AcDbEntity
  8
別途部材
  6
Continuous
100
AcDbLine
 10
-94.242993
 20
-71.291265
 30
0.0
 11
-94.242993
 21
-79.62459699999999
 31
0.0
  0
LINE
  5
DF
330
7F
100
AcDbEntity
  8
別途部材
  6
Continuous
100
AcDbLine
 10
-91.242993
 20
-71.291265
 30
0.0
 11
-91.242993
 21
-79.62459699999999
 31
0.0
  0
LINE
  5
E0
330
7F
100
AcDbEntity
  8
別途部材
  6
Continuous
100
AcDbLine
 10
-92.242993
 20
-70.291265
 30
0.0
 11
-92.242993
 21
-79.62459699999999
 31
0.0
  0
LINE
  5
E1
330
7F
100
AcDbEntity
  8
別途部材
  6
Continuous
100
AcDbLine
 10
-90.242993
 20
-71.291265
 30
0.0
 11
-90.242993
 21
-79.62459699999999
 31
0.0
  0
LINE
  5
E2
330
7F
100
AcDbEntity
  8
別途部材
  6
Continuous
100
AcDbLine
 10
-88.242993
 20
-70.291265
 30
0.0
 11
-88.242993
 21
-79.62459699999999
 31
0.0
  0
LINE
  5
E3
330
7F
100
AcDbEntity
  8
別途部材
  6
Continuous
100
AcDbLine
 10
-89.242993
 20
-70.291265
 30
0.0
 11
-89.242993
 21
-79.62459699999999
 31
0.0
  0
LINE
  5
E4
330
7F
100
AcDbEntity
  8
別途部材
  6
Continuous
100
AcDbLine
 10
-87.242993
 20
-71.291265
 30
0.0
 11
-87.242993
 21
-79.62459699999999
 31
0.0
  0
LINE
  5
E5
330
7F
100
AcDbEntity
  8
別途部材
  6
Continuous
100
AcDbLine
 10
-86.242993
 20
-71.291265
 30
0.0
 11
-86.242993
 21
-79.62459699999999
 31
0.0
  0
LINE
  5
E6
330
7F
100
AcDbEntity
  8
別途部材
  6
Continuous
100
AcDbLine
 10
-85.242993
 20
-70.291265
 30
0.0
 11
-85.242993
 21
-79.62459699999999
 31
0.0
  0
LINE
  5
E7
330
7F
100
AcDbEntity
  8
別途部材
  6
Continuous
100
AcDbLine
 10
-84.242993
 20
-70.291265
 30
0.0
 11
-84.242993
 21
-79.62459699999999
 31
0.0
  0
LINE
  5
E8
330
7F
100
AcDbEntity
  8
別途部材
  6
Continuous
100
AcDbLine
 10
-80.242993
 20
-70.291265
 30
0.0
 11
-80.242993
 21
-79.62459699999999
 31
0.0
  0
LINE
  5
E9
330
7F
100
AcDbEntity
  8
別途部材
  6
Continuous
100
AcDbLine
 10
-73.242993
 20
-70.291265
 30
0.0
 11
-73.242993
 21
-79.62459699999999
 31
0.0
  0
LINE
  5
EA
330
7F
100
AcDbEntity
  8
別途部材
  6
Continuous
100
AcDbLine
 10
-69.242993
 20
-70.291265
 30
0.0
 11
-69.242993
 21
-79.62459699999999
 31
0.0
  0
LINE
  5
EB
330
7F
100
AcDbEntity
  8
別途部材
  6
Continuous
100
AcDbLine
 10
-67.242993
 20
-71.291265
 30
0.0
 11
-67.242993
 21
-79.62459699999999
 31
0.0
  0
LINE
  5
EC
330
7F
100
AcDbEntity
  8
別途部材
  6
Continuous
100
AcDbLine
 10
-72.242993
 20
-70.291265
 30
0.0
 11
-72.242993
 21
-79.62459699999999
 31
0.0
  0
LINE
  5
ED
330
7F
100
AcDbEntity
  8
別途部材
  6
Continuous
100
AcDbLine
 10
-76.242993
 20
-70.291265
 30
0.0
 11
-76.242993
 21
-79.62459699999999
 31
0.0
  0
LINE
  5
EE
330
7F
100
AcDbEntity
  8
別途部材
  6
Continuous
100
AcDbLine
 10
-78.242993
 20
-71.291265
 30
0.0
 11
-78.242993
 21
-79.62459699999999
 31
0.0
  0
LINE
  5
EF
330
7F
100
AcDbEntity
  8
別途部材
  6
Continuous
100
AcDbLine
 10
-81.242993
 20
-70.291265
 30
0.0
 11
-81.242993
 21
-79.62459699999999
 31
0.0
  0
LINE
  5
F0
330
7F
100
AcDbEntity
  8
別途部材
  6
Continuous
100
AcDbLine
 10
-82.242993
 20
-71.291265
 30
0.0
 11
-82.242993
 21
-79.62459699999999
 31
0.0
  0
LINE
  5
F1
330
7F
100
AcDbEntity
  8
別途部材
  6
Continuous
100
AcDbLine
 10
-83.242993
 20
-71.291265
 30
0.0
 11
-83.242993
 21
-79.62459699999999
 31
0.0
  0
LINE
  5
F2
330
7F
100
AcDbEntity
  8
別途部材
  6
Continuous
100
AcDbLine
 10
-79.242993
 20
-71.291265
 30
0.0
 11
-79.242993
 21
-79.62459699999999
 31
0.0
  0
LINE
  5
F3
330
7F
100
AcDbEntity
  8
別途部材
  6
Continuous
100
AcDbLine
 10
-77.242993
 20
-70.291265
 30
0.0
 11
-77.242993
 21
-79.62459699999999
 31
0.0
  0
LINE
  5
F4
330
7F
100
AcDbEntity
  8
別途部材
  6
Continuous
100
AcDbLine
 10
-75.242993
 20
-71.291265
 30
0.0
 11
-75.242993
 21
-79.62459699999999
 31
0.0
  0
LINE
  5
F5
330
7F
100
AcDbEntity
  8
別途部材
  6
Continuous
100
AcDbLine
 10
-74.242993
 20
-71.291265
 30
0.0
 11
-74.242993
 21
-79.62459699999999
 31
0.0
  0
LINE
  5
F6
330
7F
100
AcDbEntity
  8
別途部材
  6
Continuous
100
AcDbLine
 10
-71.242993
 20
-71.291265
 30
0.0
 11
-71.242993
 21
-79.62459699999999
 31
0.0
  0
LINE
  5
F7
330
7F
100
AcDbEntity
  8
別途部材
  6
Continuous
100
AcDbLine
 10
-70.242993
 20
-71.291265
 30
0.0
 11
-70.242993
 21
-79.62459699999999
 31
0.0
  0
LINE
  5
F8
330
7F
100
AcDbEntity
  8
別途部材
  6
Continuous
100
AcDbLine
 10
-68.242993
 20
-70.291265
 30
0.0
 11
-68.242993
 21
-79.62459699999999
 31
0.0
  0
LINE
  5
F9
330
7F
100
AcDbEntity
  8
別途部材
  6
Continuous
100
AcDbLine
 10
-65.242993
 20
-70.291265
 30
0.0
 11
-65.242993
 21
-79.62459699999999
 31
0.0
  0
LINE
  5
FA
330
7F
100
AcDbEntity
  8
別途部材
  6
Continuous
100
AcDbLine
 10
-66.242993
 20
-71.291265
 30
0.0
 11
-66.242993
 21
-79.62459699999999
 31
0.0
  0
LINE
  5
FB
330
7F
100
AcDbEntity
  8
別途部材
  6
Continuous
100
AcDbLine
 10
-64.242993
 20
-70.291265
 30
0.0
 11
-64.242993
 21
-79.62459699999999
 31
0.0
  0
LINE
  5
FC
330
7F
100
AcDbEntity
  8
別途部材
  6
Continuous
100
AcDbLine
 10
-63.242993
 20
-71.291265
 30
0.0
 11
-63.242993
 21
-79.62459699999999
 31
0.0
  0
LINE
  5
FD
330
7F
100
AcDbEntity
  8
別途部材
  6
Continuous
100
AcDbLine
 10
-62.242993
 20
-71.291265
 30
0.0
 11
-62.242993
 21
-79.62459699999999
 31
0.0
  0
LINE
  5
FE
330
7F
100
AcDbEntity
  8
別途部材
  6
Continuous
100
AcDbLine
 10
-61.242993
 20
-70.291265
 30
0.0
 11
-61.242993
 21
-79.62459699999999
 31
0.0
  0
LINE
  5
FF
330
7F
100
AcDbEntity
  8
別途部材
  6
Continuous
100
AcDbLine
 10
-59.242993
 20
-71.291265
 30
0.0
 11
-59.242993
 21
-79.62459699999999
 31
0.0
  0
LINE
  5
100
330
7F
100
AcDbEntity
  8
別途部材
  6
Continuous
100
AcDbLine
 10
-60.242993
 20
-70.291265
 30
0.0
 11
-60.242993
 21
-79.62459699999999
 31
0.0
  0
LINE
  5
101
330
7F
100
AcDbEntity
  8
別途部材
  6
Continuous
100
AcDbLine
 10
-57.242993
 20
-70.291265
 30
0.0
 11
-57.242993
 21
-79.62459699999999
 31
0.0
  0
LINE
  5
102
330
7F
100
AcDbEntity
  8
別途部材
  6
Continuous
100
AcDbLine
 10
-58.242993
 20
-71.291265
 30
0.0
 11
-58.242993
 21
-79.62459699999999
 31
0.0
  0
LINE
  5
103
330
7F
100
AcDbEntity
  8
別途部材
  6
Continuous
100
AcDbLine
 10
-54.242993
 20
-71.291265
 30
0.0
 11
-54.242993
 21
-79.62459699999999
 31
0.0
  0
LINE
  5
104
330
7F
100
AcDbEntity
  8
別途部材
  6
Continuous
100
AcDbLine
 10
-53.242993
 20
-70.291265
 30
0.0
 11
-53.242993
 21
-79.62459699999999
 31
0.0
  0
LINE
  5
105
330
7F
100
AcDbEntity
  8
別途部材
  6
Continuous
100
AcDbLine
 10
-52.242993
 20
-70.291265
 30
0.0
 11
-52.242993
 21
-79.62459699999999
 31
0.0
  0
LINE
  5
106
330
7F
100
AcDbEntity
  8
別途部材
  6
Continuous
100
AcDbLine
 10
-55.242993
 20
-71.291265
 30
0.0
 11
-55.242993
 21
-79.62459699999999
 31
0.0
  0
LINE
  5
107
330
7F
100
AcDbEntity
  8
別途部材
  6
Continuous
100
AcDbLine
 10
-56.242993
 20
-70.291265
 30
0.0
 11
-56.242993
 21
-79.62459699999999
 31
0.0
  0
LINE
  5
108
330
7F
100
AcDbEntity
  8
別途部材
  6
Continuous
100
AcDbLine
 10
-48.242993
 20
-70.291265
 30
0.0
 11
-48.242993
 21
-79.62459699999999
 31
0.0
  0
LINE
  5
109
330
7F
100
AcDbEntity
  8
別途部材
  6
Continuous
100
AcDbLine
 10
-50.242993
 20
-71.291265
 30
0.0
 11
-50.242993
 21
-79.62459699999999
 31
0.0
  0
LINE
  5
10A
330
7F
100
AcDbEntity
  8
別途部材
  6
Continuous
100
AcDbLine
 10
-51.242993
 20
-71.291265
 30
0.0
 11
-51.242993
 21
-79.62459699999999
 31
0.0
  0
LINE
  5
10B
330
7F
100
AcDbEntity
  8
別途部材
  6
Continuous
100
AcDbLine
 10
-49.242993
 20
-70.291265
 30
0.0
 11
-49.242993
 21
-79.62459699999999
 31
0.0
  0
LINE
  5
10C
330
7F
100
AcDbEntity
  8
別途部材
  6
Continuous
100
AcDbLine
 10
-47.242993
 20
-71.291265
 30
0.0
 11
-47.242993
 21
-79.62459699999999
 31
0.0
  0
LINE
  5
10D
330
7F
100
AcDbEntity
  8
別途部材
  6
Continuous
100
AcDbLine
 10
-45.242993
 20
-70.291265
 30
0.0
 11
-45.242993
 21
-79.62459699999999
 31
0.0
  0
LINE
  5
10E
330
7F
100
AcDbEntity
  8
別途部材
  6
Continuous
100
AcDbLine
 10
-44.242993
 20
-70.291265
 30
0.0
 11
-44.242993
 21
-79.62459699999999
 31
0.0
  0
LINE
  5
10F
330
7F
100
AcDbEntity
  8
別途部材
  6
Continuous
100
AcDbLine
 10
-42.242993
 20
-71.291265
 30
0.0
 11
-42.242993
 21
-79.62459699999999
 31
0.0
  0
LINE
  5
110
330
7F
100
AcDbEntity
  8
別途部材
  6
Continuous
100
AcDbLine
 10
-43.242993
 20
-71.291265
 30
0.0
 11
-43.242993
 21
-79.62459699999999
 31
0.0
  0
LINE
  5
111
330
7F
100
AcDbEntity
  8
別途部材
  6
Continuous
100
AcDbLine
 10
-46.242993
 20
-71.291265
 30
0.0
 11
-46.242993
 21
-79.62459699999999
 31
0.0
  0
LINE
  5
112
330
7F
100
AcDbEntity
  8
別途部材
  6
Continuous
100
AcDbLine
 10
-41.242993
 20
-70.291265
 30
0.0
 11
-41.242993
 21
-79.62459699999999
 31
0.0
  0
LINE
  5
113
330
7F
100
AcDbEntity
  8
別途部材
  6
Continuous
100
AcDbLine
 10
-39.242993
 20
-71.291265
 30
0.0
 11
-39.242993
 21
-79.62459699999999
 31
0.0
  0
LINE
  5
114
330
7F
100
AcDbEntity
  8
別途部材
  6
Continuous
100
AcDbLine
 10
-40.242993
 20
-70.291265
 30
0.0
 11
-40.242993
 21
-79.62459699999999
 31
0.0
  0
LINE
  5
115
330
7F
100
AcDbEntity
  8
別途部材
  6
Continuous
100
AcDbLine
 10
-38.242993
 20
-71.291265
 30
0.0
 11
-38.242993
 21
-79.62459699999999
 31
0.0
  0
LINE
  5
116
330
7F
100
AcDbEntity
  8
別途部材
  6
Continuous
100
AcDbLine
 10
-37.242993
 20
-70.291265
 30
0.0
 11
-37.242993
 21
-79.62459699999999
 31
0.0
  0
LINE
  5
117
330
7F
100
AcDbEntity
  8
別途部材
  6
Continuous
100
AcDbLine
 10
-35.242993
 20
-71.291265
 30
0.0
 11
-35.242993
 21
-79.62459699999999
 31
0.0
  0
LINE
  5
118
330
7F
100
AcDbEntity
  8
別途部材
  6
Continuous
100
AcDbLine
 10
-36.242993
 20
-70.291265
 30
0.0
 11
-36.242993
 21
-79.62459699999999
 31
0.0
  0
LINE
  5
119
330
7F
100
AcDbEntity
  8
別途部材
  6
Continuous
100
AcDbLine
 10
-34.242993
 20
-71.291265
 30
0.0
 11
-34.242993
 21
-79.62459699999999
 31
0.0
  0
LINE
  5
11A
330
7F
100
AcDbEntity
  8
別途部材
  6
Continuous
100
AcDbLine
 10
-33.242993
 20
-70.291265
 30
0.0
 11
-33.242993
 21
-79.62459699999999
 31
0.0
  0
LINE
  5
11B
330
7F
100
AcDbEntity
  8
別途部材
  6
Continuous
100
AcDbLine
 10
-31.242993
 20
-71.291265
 30
0.0
 11
-31.242993
 21
-79.62459699999999
 31
0.0
  0
LINE
  5
11C
330
7F
100
AcDbEntity
  8
別途部材
  6
Continuous
100
AcDbLine
 10
-32.242993
 20
-70.291265
 30
0.0
 11
-32.242993
 21
-79.62459699999999
 31
0.0
  0
LINE
  5
11D
330
7F
100
AcDbEntity
  8
別途部材
  6
Continuous
100
AcDbLine
 10
-30.242993
 20
-71.291265
 30
0.0
 11
-30.242993
 21
-79.62459699999999
 31
0.0
  0
LINE
  5
11E
330
7F
100
AcDbEntity
  8
別途部材
  6
Continuous
100
AcDbLine
 10
-29.242993
 20
-70.291265
 30
0.0
 11
-29.242993
 21
-79.62459699999999
 31
0.0
  0
LINE
  5
11F
330
7F
100
AcDbEntity
  8
別途部材
  6
Continuous
100
AcDbLine
 10
-107.242993
 20
-71.291265
 30
0.0
 11
-108.242993
 21
-70.291265
 31
0.0
  0
LINE
  5
120
330
7F
100
AcDbEntity
  8
別途部材
  6
Continuous
100
AcDbLine
 10
-109.242993
 20
-70.291265
 30
0.0
 11
-110.242993
 21
-71.291265
 31
0.0
  0
LINE
  5
121
330
7F
100
AcDbEntity
  8
別途部材
  6
Continuous
100
AcDbLine
 10
-108.242993
 20
-70.291265
 30
0.0
 11
-109.242993
 21
-70.291265
 31
0.0
  0
LINE
  5
122
330
7F
100
AcDbEntity
  8
別途部材
  6
Continuous
100
AcDbLine
 10
-106.242993
 20
-71.291265
 30
0.0
 11
-107.242993
 21
-71.291265
 31
0.0
  0
LINE
  5
123
330
7F
100
AcDbEntity
  8
別途部材
  6
Continuous
100
AcDbLine
 10
-110.242993
 20
-71.291265
 30
0.0
 11
-110.242993
 21
-79.62459699999999
 31
0.0
  0
LINE
  5
124
330
7F
100
AcDbEntity
  8
別途部材
  6
Continuous
100
AcDbLine
 10
-108.242993
 20
-70.291265
 30
0.0
 11
-108.242993
 21
-79.62459699999999
 31
0.0
  0
LINE
  5
125
330
7F
100
AcDbEntity
  8
別途部材
  6
Continuous
100
AcDbLine
 10
-109.242993
 20
-70.291265
 30
0.0
 11
-109.242993
 21
-79.62459699999999
 31
0.0
  0
LINE
  5
126
330
7F
100
AcDbEntity
  8
別途部材
  6
Continuous
100
AcDbLine
 10
-107.242993
 20
-71.291265
 30
0.0
 11
-107.242993
 21
-79.62459699999999
 31
0.0
  0
LINE
  5
127
330
7F
100
AcDbEntity
  8
別途部材
  6
Continuous
100
AcDbLine
 10
-111.242993
 20
-71.291265
 30
0.0
 11
-112.242993
 21
-70.291265
 31
0.0
  0
LINE
  5
128
330
7F
100
AcDbEntity
  8
別途部材
  6
Continuous
100
AcDbLine
 10
-113.242993
 20
-70.291265
 30
0.0
 11
-114.242993
 21
-71.291265
 31
0.0
  0
LINE
  5
129
330
7F
100
AcDbEntity
  8
別途部材
  6
Continuous
100
AcDbLine
 10
-112.242993
 20
-70.291265
 30
0.0
 11
-113.242993
 21
-70.291265
 31
0.0
  0
LINE
  5
12A
330
7F
100
AcDbEntity
  8
別途部材
  6
Continuous
100
AcDbLine
 10
-110.242993
 20
-71.291265
 30
0.0
 11
-111.242993
 21
-71.291265
 31
0.0
  0
LINE
  5
12B
330
7F
100
AcDbEntity
  8
別途部材
  6
Continuous
100
AcDbLine
 10
-114.242993
 20
-71.291265
 30
0.0
 11
-114.242993
 21
-79.62459699999999
 31
0.0
  0
LINE
  5
12C
330
7F
100
AcDbEntity
  8
別途部材
  6
Continuous
100
AcDbLine
 10
-112.242993
 20
-70.291265
 30
0.0
 11
-112.242993
 21
-79.62459699999999
 31
0.0
  0
LINE
  5
12D
330
7F
100
AcDbEntity
  8
別途部材
  6
Continuous
100
AcDbLine
 10
-113.242993
 20
-70.291265
 30
0.0
 11
-113.242993
 21
-79.62459699999999
 31
0.0
  0
LINE
  5
12E
330
7F
100
AcDbEntity
  8
別途部材
  6
Continuous
100
AcDbLine
 10
-111.242993
 20
-71.291265
 30
0.0
 11
-111.242993
 21
-79.62459699999999
 31
0.0
  0
ARC
  5
12F
330
7F
100
AcDbEntity
  8
別途部材
  6
Continuous
100
AcDbCircle
 10
-113.742989
 20
-88.95792899999999
 30
0.0
 40
17.666667
100
AcDbArc
 50
91.621805
 51
148.109204
  0
LINE
  5
130
330
7F
100
AcDbEntity
  8
別途部材
  6
Continuous
 62
    96
100
AcDbLine
 10
72.923675
 20
-79.62459699999999
 30
0.0
 11
73.32367499999999
 21
-80.62459699999999
 31
0.0
  0
LINE
  5
131
330
7F
100
AcDbEntity
  8
別途部材
  6
Continuous
 62
    96
100
AcDbLine
 10
72.923675
 20
-79.62459699999999
 30
0.0
 11
-28.742993
 21
-79.62459699999999
 31
0.0
  0
LINE
  5
132
330
7F
100
AcDbEntity
  8
別途部材
  6
Continuous
100
AcDbLine
 10
73.32367499999999
 20
-80.62459699999999
 30
0.0
 11
-28.742993
 21
-80.62459699999999
 31
0.0
  0
LINE
  5
133
330
7F
100
AcDbEntity
  8
別途部材
  6
Continuous
100
AcDbLine
 10
-28.242993
 20
-70.291265
 30
0.0
 11
-27.242993
 21
-71.291265
 31
0.0
  0
LINE
  5
134
330
7F
100
AcDbEntity
  8
別途部材
  6
Continuous
100
AcDbLine
 10
-26.242993
 20
-71.291265
 30
0.0
 11
-25.242993
 21
-70.291265
 31
0.0
  0
LINE
  5
135
330
7F
100
AcDbEntity
  8
別途部材
  6
Continuous
100
AcDbLine
 10
-24.242993
 20
-70.291265
 30
0.0
 11
-23.242993
 21
-71.291265
 31
0.0
  0
LINE
  5
136
330
7F
100
AcDbEntity
  8
別途部材
  6
Continuous
100
AcDbLine
 10
-25.242993
 20
-70.291265
 30
0.0
 11
-24.242993
 21
-70.291265
 31
0.0
  0
LINE
  5
137
330
7F
100
AcDbEntity
  8
別途部材
  6
Continuous
100
AcDbLine
 10
-28.242993
 20
-70.291265
 30
0.0
 11
-28.742993
 21
-70.291265
 31
0.0
  0
LINE
  5
138
330
7F
100
AcDbEntity
  8
別途部材
  6
Continuous
100
AcDbLine
 10
-22.242993
 20
-71.291265
 30
0.0
 11
-21.242993
 21
-70.291265
 31
0.0
  0
LINE
  5
139
330
7F
100
AcDbEntity
  8
別途部材
  6
Continuous
100
AcDbLine
 10
-20.242993
 20
-70.291265
 30
0.0
 11
-19.242993
 21
-71.291265
 31
0.0
  0
LINE
  5
13A
330
7F
100
AcDbEntity
  8
別途部材
  6
Continuous
100
AcDbLine
 10
-21.242993
 20
-70.291265
 30
0.0
 11
-20.242993
 21
-70.291265
 31
0.0
  0
LINE
  5
13B
330
7F
100
AcDbEntity
  8
別途部材
  6
Continuous
100
AcDbLine
 10
-18.242993
 20
-71.291265
 30
0.0
 11
-17.242993
 21
-70.291265
 31
0.0
  0
LINE
  5
13C
330
7F
100
AcDbEntity
  8
別途部材
  6
Continuous
100
AcDbLine
 10
-16.242993
 20
-70.291265
 30
0.0
 11
-15.242993
 21
-71.291265
 31
0.0
  0
LINE
  5
13D
330
7F
100
AcDbEntity
  8
別途部材
  6
Continuous
100
AcDbLine
 10
-17.242993
 20
-70.291265
 30
0.0
 11
-16.242993
 21
-70.291265
 31
0.0
  0
LINE
  5
13E
330
7F
100
AcDbEntity
  8
別途部材
  6
Continuous
100
AcDbLine
 10
-14.242993
 20
-71.291265
 30
0.0
 11
-13.242993
 21
-70.291265
 31
0.0
  0
LINE
  5
13F
330
7F
100
AcDbEntity
  8
別途部材
  6
Continuous
100
AcDbLine
 10
-12.242993
 20
-70.291265
 30
0.0
 11
-11.242993
 21
-71.291265
 31
0.0
  0
LINE
  5
140
330
7F
100
AcDbEntity
  8
別途部材
  6
Continuous
100
AcDbLine
 10
-13.242993
 20
-70.291265
 30
0.0
 11
-12.242993
 21
-70.291265
 31
0.0
  0
LINE
  5
141
330
7F
100
AcDbEntity
  8
別途部材
  6
Continuous
100
AcDbLine
 10
-10.242993
 20
-71.291265
 30
0.0
 11
-9.242993
 21
-70.291265
 31
0.0
  0
LINE
  5
142
330
7F
100
AcDbEntity
  8
別途部材
  6
Continuous
100
AcDbLine
 10
-8.242993
 20
-70.291265
 30
0.0
 11
-7.242993
 21
-71.291265
 31
0.0
  0
LINE
  5
143
330
7F
100
AcDbEntity
  8
別途部材
  6
Continuous
100
AcDbLine
 10
-9.242993
 20
-70.291265
 30
0.0
 11
-8.242993
 21
-70.291265
 31
0.0
  0
LINE
  5
144
330
7F
100
AcDbEntity
  8
別途部材
  6
Continuous
100
AcDbLine
 10
-6.242993
 20
-71.291265
 30
0.0
 11
-5.242993
 21
-70.291265
 31
0.0
  0
LINE
  5
145
330
7F
100
AcDbEntity
  8
別途部材
  6
Continuous
100
AcDbLine
 10
-4.242993
 20
-70.291265
 30
0.0
 11
-3.242993
 21
-71.291265
 31
0.0
  0
LINE
  5
146
330
7F
100
AcDbEntity
  8
別途部材
  6
Continuous
100
AcDbLine
 10
-5.242993
 20
-70.291265
 30
0.0
 11
-4.242993
 21
-70.291265
 31
0.0
  0
LINE
  5
147
330
7F
100
AcDbEntity
  8
別途部材
  6
Continuous
100
AcDbLine
 10
-2.242993
 20
-71.291265
 30
0.0
 11
-1.242993
 21
-70.291265
 31
0.0
  0
LINE
  5
148
330
7F
100
AcDbEntity
  8
別途部材
  6
Continuous
100
AcDbLine
 10
-0.242993
 20
-70.291265
 30
0.0
 11
0.757007
 21
-71.291265
 31
0.0
  0
LINE
  5
149
330
7F
100
AcDbEntity
  8
別途部材
  6
Continuous
100
AcDbLine
 10
-1.242993
 20
-70.291265
 30
0.0
 11
-0.242993
 21
-70.291265
 31
0.0
  0
LINE
  5
14A
330
7F
100
AcDbEntity
  8
別途部材
  6
Continuous
100
AcDbLine
 10
1.757007
 20
-71.291265
 30
0.0
 11
2.757007
 21
-70.291265
 31
0.0
  0
LINE
  5
14B
330
7F
100
AcDbEntity
  8
別途部材
  6
Continuous
100
AcDbLine
 10
3.757007
 20
-70.291265
 30
0.0
 11
4.757007
 21
-71.291265
 31
0.0
  0
LINE
  5
14C
330
7F
100
AcDbEntity
  8
別途部材
  6
Continuous
100
AcDbLine
 10
2.757007
 20
-70.291265
 30
0.0
 11
3.757007
 21
-70.291265
 31
0.0
  0
LINE
  5
14D
330
7F
100
AcDbEntity
  8
別途部材
  6
Continuous
100
AcDbLine
 10
5.757007
 20
-71.291265
 30
0.0
 11
6.757007
 21
-70.291265
 31
0.0
  0
LINE
  5
14E
330
7F
100
AcDbEntity
  8
別途部材
  6
Continuous
100
AcDbLine
 10
7.757007
 20
-70.291265
 30
0.0
 11
8.757007
 21
-71.291265
 31
0.0
  0
LINE
  5
14F
330
7F
100
AcDbEntity
  8
別途部材
  6
Continuous
100
AcDbLine
 10
6.757007
 20
-70.291265
 30
0.0
 11
7.757007
 21
-70.291265
 31
0.0
  0
LINE
  5
150
330
7F
100
AcDbEntity
  8
別途部材
  6
Continuous
100
AcDbLine
 10
9.757007
 20
-71.291265
 30
0.0
 11
10.757007
 21
-70.291265
 31
0.0
  0
LINE
  5
151
330
7F
100
AcDbEntity
  8
別途部材
  6
Continuous
100
AcDbLine
 10
11.757007
 20
-70.291265
 30
0.0
 11
12.757007
 21
-71.291265
 31
0.0
  0
LINE
  5
152
330
7F
100
AcDbEntity
  8
別途部材
  6
Continuous
100
AcDbLine
 10
10.757007
 20
-70.291265
 30
0.0
 11
11.757007
 21
-70.291265
 31
0.0
  0
LINE
  5
153
330
7F
100
AcDbEntity
  8
別途部材
  6
Continuous
100
AcDbLine
 10
13.757007
 20
-71.291265
 30
0.0
 11
14.757007
 21
-70.291265
 31
0.0
  0
LINE
  5
154
330
7F
100
AcDbEntity
  8
別途部材
  6
Continuous
100
AcDbLine
 10
15.757007
 20
-70.291265
 30
0.0
 11
16.757007
 21
-71.291265
 31
0.0
  0
LINE
  5
155
330
7F
100
AcDbEntity
  8
別途部材
  6
Continuous
100
AcDbLine
 10
14.757007
 20
-70.291265
 30
0.0
 11
15.757007
 21
-70.291265
 31
0.0
  0
LINE
  5
156
330
7F
100
AcDbEntity
  8
別途部材
  6
Continuous
100
AcDbLine
 10
12.757007
 20
-71.291265
 30
0.0
 11
13.757007
 21
-71.291265
 31
0.0
  0
LINE
  5
157
330
7F
100
AcDbEntity
  8
別途部材
  6
Continuous
100
AcDbLine
 10
8.757007
 20
-71.291265
 30
0.0
 11
9.757007
 21
-71.291265
 31
0.0
  0
LINE
  5
158
330
7F
100
AcDbEntity
  8
別途部材
  6
Continuous
100
AcDbLine
 10
4.757007
 20
-71.291265
 30
0.0
 11
5.757007
 21
-71.291265
 31
0.0
  0
LINE
  5
159
330
7F
100
AcDbEntity
  8
別途部材
  6
Continuous
100
AcDbLine
 10
0.757007
 20
-71.291265
 30
0.0
 11
1.757007
 21
-71.291265
 31
0.0
  0
LINE
  5
15A
330
7F
100
AcDbEntity
  8
別途部材
  6
Continuous
100
AcDbLine
 10
-3.242993
 20
-71.291265
 30
0.0
 11
-2.242993
 21
-71.291265
 31
0.0
  0
LINE
  5
15B
330
7F
100
AcDbEntity
  8
別途部材
  6
Continuous
100
AcDbLine
 10
-7.242993
 20
-71.291265
 30
0.0
 11
-6.242993
 21
-71.291265
 31
0.0
  0
LINE
  5
15C
330
7F
100
AcDbEntity
  8
別途部材
  6
Continuous
100
AcDbLine
 10
-11.242993
 20
-71.291265
 30
0.0
 11
-10.242993
 21
-71.291265
 31
0.0
  0
LINE
  5
15D
330
7F
100
AcDbEntity
  8
別途部材
  6
Continuous
100
AcDbLine
 10
-15.242993
 20
-71.291265
 30
0.0
 11
-14.242993
 21
-71.291265
 31
0.0
  0
LINE
  5
15E
330
7F
100
AcDbEntity
  8
別途部材
  6
Continuous
100
AcDbLine
 10
-19.242993
 20
-71.291265
 30
0.0
 11
-18.242993
 21
-71.291265
 31
0.0
  0
LINE
  5
15F
330
7F
100
AcDbEntity
  8
別途部材
  6
Continuous
100
AcDbLine
 10
-23.242993
 20
-71.291265
 30
0.0
 11
-22.242993
 21
-71.291265
 31
0.0
  0
LINE
  5
160
330
7F
100
AcDbEntity
  8
別途部材
  6
Continuous
100
AcDbLine
 10
-26.242993
 20
-71.291265
 30
0.0
 11
-27.242993
 21
-71.291265
 31
0.0
  0
LINE
  5
161
330
7F
100
AcDbEntity
  8
別途部材
  6
Continuous
100
AcDbLine
 10
17.757007
 20
-71.291265
 30
0.0
 11
18.757007
 21
-70.291265
 31
0.0
  0
LINE
  5
162
330
7F
100
AcDbEntity
  8
別途部材
  6
Continuous
100
AcDbLine
 10
19.757007
 20
-70.291265
 30
0.0
 11
20.757007
 21
-71.291265
 31
0.0
  0
LINE
  5
163
330
7F
100
AcDbEntity
  8
別途部材
  6
Continuous
100
AcDbLine
 10
18.757007
 20
-70.291265
 30
0.0
 11
19.757007
 21
-70.291265
 31
0.0
  0
LINE
  5
164
330
7F
100
AcDbEntity
  8
別途部材
  6
Continuous
100
AcDbLine
 10
21.757007
 20
-71.291265
 30
0.0
 11
22.757007
 21
-70.291265
 31
0.0
  0
LINE
  5
165
330
7F
100
AcDbEntity
  8
別途部材
  6
Continuous
100
AcDbLine
 10
23.757007
 20
-70.291265
 30
0.0
 11
24.757007
 21
-71.291265
 31
0.0
  0
LINE
  5
166
330
7F
100
AcDbEntity
  8
別途部材
  6
Continuous
100
AcDbLine
 10
22.757007
 20
-70.291265
 30
0.0
 11
23.757007
 21
-70.291265
 31
0.0
  0
LINE
  5
167
330
7F
100
AcDbEntity
  8
別途部材
  6
Continuous
100
AcDbLine
 10
25.757007
 20
-71.291265
 30
0.0
 11
26.757007
 21
-70.291265
 31
0.0
  0
LINE
  5
168
330
7F
100
AcDbEntity
  8
別途部材
  6
Continuous
100
AcDbLine
 10
27.757007
 20
-70.291265
 30
0.0
 11
28.757007
 21
-71.291265
 31
0.0
  0
LINE
  5
169
330
7F
100
AcDbEntity
  8
別途部材
  6
Continuous
100
AcDbLine
 10
26.757007
 20
-70.291265
 30
0.0
 11
27.757007
 21
-70.291265
 31
0.0
  0
LINE
  5
16A
330
7F
100
AcDbEntity
  8
別途部材
  6
Continuous
100
AcDbLine
 10
29.757007
 20
-71.291265
 30
0.0
 11
30.757007
 21
-70.291265
 31
0.0
  0
LINE
  5
16B
330
7F
100
AcDbEntity
  8
別途部材
  6
Continuous
100
AcDbLine
 10
31.757007
 20
-70.291265
 30
0.0
 11
32.757007
 21
-71.291265
 31
0.0
  0
LINE
  5
16C
330
7F
100
AcDbEntity
  8
別途部材
  6
Continuous
100
AcDbLine
 10
30.757007
 20
-70.291265
 30
0.0
 11
31.757007
 21
-70.291265
 31
0.0
  0
LINE
  5
16D
330
7F
100
AcDbEntity
  8
別途部材
  6
Continuous
100
AcDbLine
 10
33.757007
 20
-71.291265
 30
0.0
 11
34.757007
 21
-70.291265
 31
0.0
  0
LINE
  5
16E
330
7F
100
AcDbEntity
  8
別途部材
  6
Continuous
100
AcDbLine
 10
35.757007
 20
-70.291265
 30
0.0
 11
36.757007
 21
-71.291265
 31
0.0
  0
LINE
  5
16F
330
7F
100
AcDbEntity
  8
別途部材
  6
Continuous
100
AcDbLine
 10
34.757007
 20
-70.291265
 30
0.0
 11
35.757007
 21
-70.291265
 31
0.0
  0
LINE
  5
170
330
7F
100
AcDbEntity
  8
別途部材
  6
Continuous
100
AcDbLine
 10
37.757007
 20
-71.291265
 30
0.0
 11
38.757007
 21
-70.291265
 31
0.0
  0
LINE
  5
171
330
7F
100
AcDbEntity
  8
別途部材
  6
Continuous
100
AcDbLine
 10
39.757007
 20
-70.291265
 30
0.0
 11
40.757007
 21
-71.291265
 31
0.0
  0
LINE
  5
172
330
7F
100
AcDbEntity
  8
別途部材
  6
Continuous
100
AcDbLine
 10
38.757007
 20
-70.291265
 30
0.0
 11
39.757007
 21
-70.291265
 31
0.0
  0
LINE
  5
173
330
7F
100
AcDbEntity
  8
別途部材
  6
Continuous
100
AcDbLine
 10
41.757007
 20
-71.291265
 30
0.0
 11
42.757007
 21
-70.291265
 31
0.0
  0
LINE
  5
174
330
7F
100
AcDbEntity
  8
別途部材
  6
Continuous
100
AcDbLine
 10
43.757007
 20
-70.291265
 30
0.0
 11
44.757007
 21
-71.291265
 31
0.0
  0
LINE
  5
175
330
7F
100
AcDbEntity
  8
別途部材
  6
Continuous
100
AcDbLine
 10
42.757007
 20
-70.291265
 30
0.0
 11
43.757007
 21
-70.291265
 31
0.0
  0
LINE
  5
176
330
7F
100
AcDbEntity
  8
別途部材
  6
Continuous
100
AcDbLine
 10
45.757007
 20
-71.291265
 30
0.0
 11
46.757007
 21
-70.291265
 31
0.0
  0
LINE
  5
177
330
7F
100
AcDbEntity
  8
別途部材
  6
Continuous
100
AcDbLine
 10
47.757007
 20
-70.291265
 30
0.0
 11
48.757007
 21
-71.291265
 31
0.0
  0
LINE
  5
178
330
7F
100
AcDbEntity
  8
別途部材
  6
Continuous
100
AcDbLine
 10
46.757007
 20
-70.291265
 30
0.0
 11
47.757007
 21
-70.291265
 31
0.0
  0
LINE
  5
179
330
7F
100
AcDbEntity
  8
別途部材
  6
Continuous
100
AcDbLine
 10
44.757007
 20
-71.291265
 30
0.0
 11
45.757007
 21
-71.291265
 31
0.0
  0
LINE
  5
17A
330
7F
100
AcDbEntity
  8
別途部材
  6
Continuous
100
AcDbLine
 10
40.757007
 20
-71.291265
 30
0.0
 11
41.757007
 21
-71.291265
 31
0.0
  0
LINE
  5
17B
330
7F
100
AcDbEntity
  8
別途部材
  6
Continuous
100
AcDbLine
 10
36.757007
 20
-71.291265
 30
0.0
 11
37.757007
 21
-71.291265
 31
0.0
  0
LINE
  5
17C
330
7F
100
AcDbEntity
  8
別途部材
  6
Continuous
100
AcDbLine
 10
32.757007
 20
-71.291265
 30
0.0
 11
33.757007
 21
-71.291265
 31
0.0
  0
LINE
  5
17D
330
7F
100
AcDbEntity
  8
別途部材
  6
Continuous
100
AcDbLine
 10
28.757007
 20
-71.291265
 30
0.0
 11
29.757007
 21
-71.291265
 31
0.0
  0
LINE
  5
17E
330
7F
100
AcDbEntity
  8
別途部材
  6
Continuous
100
AcDbLine
 10
24.757007
 20
-71.291265
 30
0.0
 11
25.757007
 21
-71.291265
 31
0.0
  0
LINE
  5
17F
330
7F
100
AcDbEntity
  8
別途部材
  6
Continuous
100
AcDbLine
 10
20.757007
 20
-71.291265
 30
0.0
 11
21.757007
 21
-71.291265
 31
0.0
  0
LINE
  5
180
330
7F
100
AcDbEntity
  8
別途部材
  6
Continuous
100
AcDbLine
 10
16.757007
 20
-71.291265
 30
0.0
 11
17.757007
 21
-71.291265
 31
0.0
  0
LINE
  5
181
330
7F
100
AcDbEntity
  8
別途部材
  6
Continuous
100
AcDbLine
 10
48.757007
 20
-71.291265
 30
0.0
 11
48.757007
 21
-79.62459699999999
 31
0.0
  0
LINE
  5
182
330
7F
100
AcDbEntity
  8
別途部材
  6
Continuous
100
AcDbLine
 10
46.757007
 20
-70.291265
 30
0.0
 11
46.757007
 21
-79.62459699999999
 31
0.0
  0
LINE
  5
183
330
7F
100
AcDbEntity
  8
別途部材
  6
Continuous
100
AcDbLine
 10
47.757007
 20
-70.291265
 30
0.0
 11
47.757007
 21
-79.62459699999999
 31
0.0
  0
LINE
  5
184
330
7F
100
AcDbEntity
  8
別途部材
  6
Continuous
100
AcDbLine
 10
44.757007
 20
-71.291265
 30
0.0
 11
44.757007
 21
-79.62459699999999
 31
0.0
  0
LINE
  5
185
330
7F
100
AcDbEntity
  8
別途部材
  6
Continuous
100
AcDbLine
 10
45.757007
 20
-71.291265
 30
0.0
 11
45.757007
 21
-79.62459699999999
 31
0.0
  0
LINE
  5
186
330
7F
100
AcDbEntity
  8
別途部材
  6
Continuous
100
AcDbLine
 10
43.757007
 20
-70.291265
 30
0.0
 11
43.757007
 21
-79.62459699999999
 31
0.0
  0
LINE
  5
187
330
7F
100
AcDbEntity
  8
別途部材
  6
Continuous
100
AcDbLine
 10
41.757007
 20
-71.291265
 30
0.0
 11
41.757007
 21
-79.62459699999999
 31
0.0
  0
LINE
  5
188
330
7F
100
AcDbEntity
  8
別途部材
  6
Continuous
100
AcDbLine
 10
42.757007
 20
-70.291265
 30
0.0
 11
42.757007
 21
-79.62459699999999
 31
0.0
  0
LINE
  5
189
330
7F
100
AcDbEntity
  8
別途部材
  6
Continuous
100
AcDbLine
 10
40.757007
 20
-71.291265
 30
0.0
 11
40.757007
 21
-79.62459699999999
 31
0.0
  0
LINE
  5
18A
330
7F
100
AcDbEntity
  8
別途部材
  6
Continuous
100
AcDbLine
 10
39.757007
 20
-70.291265
 30
0.0
 11
39.757007
 21
-79.62459699999999
 31
0.0
  0
LINE
  5
18B
330
7F
100
AcDbEntity
  8
別途部材
  6
Continuous
100
AcDbLine
 10
37.757007
 20
-71.291265
 30
0.0
 11
37.757007
 21
-79.62459699999999
 31
0.0
  0
LINE
  5
18C
330
7F
100
AcDbEntity
  8
別途部材
  6
Continuous
100
AcDbLine
 10
38.757007
 20
-70.291265
 30
0.0
 11
38.757007
 21
-79.62459699999999
 31
0.0
  0
LINE
  5
18D
330
7F
100
AcDbEntity
  8
別途部材
  6
Continuous
100
AcDbLine
 10
35.757007
 20
-70.291265
 30
0.0
 11
35.757007
 21
-79.62459699999999
 31
0.0
  0
LINE
  5
18E
330
7F
100
AcDbEntity
  8
別途部材
  6
Continuous
100
AcDbLine
 10
36.757007
 20
-71.291265
 30
0.0
 11
36.757007
 21
-79.62459699999999
 31
0.0
  0
LINE
  5
18F
330
7F
100
AcDbEntity
  8
別途部材
  6
Continuous
100
AcDbLine
 10
33.757007
 20
-71.291265
 30
0.0
 11
33.757007
 21
-79.62459699999999
 31
0.0
  0
LINE
  5
190
330
7F
100
AcDbEntity
  8
別途部材
  6
Continuous
100
AcDbLine
 10
34.757007
 20
-70.291265
 30
0.0
 11
34.757007
 21
-79.62459699999999
 31
0.0
  0
LINE
  5
191
330
7F
100
AcDbEntity
  8
別途部材
  6
Continuous
100
AcDbLine
 10
32.757007
 20
-71.291265
 30
0.0
 11
32.757007
 21
-79.62459699999999
 31
0.0
  0
LINE
  5
192
330
7F
100
AcDbEntity
  8
別途部材
  6
Continuous
100
AcDbLine
 10
30.757007
 20
-70.291265
 30
0.0
 11
30.757007
 21
-79.62459699999999
 31
0.0
  0
LINE
  5
193
330
7F
100
AcDbEntity
  8
別途部材
  6
Continuous
100
AcDbLine
 10
31.757007
 20
-70.291265
 30
0.0
 11
31.757007
 21
-79.62459699999999
 31
0.0
  0
LINE
  5
194
330
7F
100
AcDbEntity
  8
別途部材
  6
Continuous
100
AcDbLine
 10
29.757007
 20
-71.291265
 30
0.0
 11
29.757007
 21
-79.62459699999999
 31
0.0
  0
LINE
  5
195
330
7F
100
AcDbEntity
  8
別途部材
  6
Continuous
100
AcDbLine
 10
28.757007
 20
-71.291265
 30
0.0
 11
28.757007
 21
-79.62459699999999
 31
0.0
  0
LINE
  5
196
330
7F
100
AcDbEntity
  8
別途部材
  6
Continuous
100
AcDbLine
 10
27.757007
 20
-70.291265
 30
0.0
 11
27.757007
 21
-79.62459699999999
 31
0.0
  0
LINE
  5
197
330
7F
100
AcDbEntity
  8
別途部材
  6
Continuous
100
AcDbLine
 10
26.757007
 20
-70.291265
 30
0.0
 11
26.757007
 21
-79.62459699999999
 31
0.0
  0
LINE
  5
198
330
7F
100
AcDbEntity
  8
別途部材
  6
Continuous
100
AcDbLine
 10
22.757007
 20
-70.291265
 30
0.0
 11
22.757007
 21
-79.62459699999999
 31
0.0
  0
LINE
  5
199
330
7F
100
AcDbEntity
  8
別途部材
  6
Continuous
100
AcDbLine
 10
15.757007
 20
-70.291265
 30
0.0
 11
15.757007
 21
-79.62459699999999
 31
0.0
  0
LINE
  5
19A
330
7F
100
AcDbEntity
  8
別途部材
  6
Continuous
100
AcDbLine
 10
11.757007
 20
-70.291265
 30
0.0
 11
11.757007
 21
-79.62459699999999
 31
0.0
  0
LINE
  5
19B
330
7F
100
AcDbEntity
  8
別途部材
  6
Continuous
100
AcDbLine
 10
9.757007
 20
-71.291265
 30
0.0
 11
9.757007
 21
-79.62459699999999
 31
0.0
  0
LINE
  5
19C
330
7F
100
AcDbEntity
  8
別途部材
  6
Continuous
100
AcDbLine
 10
14.757007
 20
-70.291265
 30
0.0
 11
14.757007
 21
-79.62459699999999
 31
0.0
  0
LINE
  5
19D
330
7F
100
AcDbEntity
  8
別途部材
  6
Continuous
100
AcDbLine
 10
18.757007
 20
-70.291265
 30
0.0
 11
18.757007
 21
-79.62459699999999
 31
0.0
  0
LINE
  5
19E
330
7F
100
AcDbEntity
  8
別途部材
  6
Continuous
100
AcDbLine
 10
20.757007
 20
-71.291265
 30
0.0
 11
20.757007
 21
-79.62459699999999
 31
0.0
  0
LINE
  5
19F
330
7F
100
AcDbEntity
  8
別途部材
  6
Continuous
100
AcDbLine
 10
23.757007
 20
-70.291265
 30
0.0
 11
23.757007
 21
-79.62459699999999
 31
0.0
  0
LINE
  5
1A0
330
7F
100
AcDbEntity
  8
別途部材
  6
Continuous
100
AcDbLine
 10
24.757007
 20
-71.291265
 30
0.0
 11
24.757007
 21
-79.62459699999999
 31
0.0
  0
LINE
  5
1A1
330
7F
100
AcDbEntity
  8
別途部材
  6
Continuous
100
AcDbLine
 10
25.757007
 20
-71.291265
 30
0.0
 11
25.757007
 21
-79.62459699999999
 31
0.0
  0
LINE
  5
1A2
330
7F
100
AcDbEntity
  8
別途部材
  6
Continuous
100
AcDbLine
 10
21.757007
 20
-71.291265
 30
0.0
 11
21.757007
 21
-79.62459699999999
 31
0.0
  0
LINE
  5
1A3
330
7F
100
AcDbEntity
  8
別途部材
  6
Continuous
100
AcDbLine
 10
19.757007
 20
-70.291265
 30
0.0
 11
19.757007
 21
-79.62459699999999
 31
0.0
  0
LINE
  5
1A4
330
7F
100
AcDbEntity
  8
別途部材
  6
Continuous
100
AcDbLine
 10
17.757007
 20
-71.291265
 30
0.0
 11
17.757007
 21
-79.62459699999999
 31
0.0
  0
LINE
  5
1A5
330
7F
100
AcDbEntity
  8
別途部材
  6
Continuous
100
AcDbLine
 10
16.757007
 20
-71.291265
 30
0.0
 11
16.757007
 21
-79.62459699999999
 31
0.0
  0
LINE
  5
1A6
330
7F
100
AcDbEntity
  8
別途部材
  6
Continuous
100
AcDbLine
 10
13.757007
 20
-71.291265
 30
0.0
 11
13.757007
 21
-79.62459699999999
 31
0.0
  0
LINE
  5
1A7
330
7F
100
AcDbEntity
  8
別途部材
  6
Continuous
100
AcDbLine
 10
12.757007
 20
-71.291265
 30
0.0
 11
12.757007
 21
-79.62459699999999
 31
0.0
  0
LINE
  5
1A8
330
7F
100
AcDbEntity
  8
別途部材
  6
Continuous
100
AcDbLine
 10
10.757007
 20
-70.291265
 30
0.0
 11
10.757007
 21
-79.62459699999999
 31
0.0
  0
LINE
  5
1A9
330
7F
100
AcDbEntity
  8
別途部材
  6
Continuous
100
AcDbLine
 10
7.757007
 20
-70.291265
 30
0.0
 11
7.757007
 21
-79.62459699999999
 31
0.0
  0
LINE
  5
1AA
330
7F
100
AcDbEntity
  8
別途部材
  6
Continuous
100
AcDbLine
 10
8.757007
 20
-71.291265
 30
0.0
 11
8.757007
 21
-79.62459699999999
 31
0.0
  0
LINE
  5
1AB
330
7F
100
AcDbEntity
  8
別途部材
  6
Continuous
100
AcDbLine
 10
6.757007
 20
-70.291265
 30
0.0
 11
6.757007
 21
-79.62459699999999
 31
0.0
  0
LINE
  5
1AC
330
7F
100
AcDbEntity
  8
別途部材
  6
Continuous
100
AcDbLine
 10
5.757007
 20
-71.291265
 30
0.0
 11
5.757007
 21
-79.62459699999999
 31
0.0
  0
LINE
  5
1AD
330
7F
100
AcDbEntity
  8
別途部材
  6
Continuous
100
AcDbLine
 10
4.757007
 20
-71.291265
 30
0.0
 11
4.757007
 21
-79.62459699999999
 31
0.0
  0
LINE
  5
1AE
330
7F
100
AcDbEntity
  8
別途部材
  6
Continuous
100
AcDbLine
 10
3.757007
 20
-70.291265
 30
0.0
 11
3.757007
 21
-79.62459699999999
 31
0.0
  0
LINE
  5
1AF
330
7F
100
AcDbEntity
  8
別途部材
  6
Continuous
100
AcDbLine
 10
1.757007
 20
-71.291265
 30
0.0
 11
1.757007
 21
-79.62459699999999
 31
0.0
  0
LINE
  5
1B0
330
7F
100
AcDbEntity
  8
別途部材
  6
Continuous
100
AcDbLine
 10
2.757007
 20
-70.291265
 30
0.0
 11
2.757007
 21
-79.62459699999999
 31
0.0
  0
LINE
  5
1B1
330
7F
100
AcDbEntity
  8
別途部材
  6
Continuous
100
AcDbLine
 10
-0.242993
 20
-70.291265
 30
0.0
 11
-0.242993
 21
-79.62459699999999
 31
0.0
  0
LINE
  5
1B2
330
7F
100
AcDbEntity
  8
別途部材
  6
Continuous
100
AcDbLine
 10
0.757007
 20
-71.291265
 30
0.0
 11
0.757007
 21
-79.62459699999999
 31
0.0
  0
LINE
  5
1B3
330
7F
100
AcDbEntity
  8
別途部材
  6
Continuous
100
AcDbLine
 10
-3.242993
 20
-71.291265
 30
0.0
 11
-3.242993
 21
-79.62459699999999
 31
0.0
  0
LINE
  5
1B4
330
7F
100
AcDbEntity
  8
別途部材
  6
Continuous
100
AcDbLine
 10
-4.242993
 20
-70.291265
 30
0.0
 11
-4.242993
 21
-79.62459699999999
 31
0.0
  0
LINE
  5
1B5
330
7F
100
AcDbEntity
  8
別途部材
  6
Continuous
100
AcDbLine
 10
-5.242993
 20
-70.291265
 30
0.0
 11
-5.242993
 21
-79.62459699999999
 31
0.0
  0
LINE
  5
1B6
330
7F
100
AcDbEntity
  8
別途部材
  6
Continuous
100
AcDbLine
 10
-2.242993
 20
-71.291265
 30
0.0
 11
-2.242993
 21
-79.62459699999999
 31
0.0
  0
LINE
  5
1B7
330
7F
100
AcDbEntity
  8
別途部材
  6
Continuous
100
AcDbLine
 10
-1.242993
 20
-70.291265
 30
0.0
 11
-1.242993
 21
-79.62459699999999
 31
0.0
  0
LINE
  5
1B8
330
7F
100
AcDbEntity
  8
別途部材
  6
Continuous
100
AcDbLine
 10
-9.242993
 20
-70.291265
 30
0.0
 11
-9.242993
 21
-79.62459699999999
 31
0.0
  0
LINE
  5
1B9
330
7F
100
AcDbEntity
  8
別途部材
  6
Continuous
100
AcDbLine
 10
-7.242993
 20
-71.291265
 30
0.0
 11
-7.242993
 21
-79.62459699999999
 31
0.0
  0
LINE
  5
1BA
330
7F
100
AcDbEntity
  8
別途部材
  6
Continuous
100
AcDbLine
 10
-6.242993
 20
-71.291265
 30
0.0
 11
-6.242993
 21
-79.62459699999999
 31
0.0
  0
LINE
  5
1BB
330
7F
100
AcDbEntity
  8
別途部材
  6
Continuous
100
AcDbLine
 10
-8.242993
 20
-70.291265
 30
0.0
 11
-8.242993
 21
-79.62459699999999
 31
0.0
  0
LINE
  5
1BC
330
7F
100
AcDbEntity
  8
別途部材
  6
Continuous
100
AcDbLine
 10
-10.242993
 20
-71.291265
 30
0.0
 11
-10.242993
 21
-79.62459699999999
 31
0.0
  0
LINE
  5
1BD
330
7F
100
AcDbEntity
  8
別途部材
  6
Continuous
100
AcDbLine
 10
-12.242993
 20
-70.291265
 30
0.0
 11
-12.242993
 21
-79.62459699999999
 31
0.0
  0
LINE
  5
1BE
330
7F
100
AcDbEntity
  8
別途部材
  6
Continuous
100
AcDbLine
 10
-13.242993
 20
-70.291265
 30
0.0
 11
-13.242993
 21
-79.62459699999999
 31
0.0
  0
LINE
  5
1BF
330
7F
100
AcDbEntity
  8
別途部材
  6
Continuous
100
AcDbLine
 10
-15.242993
 20
-71.291265
 30
0.0
 11
-15.242993
 21
-79.62459699999999
 31
0.0
  0
LINE
  5
1C0
330
7F
100
AcDbEntity
  8
別途部材
  6
Continuous
100
AcDbLine
 10
-14.242993
 20
-71.291265
 30
0.0
 11
-14.242993
 21
-79.62459699999999
 31
0.0
  0
LINE
  5
1C1
330
7F
100
AcDbEntity
  8
別途部材
  6
Continuous
100
AcDbLine
 10
-11.242993
 20
-71.291265
 30
0.0
 11
-11.242993
 21
-79.62459699999999
 31
0.0
  0
LINE
  5
1C2
330
7F
100
AcDbEntity
  8
別途部材
  6
Continuous
100
AcDbLine
 10
-16.242993
 20
-70.291265
 30
0.0
 11
-16.242993
 21
-79.62459699999999
 31
0.0
  0
LINE
  5
1C3
330
7F
100
AcDbEntity
  8
別途部材
  6
Continuous
100
AcDbLine
 10
-18.242993
 20
-71.291265
 30
0.0
 11
-18.242993
 21
-79.62459699999999
 31
0.0
  0
LINE
  5
1C4
330
7F
100
AcDbEntity
  8
別途部材
  6
Continuous
100
AcDbLine
 10
-17.242993
 20
-70.291265
 30
0.0
 11
-17.242993
 21
-79.62459699999999
 31
0.0
  0
LINE
  5
1C5
330
7F
100
AcDbEntity
  8
別途部材
  6
Continuous
100
AcDbLine
 10
-19.242993
 20
-71.291265
 30
0.0
 11
-19.242993
 21
-79.62459699999999
 31
0.0
  0
LINE
  5
1C6
330
7F
100
AcDbEntity
  8
別途部材
  6
Continuous
100
AcDbLine
 10
-20.242993
 20
-70.291265
 30
0.0
 11
-20.242993
 21
-79.62459699999999
 31
0.0
  0
LINE
  5
1C7
330
7F
100
AcDbEntity
  8
別途部材
  6
Continuous
100
AcDbLine
 10
-22.242993
 20
-71.291265
 30
0.0
 11
-22.242993
 21
-79.62459699999999
 31
0.0
  0
LINE
  5
1C8
330
7F
100
AcDbEntity
  8
別途部材
  6
Continuous
100
AcDbLine
 10
-21.242993
 20
-70.291265
 30
0.0
 11
-21.242993
 21
-79.62459699999999
 31
0.0
  0
LINE
  5
1C9
330
7F
100
AcDbEntity
  8
別途部材
  6
Continuous
100
AcDbLine
 10
-23.242993
 20
-71.291265
 30
0.0
 11
-23.242993
 21
-79.62459699999999
 31
0.0
  0
LINE
  5
1CA
330
7F
100
AcDbEntity
  8
別途部材
  6
Continuous
100
AcDbLine
 10
-24.242993
 20
-70.291265
 30
0.0
 11
-24.242993
 21
-79.62459699999999
 31
0.0
  0
LINE
  5
1CB
330
7F
100
AcDbEntity
  8
別途部材
  6
Continuous
100
AcDbLine
 10
-26.242993
 20
-71.291265
 30
0.0
 11
-26.242993
 21
-79.62459699999999
 31
0.0
  0
LINE
  5
1CC
330
7F
100
AcDbEntity
  8
別途部材
  6
Continuous
100
AcDbLine
 10
-25.242993
 20
-70.291265
 30
0.0
 11
-25.242993
 21
-79.62459699999999
 31
0.0
  0
LINE
  5
1CD
330
7F
100
AcDbEntity
  8
別途部材
  6
Continuous
100
AcDbLine
 10
-27.242993
 20
-71.291265
 30
0.0
 11
-27.242993
 21
-79.62459699999999
 31
0.0
  0
LINE
  5
1CE
330
7F
100
AcDbEntity
  8
別途部材
  6
Continuous
100
AcDbLine
 10
-28.242993
 20
-70.291265
 30
0.0
 11
-28.242993
 21
-79.62459699999999
 31
0.0
  0
LINE
  5
1CF
330
7F
100
AcDbEntity
  8
別途部材
  6
Continuous
100
AcDbLine
 10
49.757007
 20
-71.291265
 30
0.0
 11
50.757007
 21
-70.291265
 31
0.0
  0
LINE
  5
1D0
330
7F
100
AcDbEntity
  8
別途部材
  6
Continuous
100
AcDbLine
 10
51.757007
 20
-70.291265
 30
0.0
 11
52.757007
 21
-71.291265
 31
0.0
  0
LINE
  5
1D1
330
7F
100
AcDbEntity
  8
別途部材
  6
Continuous
100
AcDbLine
 10
50.757007
 20
-70.291265
 30
0.0
 11
51.757007
 21
-70.291265
 31
0.0
  0
LINE
  5
1D2
330
7F
100
AcDbEntity
  8
別途部材
  6
Continuous
100
AcDbLine
 10
48.757007
 20
-71.291265
 30
0.0
 11
49.757007
 21
-71.291265
 31
0.0
  0
LINE
  5
1D3
330
7F
100
AcDbEntity
  8
別途部材
  6
Continuous
100
AcDbLine
 10
52.757007
 20
-71.291265
 30
0.0
 11
52.757007
 21
-79.62459699999999
 31
0.0
  0
LINE
  5
1D4
330
7F
100
AcDbEntity
  8
別途部材
  6
Continuous
100
AcDbLine
 10
50.757007
 20
-70.291265
 30
0.0
 11
50.757007
 21
-79.62459699999999
 31
0.0
  0
LINE
  5
1D5
330
7F
100
AcDbEntity
  8
別途部材
  6
Continuous
100
AcDbLine
 10
51.757007
 20
-70.291265
 30
0.0
 11
51.757007
 21
-79.62459699999999
 31
0.0
  0
LINE
  5
1D6
330
7F
100
AcDbEntity
  8
別途部材
  6
Continuous
100
AcDbLine
 10
49.757007
 20
-71.291265
 30
0.0
 11
49.757007
 21
-79.62459699999999
 31
0.0
  0
LINE
  5
1D7
330
7F
100
AcDbEntity
  8
別途部材
  6
Continuous
100
AcDbLine
 10
53.757007
 20
-71.291265
 30
0.0
 11
54.757007
 21
-70.291265
 31
0.0
  0
LINE
  5
1D8
330
7F
100
AcDbEntity
  8
別途部材
  6
Continuous
100
AcDbLine
 10
55.757007
 20
-70.291265
 30
0.0
 11
56.757007
 21
-71.291265
 31
0.0
  0
LINE
  5
1D9
330
7F
100
AcDbEntity
  8
別途部材
  6
Continuous
100
AcDbLine
 10
54.757007
 20
-70.291265
 30
0.0
 11
55.757007
 21
-70.291265
 31
0.0
  0
LINE
  5
1DA
330
7F
100
AcDbEntity
  8
別途部材
  6
Continuous
100
AcDbLine
 10
52.757007
 20
-71.291265
 30
0.0
 11
53.757007
 21
-71.291265
 31
0.0
  0
LINE
  5
1DB
330
7F
100
AcDbEntity
  8
別途部材
  6
Continuous
100
AcDbLine
 10
56.757007
 20
-71.291265
 30
0.0
 11
56.757007
 21
-79.62459699999999
 31
0.0
  0
LINE
  5
1DC
330
7F
100
AcDbEntity
  8
別途部材
  6
Continuous
100
AcDbLine
 10
54.757007
 20
-70.291265
 30
0.0
 11
54.757007
 21
-79.62459699999999
 31
0.0
  0
LINE
  5
1DD
330
7F
100
AcDbEntity
  8
別途部材
  6
Continuous
100
AcDbLine
 10
55.757007
 20
-70.291265
 30
0.0
 11
55.757007
 21
-79.62459699999999
 31
0.0
  0
LINE
  5
1DE
330
7F
100
AcDbEntity
  8
別途部材
  6
Continuous
100
AcDbLine
 10
53.757007
 20
-71.291265
 30
0.0
 11
53.757007
 21
-79.62459699999999
 31
0.0
  0
ARC
  5
1DF
330
7F
100
AcDbEntity
  8
別途部材
  6
Continuous
100
AcDbCircle
 10
56.257005
 20
-88.95792899999999
 30
0.0
 40
17.666667
100
AcDbArc
 50
31.890796
 51
88.37819500000001
  0
ENDBLK
  5
1E0
330
7F
100
AcDbEntity
  8
0
100
AcDbBlockEnd
  0
BLOCK
  5
1E1
330
1E2
100
AcDbEntity
  8
0
100
AcDbBlockBegin
  2
*U5
 70
     1
 71
     0
 10
0.0
 20
0.0
 30
0.0
  3
*U5
  1

  0
LINE
  5
1E3
330
1E2
100
AcDbEntity
  8
寸法
  6
ByBlock
 62
     0
100
AcDbLine
 10
152.45694
 20
29.399048
 30
0.0
 11
152.45694
 21
58.954983
 31
0.0
  0
LINE
  5
1E4
330
1E2
100
AcDbEntity
  8
寸法
  6
ByBlock
 62
     0
100
AcDbLine
 10
160.790272
 20
58.954983
 30
0.0
 11
152.45694
 21
58.954983
 31
0.0
  0
POINT
  5
1E5
330
1E2
100
AcDbEntity
  8
寸法
 62
     0
100
AcDbPoint
 10
160.790272
 20
58.954983
 30
0.0
  0
POINT
  5
1E6
330
1E2
100
AcDbEntity
  8
寸法
 62
     0
100
AcDbPoint
 10
152.45694
 20
58.954983
 30
0.0
  0
TEXT
  5
1E7
330
1E2
100
AcDbEntity
  8
寸法
  6
Continuous
 62
     0
100
AcDbText
 10
154.1625
 20
59.325
 30
0.0
 40
3.0
  1
250
  7
TextStyle03
 72
     5
 11
159.0375
 21
59.325
 31
0.0
100
AcDbText
  0
ENDBLK
  5
1E8
330
1E2
100
AcDbEntity
  8
0
100
AcDbBlockEnd
  0
BLOCK
  5
1E9
330
1EA
100
AcDbEntity
  8
0
100
AcDbBlockBegin
  2
*U6
 70
     1
 71
     0
 10
0.0
 20
0.0
 30
0.0
  3
*U6
  1

  0
LINE
  5
1EB
330
1EA
100
AcDbEntity
  8
寸法
  6
ByBlock
 62
     0
100
AcDbLine
 10
105.276657
 20
13.399048
 30
0.0
 11
105.276657
 21
43.399048
 31
0.0
  0
POINT
  5
1EC
330
1EA
100
AcDbEntity
  8
寸法
 62
     0
100
AcDbPoint
 10
105.276657
 20
13.399048
 30
0.0
  0
POINT
  5
1ED
330
1EA
100
AcDbEntity
  8
寸法
 62
     0
100
AcDbPoint
 10
105.276657
 20
43.399048
 30
0.0
  0
TEXT
  5
1EE
330
1EA
100
AcDbEntity
  8
寸法
  6
Continuous
 62
     0
100
AcDbText
 10
104.9
 20
17.5
 30
0.0
 40
3.0
  1
呼称寸法　900
 50
90.0
  7
TextStyle03
 72
     5
 11
104.9
 21
39.25
 31
0.0
100
AcDbText
  0
ENDBLK
  5
1EF
330
1EA
100
AcDbEntity
  8
0
100
AcDbBlockEnd
  0
BLOCK
  5
1F0
330
1F1
100
AcDbEntity
  8
0
100
AcDbBlockBegin
  2
*U7
 70
     1
 71
     0
 10
0.0
 20
0.0
 30
0.0
  3
*U7
  1

  0
LINE
  5
1F2
330
1F1
100
AcDbEntity
  8
寸法
  6
ByBlock
 62
     0
100
AcDbLine
 10
160.790272
 20
48.065715
 30
0.0
 11
160.790272
 21
58.954983
 31
0.0
  0
LINE
  5
1F3
330
1F1
100
AcDbEntity
  8
寸法
  6
ByBlock
 62
     0
100
AcDbLine
 10
164.623845
 20
49.732382
 30
0.0
 11
164.623845
 21
58.954983
 31
0.0
  0
LINE
  5
1F4
330
1F1
100
AcDbEntity
  8
寸法
  6
ByBlock
 62
     0
100
AcDbLine
 10
160.790272
 20
58.954983
 30
0.0
 11
164.623845
 21
58.954983
 31
0.0
  0
POINT
  5
1F5
330
1F1
100
AcDbEntity
  8
寸法
 62
     0
100
AcDbPoint
 10
160.790272
 20
58.954983
 30
0.0
  0
POINT
  5
1F6
330
1F1
100
AcDbEntity
  8
寸法
 62
     0
100
AcDbPoint
 10
164.623845
 20
58.954983
 30
0.0
  0
TEXT
  5
1F7
330
1F1
100
AcDbEntity
  8
寸法
  6
Continuous
 62
     0
100
AcDbText
 10
165.2625
 20
59.325
 30
0.0
 40
3.0
  1
115
  7
TextStyle03
 72
     5
 11
170.1375
 21
59.325
 31
0.0
100
AcDbText
  0
ENDBLK
  5
1F8
330
1F1
100
AcDbEntity
  8
0
100
AcDbBlockEnd
  0
BLOCK
  5
1F9
330
1FA
100
AcDbEntity
  8
0
100
AcDbBlockBegin
  2
*U8
 70
     1
 71
     0
 10
0.0
 20
0.0
 30
0.0
  3
*U8
  1

  0
LINE
  5
1FB
330
1FA
100
AcDbEntity
  8
寸法
  6
ByBlock
 62
     0
100
AcDbLine
 10
57.257007
 20
-71.291265
 30
0.0
 11
87.226657
 21
-71.291265
 31
0.0
  0
LINE
  5
1FC
330
1FA
100
AcDbEntity
  8
寸法
  6
ByBlock
 62
     0
100
AcDbLine
 10
87.226657
 20
-79.62459699999999
 30
0.0
 11
87.226657
 21
-71.291265
 31
0.0
  0
POINT
  5
1FD
330
1FA
100
AcDbEntity
  8
寸法
 62
     0
100
AcDbPoint
 10
87.226657
 20
-79.62459699999999
 30
0.0
  0
POINT
  5
1FE
330
1FA
100
AcDbEntity
  8
寸法
 62
     0
100
AcDbPoint
 10
87.226657
 20
-71.291265
 30
0.0
  0
TEXT
  5
1FF
330
1FA
100
AcDbEntity
  8
寸法
  6
Continuous
 62
     0
100
AcDbText
 10
86.84999999999999
 20
-77.91249999999999
 30
0.0
 40
3.0
  1
250
 50
90.0
  7
TextStyle03
 72
     5
 11
86.84999999999999
 21
-73.03749999999999
 31
0.0
100
AcDbText
  0
ENDBLK
  5
200
330
1FA
100
AcDbEntity
  8
0
100
AcDbBlockEnd
  0
BLOCK
  5
201
330
202
100
AcDbEntity
  8
0
100
AcDbBlockBegin
  2
*U9
 70
     1
 71
     0
 10
0.0
 20
0.0
 30
0.0
  3
*U9
  1

  0
LINE
  5
203
330
202
100
AcDbEntity
  8
寸法
  6
ByBlock
 62
     0
100
AcDbLine
 10
75.923675
 20
-79.62459699999999
 30
0.0
 11
87.226657
 21
-79.62459699999999
 31
0.0
  0
LINE
  5
204
330
202
100
AcDbEntity
  8
寸法
  6
ByBlock
 62
     0
100
AcDbLine
 10
77.590343
 20
-83.45817
 30
0.0
 11
87.226657
 21
-83.45817
 31
0.0
  0
LINE
  5
205
330
202
100
AcDbEntity
  8
寸法
  6
ByBlock
 62
     0
100
AcDbLine
 10
87.226657
 20
-79.62459699999999
 30
0.0
 11
87.226657
 21
-83.45817
 31
0.0
  0
POINT
  5
206
330
202
100
AcDbEntity
  8
寸法
 62
     0
100
AcDbPoint
 10
87.226657
 20
-79.62459699999999
 30
0.0
  0
POINT
  5
207
330
202
100
AcDbEntity
  8
寸法
 62
     0
100
AcDbPoint
 10
87.226657
 20
-83.45817
 30
0.0
  0
TEXT
  5
208
330
202
100
AcDbEntity
  8
寸法
  6
Continuous
 62
     0
100
AcDbText
 10
86.77500000000001
 20
-89.03749999999999
 30
0.0
 40
3.0
  1
115
 50
90.0
  7
TextStyle03
 72
     5
 11
86.77500000000001
 21
-84.16249999999999
 31
0.0
100
AcDbText
  0
ENDBLK
  5
209
330
202
100
AcDbEntity
  8
0
100
AcDbBlockEnd
  0
BLOCK
  5
20A
330
20B
100
AcDbEntity
  8
0
100
AcDbBlockBegin
  2
*U10
 70
     1
 71
     0
 10
0.0
 20
0.0
 30
0.0
  3
*U10
  1

  0
LINE
  5
20C
330
20B
100
AcDbEntity
  8
寸法
  6
ByBlock
 62
     0
100
AcDbLine
 10
-131.742993
 20
38.399048
 30
0.0
 11
-145.03583
 21
38.399048
 31
0.0
  0
LINE
  5
20D
330
20B
100
AcDbEntity
  8
寸法
  6
ByBlock
 62
     0
100
AcDbLine
 10
-131.742993
 20
18.399048
 30
0.0
 11
-145.03583
 21
18.399048
 31
0.0
  0
LINE
  5
20E
330
20B
100
AcDbEntity
  8
寸法
  6
ByBlock
 62
     0
100
AcDbLine
 10
-145.03583
 20
38.399048
 30
0.0
 11
-145.03583
 21
18.399048
 31
0.0
  0
POINT
  5
20F
330
20B
100
AcDbEntity
  8
寸法
 62
     0
100
AcDbPoint
 10
-145.03583
 20
38.399048
 30
0.0
  0
POINT
  5
210
330
20B
100
AcDbEntity
  8
寸法
 62
     0
100
AcDbPoint
 10
-145.03583
 20
18.399048
 30
0.0
  0
TEXT
  5
211
330
20B
100
AcDbEntity
  8
寸法
  6
Continuous
 62
     0
100
AcDbText
 10
-145.375
 20
25.9625
 30
0.0
 40
3.0
  1
600
 50
90.0
  7
TextStyle03
 72
     5
 11
-145.375
 21
30.8375
 31
0.0
100
AcDbText
  0
ENDBLK
  5
212
330
20B
100
AcDbEntity
  8
0
100
AcDbBlockEnd
  0
BLOCK
  5
213
330
214
100
AcDbEntity
  8
0
100
AcDbBlockBegin
  2
*U11
 70
     1
 71
     0
 10
0.0
 20
0.0
 30
0.0
  3
*U11
  1

  0
LINE
  5
215
330
214
100
AcDbEntity
  8
寸法
  6
ByBlock
 62
     0
100
AcDbLine
 10
-122.076325
 20
46.399048
 30
0.0
 11
-122.076325
 21
75.50712
 31
0.0
  0
LINE
  5
216
330
214
100
AcDbEntity
  8
寸法
  6
ByBlock
 62
     0
100
AcDbLine
 10
-98.742993
 20
46.399048
 30
0.0
 11
-98.742993
 21
75.50712
 31
0.0
  0
LINE
  5
217
330
214
100
AcDbEntity
  8
寸法
  6
ByBlock
 62
     0
100
AcDbLine
 10
-122.076325
 20
75.50712
 30
0.0
 11
-98.742993
 21
75.50712
 31
0.0
  0
POINT
  5
218
330
214
100
AcDbEntity
  8
寸法
 62
     0
100
AcDbPoint
 10
-122.076325
 20
75.50712
 30
0.0
  0
POINT
  5
219
330
214
100
AcDbEntity
  8
寸法
 62
     0
100
AcDbPoint
 10
-98.742993
 20
75.50712
 30
0.0
  0
TEXT
  5
21A
330
214
100
AcDbEntity
  8
寸法
  6
Continuous
 62
     0
100
AcDbText
 10
-112.8625
 20
75.875
 30
0.0
 40
3.0
  1
700
  7
TextStyle03
 72
     5
 11
-107.9875
 21
75.875
 31
0.0
100
AcDbText
  0
ENDBLK
  5
21B
330
214
100
AcDbEntity
  8
0
100
AcDbBlockEnd
  0
BLOCK
  5
21C
330
21D
100
AcDbEntity
  8
0
100
AcDbBlockBegin
  2
*U12
 70
     1
 71
     0
 10
0.0
 20
0.0
 30
0.0
  3
*U12
  1

  0
LINE
  5
21E
330
21D
100
AcDbEntity
  8
寸法
  6
ByBlock
 62
     0
100
AcDbLine
 10
-75.40966
 20
46.399048
 30
0.0
 11
-75.40966
 21
75.50712
 31
0.0
  0
LINE
  5
21F
330
21D
100
AcDbEntity
  8
寸法
  6
ByBlock
 62
     0
100
AcDbLine
 10
-98.742993
 20
75.50712
 30
0.0
 11
-75.40966
 21
75.50712
 31
0.0
  0
POINT
  5
220
330
21D
100
AcDbEntity
  8
寸法
 62
     0
100
AcDbPoint
 10
-75.40966
 20
75.50712
 30
0.0
  0
TEXT
  5
221
330
21D
100
AcDbEntity
  8
寸法
  6
Continuous
 62
     0
100
AcDbText
 10
-89.53749999999999
 20
75.875
 30
0.0
 40
3.0
  1
700
  7
TextStyle03
 72
     5
 11
-84.66249999999999
 21
75.875
 31
0.0
100
AcDbText
  0
ENDBLK
  5
222
330
21D
100
AcDbEntity
  8
0
100
AcDbBlockEnd
  0
BLOCK
  5
223
330
224
100
AcDbEntity
  8
0
100
AcDbBlockBegin
  2
*U13
 70
     1
 71
     0
 10
0.0
 20
0.0
 30
0.0
  3
*U13
  1

  0
LINE
  5
225
330
224
100
AcDbEntity
  8
寸法
  6
ByBlock
 62
     0
100
AcDbLine
 10
-52.076325
 20
46.399048
 30
0.0
 11
-52.076325
 21
75.50712
 31
0.0
  0
LINE
  5
226
330
224
100
AcDbEntity
  8
寸法
  6
ByBlock
 62
     0
100
AcDbLine
 10
-75.40966
 20
75.50712
 30
0.0
 11
-52.076325
 21
75.50712
 31
0.0
  0
POINT
  5
227
330
224
100
AcDbEntity
  8
寸法
 62
     0
100
AcDbPoint
 10
-52.076325
 20
75.50712
 30
0.0
  0
TEXT
  5
228
330
224
100
AcDbEntity
  8
寸法
  6
Continuous
 62
     0
100
AcDbText
 10
-66.1875
 20
75.875
 30
0.0
 40
3.0
  1
700
  7
TextStyle03
 72
     5
 11
-61.3125
 21
75.875
 31
0.0
100
AcDbText
  0
ENDBLK
  5
229
330
224
100
AcDbEntity
  8
0
100
AcDbBlockEnd
  0
BLOCK
  5
22A
330
22B
100
AcDbEntity
  8
0
100
AcDbBlockBegin
  2
*U14
 70
     1
 71
     0
 10
0.0
 20
0.0
 30
0.0
  3
*U14
  1

  0
LINE
  5
22C
330
22B
100
AcDbEntity
  8
寸法
  6
ByBlock
 62
     0
100
AcDbLine
 10
-28.742993
 20
46.399048
 30
0.0
 11
-28.742993
 21
75.50712
 31
0.0
  0
LINE
  5
22D
330
22B
100
AcDbEntity
  8
寸法
  6
ByBlock
 62
     0
100
AcDbLine
 10
-52.076325
 20
75.50712
 30
0.0
 11
-28.742993
 21
75.50712
 31
0.0
  0
POINT
  5
22E
330
22B
100
AcDbEntity
  8
寸法
 62
     0
100
AcDbPoint
 10
-28.742993
 20
75.50712
 30
0.0
  0
TEXT
  5
22F
330
22B
100
AcDbEntity
  8
寸法
  6
Continuous
 62
     0
100
AcDbText
 10
-42.8625
 20
75.875
 30
0.0
 40
3.0
  1
700
  7
TextStyle03
 72
     5
 11
-37.9875
 21
75.875
 31
0.0
100
AcDbText
  0
ENDBLK
  5
230
330
22B
100
AcDbEntity
  8
0
100
AcDbBlockEnd
  0
BLOCK
  5
231
330
232
100
AcDbEntity
  8
0
100
AcDbBlockBegin
  2
*U15
 70
     1
 71
     0
 10
0.0
 20
0.0
 30
0.0
  3
*U15
  1

  0
LINE
  5
233
330
232
100
AcDbEntity
  8
寸法
  6
ByBlock
 62
     0
100
AcDbLine
 10
-5.40966
 20
46.399048
 30
0.0
 11
-5.40966
 21
75.50712
 31
0.0
  0
LINE
  5
234
330
232
100
AcDbEntity
  8
寸法
  6
ByBlock
 62
     0
100
AcDbLine
 10
-28.742993
 20
75.50712
 30
0.0
 11
-5.40966
 21
75.50712
 31
0.0
  0
POINT
  5
235
330
232
100
AcDbEntity
  8
寸法
 62
     0
100
AcDbPoint
 10
-5.40966
 20
75.50712
 30
0.0
  0
TEXT
  5
236
330
232
100
AcDbEntity
  8
寸法
  6
Continuous
 62
     0
100
AcDbText
 10
-19.5375
 20
75.875
 30
0.0
 40
3.0
  1
700
  7
TextStyle03
 72
     5
 11
-14.6625
 21
75.875
 31
0.0
100
AcDbText
  0
ENDBLK
  5
237
330
232
100
AcDbEntity
  8
0
100
AcDbBlockEnd
  0
BLOCK
  5
238
330
239
100
AcDbEntity
  8
0
100
AcDbBlockBegin
  2
*U16
 70
     1
 71
     0
 10
0.0
 20
0.0
 30
0.0
  3
*U16
  1

  0
LINE
  5
23A
330
239
100
AcDbEntity
  8
寸法
  6
ByBlock
 62
     0
100
AcDbLine
 10
17.923675
 20
46.399048
 30
0.0
 11
17.923675
 21
75.50712
 31
0.0
  0
LINE
  5
23B
330
239
100
AcDbEntity
  8
寸法
  6
ByBlock
 62
     0
100
AcDbLine
 10
-5.40966
 20
75.50712
 30
0.0
 11
17.923675
 21
75.50712
 31
0.0
  0
POINT
  5
23C
330
239
100
AcDbEntity
  8
寸法
 62
     0
100
AcDbPoint
 10
17.923675
 20
75.50712
 30
0.0
  0
TEXT
  5
23D
330
239
100
AcDbEntity
  8
寸法
  6
Continuous
 62
     0
100
AcDbText
 10
3.8125
 20
75.875
 30
0.0
 40
3.0
  1
700
  7
TextStyle03
 72
     5
 11
8.6875
 21
75.875
 31
0.0
100
AcDbText
  0
ENDBLK
  5
23E
330
239
100
AcDbEntity
  8
0
100
AcDbBlockEnd
  0
BLOCK
  5
23F
330
240
100
AcDbEntity
  8
0
100
AcDbBlockBegin
  2
*U17
 70
     1
 71
     0
 10
0.0
 20
0.0
 30
0.0
  3
*U17
  1

  0
LINE
  5
241
330
240
100
AcDbEntity
  8
寸法
  6
ByBlock
 62
     0
100
AcDbLine
 10
41.257007
 20
46.399048
 30
0.0
 11
41.257007
 21
75.50712
 31
0.0
  0
LINE
  5
242
330
240
100
AcDbEntity
  8
寸法
  6
ByBlock
 62
     0
100
AcDbLine
 10
17.923675
 20
75.50712
 30
0.0
 11
41.257007
 21
75.50712
 31
0.0
  0
POINT
  5
243
330
240
100
AcDbEntity
  8
寸法
 62
     0
100
AcDbPoint
 10
41.257007
 20
75.50712
 30
0.0
  0
TEXT
  5
244
330
240
100
AcDbEntity
  8
寸法
  6
Continuous
 62
     0
100
AcDbText
 10
27.1375
 20
75.875
 30
0.0
 40
3.0
  1
700
  7
TextStyle03
 72
     5
 11
32.0125
 21
75.875
 31
0.0
100
AcDbText
  0
ENDBLK
  5
245
330
240
100
AcDbEntity
  8
0
100
AcDbBlockEnd
  0
BLOCK
  5
246
330
247
100
AcDbEntity
  8
0
100
AcDbBlockBegin
  2
*U18
 70
     1
 71
     0
 10
0.0
 20
0.0
 30
0.0
  3
*U18
  1

  0
LINE
  5
248
330
247
100
AcDbEntity
  8
寸法
  6
ByBlock
 62
     0
100
AcDbLine
 10
64.59034
 20
46.399048
 30
0.0
 11
64.59034
 21
75.50712
 31
0.0
  0
LINE
  5
249
330
247
100
AcDbEntity
  8
寸法
  6
ByBlock
 62
     0
100
AcDbLine
 10
41.257007
 20
75.50712
 30
0.0
 11
64.59034
 21
75.50712
 31
0.0
  0
POINT
  5
24A
330
247
100
AcDbEntity
  8
寸法
 62
     0
100
AcDbPoint
 10
64.59034
 20
75.50712
 30
0.0
  0
TEXT
  5
24B
330
247
100
AcDbEntity
  8
寸法
  6
Continuous
 62
     0
100
AcDbText
 10
50.4625
 20
75.875
 30
0.0
 40
3.0
  1
700
  7
TextStyle03
 72
     5
 11
55.3375
 21
75.875
 31
0.0
100
AcDbText
  0
ENDBLK
  5
24C
330
247
100
AcDbEntity
  8
0
100
AcDbBlockEnd
  0
BLOCK
  5
24D
330
24E
100
AcDbEntity
  8
0
100
AcDbBlockBegin
  2
*U19
 70
     1
 71
     0
 10
0.0
 20
0.0
 30
0.0
  3
*U19
  1

  0
LINE
  5
24F
330
24E
100
AcDbEntity
  8
寸法
  6
ByBlock
 62
     0
100
AcDbLine
 10
74.423675
 20
-79.95817
 30
0.0
 11
74.423675
 21
-22.207025
 31
0.0
  0
LINE
  5
250
330
24E
100
AcDbEntity
  8
寸法
  6
ByBlock
 62
     0
100
AcDbLine
 10
71.257007
 20
-22.207025
 30
0.0
 11
74.423675
 21
-22.207025
 31
0.0
  0
POINT
  5
251
330
24E
100
AcDbEntity
  8
寸法
 62
     0
100
AcDbPoint
 10
71.257007
 20
-22.207025
 30
0.0
  0
POINT
  5
252
330
24E
100
AcDbEntity
  8
寸法
 62
     0
100
AcDbPoint
 10
74.423675
 20
-22.207025
 30
0.0
  0
TEXT
  5
253
330
24E
100
AcDbEntity
  8
寸法
  6
Continuous
 62
     0
100
AcDbText
 10
71.23125
 20
-21.85
 30
0.0
 40
3.0
  1
95
  7
TextStyle03
 72
     5
 11
74.41875
 21
-21.85
 31
0.0
100
AcDbText
  0
ENDBLK
  5
254
330
24E
100
AcDbEntity
  8
0
100
AcDbBlockEnd
  0
BLOCK
  5
255
330
256
100
AcDbEntity
  8
0
100
AcDbBlockBegin
  2
*U20
 70
     1
 71
     0
 10
0.0
 20
0.0
 30
0.0
  3
*U20
  1

  0
LINE
  5
257
330
256
100
AcDbEntity
  8
寸法
  6
ByBlock
 62
     0
100
AcDbLine
 10
-131.90966
 20
-79.95817
 30
0.0
 11
-131.90966
 21
-22.207025
 31
0.0
  0
LINE
  5
258
330
256
100
AcDbEntity
  8
寸法
  6
ByBlock
 62
     0
100
AcDbLine
 10
-128.742993
 20
-22.207025
 30
0.0
 11
-131.90966
 21
-22.207025
 31
0.0
  0
POINT
  5
259
330
256
100
AcDbEntity
  8
寸法
 62
     0
100
AcDbPoint
 10
-128.742993
 20
-22.207025
 30
0.0
  0
POINT
  5
25A
330
256
100
AcDbEntity
  8
寸法
 62
     0
100
AcDbPoint
 10
-131.90966
 20
-22.207025
 30
0.0
  0
TEXT
  5
25B
330
256
100
AcDbEntity
  8
寸法
  6
Continuous
 62
     0
100
AcDbText
 10
-131.94375
 20
-21.85
 30
0.0
 40
3.0
  1
95
  7
TextStyle03
 72
     5
 11
-128.75625
 21
-21.85
 31
0.0
100
AcDbText
  0
ENDBLK
  5
25C
330
256
100
AcDbEntity
  8
0
100
AcDbBlockEnd
  0
BLOCK
  5
25D
330
25E
100
AcDbEntity
  8
0
100
AcDbBlockBegin
  2
*U21
 70
     1
 71
     0
 10
0.0
 20
0.0
 30
0.0
  3
*U21
  1

  0
LINE
  5
25F
330
25E
100
AcDbEntity
  8
寸法
  6
ByBlock
 62
     0
100
AcDbLine
 10
161.123845
 20
10.23238
 30
0.0
 11
105.276657
 21
10.23238
 31
0.0
  0
LINE
  5
260
330
25E
100
AcDbEntity
  8
寸法
  6
ByBlock
 62
     0
100
AcDbLine
 10
105.276657
 20
13.399048
 30
0.0
 11
105.276657
 21
10.23238
 31
0.0
  0
POINT
  5
261
330
25E
100
AcDbEntity
  8
寸法
 62
     0
100
AcDbPoint
 10
105.276657
 20
13.399048
 30
0.0
  0
POINT
  5
262
330
25E
100
AcDbEntity
  8
寸法
 62
     0
100
AcDbPoint
 10
105.276657
 20
10.23238
 30
0.0
  0
TEXT
  5
263
330
25E
100
AcDbEntity
  8
寸法
  6
Continuous
 62
     0
100
AcDbText
 10
104.9
 20
10.20625
 30
0.0
 40
3.0
  1
95
 50
90.0
  7
TextStyle03
 72
     5
 11
104.9
 21
13.39375
 31
0.0
100
AcDbText
  0
ENDBLK
  5
264
330
25E
100
AcDbEntity
  8
0
100
AcDbBlockEnd
  0
BLOCK
  5
265
330
266
100
AcDbEntity
  8
0
100
AcDbBlockBegin
  2
*U22
 70
     1
 71
     0
 10
0.0
 20
0.0
 30
0.0
  3
*U22
  1

  0
LINE
  5
267
330
266
100
AcDbEntity
  8
寸法
  6
ByBlock
 62
     0
100
AcDbLine
 10
161.123845
 20
46.565715
 30
0.0
 11
105.276657
 21
46.565715
 31
0.0
  0
LINE
  5
268
330
266
100
AcDbEntity
  8
寸法
  6
ByBlock
 62
     0
100
AcDbLine
 10
105.276657
 20
43.399048
 30
0.0
 11
105.276657
 21
46.565715
 31
0.0
  0
POINT
  5
269
330
266
100
AcDbEntity
  8
寸法
 62
     0
100
AcDbPoint
 10
105.276657
 20
43.399048
 30
0.0
  0
POINT
  5
26A
330
266
100
AcDbEntity
  8
寸法
 62
     0
100
AcDbPoint
 10
105.276657
 20
46.565715
 30
0.0
  0
TEXT
  5
26B
330
266
100
AcDbEntity
  8
寸法
  6
Continuous
 62
     0
100
AcDbText
 10
104.9
 20
43.38125
 30
0.0
 40
3.0
  1
95
 50
90.0
  7
TextStyle03
 72
     5
 11
104.9
 21
46.56875
 31
0.0
100
AcDbText
  0
ENDBLK
  5
26C
330
266
100
AcDbEntity
  8
0
100
AcDbBlockEnd
  0
BLOCK
  5
26D
330
26E
100
AcDbEntity
  8
0
100
AcDbBlockBegin
  2
*U23
 70
     1
 71
     0
 10
0.0
 20
0.0
 30
0.0
  3
*U23
  1

  0
LINE
  5
26F
330
26E
100
AcDbEntity
  8
寸法
  6
ByBlock
 62
     0
100
AcDbLine
 10
158.537835
 20
-49.533713
 30
0.0
 11
165.404422
 21
-49.533713
 31
0.0
  0
LINE
  5
270
330
26E
100
AcDbEntity
  8
寸法
  6
ByBlock
 62
     0
100
AcDbLine
 10
158.537835
 20
-79.20038
 30
0.0
 11
165.404422
 21
-79.20038
 31
0.0
  0
LINE
  5
271
330
26E
100
AcDbEntity
  8
寸法
  6
ByBlock
 62
     0
100
AcDbLine
 10
165.404422
 20
-49.533713
 30
0.0
 11
165.404422
 21
-79.20038
 31
0.0
  0
POINT
  5
272
330
26E
100
AcDbEntity
  8
寸法
 62
     0
100
AcDbPoint
 10
165.404422
 20
-49.533713
 30
0.0
  0
POINT
  5
273
330
26E
100
AcDbEntity
  8
寸法
 62
     0
100
AcDbPoint
 10
165.404422
 20
-79.20038
 30
0.0
  0
TEXT
  5
274
330
26E
100
AcDbEntity
  8
寸法
  6
Continuous
 62
     0
100
AcDbText
 10
165.025
 20
-67.625
 30
0.0
 40
4.0
  1
890
 50
90.0
  7
TextStyle03
 72
     5
 11
165.025
 21
-61.125
 31
0.0
100
AcDbText
  0
ENDBLK
  5
275
330
26E
100
AcDbEntity
  8
0
100
AcDbBlockEnd
  0
BLOCK
  5
276
330
277
100
AcDbEntity
  8
0
100
AcDbBlockBegin
  2
*U24
 70
     1
 71
     0
 10
0.0
 20
0.0
 30
0.0
  3
*U24
  1

  0
LINE
  5
278
330
277
100
AcDbEntity
  8
寸法
  6
Continuous
100
AcDbLine
 10
155.537835
 20
-44.533713
 30
0.0
 11
155.537835
 21
-37.989458
 31
0.0
  0
LINE
  5
279
330
277
100
AcDbEntity
  8
寸法
  6
Continuous
100
AcDbLine
 10
123.148835
 20
-44.533713
 30
0.0
 11
123.148835
 21
-37.989458
 31
0.0
  0
LINE
  5
27A
330
277
100
AcDbEntity
  8
寸法
  6
Continuous
100
AcDbLine
 10
155.537835
 20
-37.989458
 30
0.0
 11
123.148835
 21
-37.989458
 31
0.0
  0
POINT
  5
27B
330
277
100
AcDbEntity
  8
寸法
100
AcDbPoint
 10
155.537835
 20
-37.989458
 30
0.0
  0
POINT
  5
27C
330
277
100
AcDbEntity
  8
寸法
100
AcDbPoint
 10
123.148835
 20
-37.989458
 30
0.0
  0
TEXT
  5
27D
330
277
100
AcDbEntity
  8
寸法
  6
Continuous
100
AcDbText
 10
135.2
 20
-37.625
 30
0.0
 40
3.0
  1
971.7
  7
TextStyle03
 72
     5
 11
143.45
 21
-37.625
 31
0.0
100
AcDbText
  0
ENDBLK
  5
27E
330
277
100
AcDbEntity
  8
0
100
AcDbBlockEnd
  0
BLOCK
  5
27F
330
280
100
AcDbEntity
  8
0
100
AcDbBlockBegin
  2
*U25
 70
     1
 71
     0
 10
0.0
 20
0.0
 30
0.0
  3
*U25
  1

  0
LINE
  5
281
330
280
100
AcDbEntity
  8
ボルト／ビス
  6
Continuous
100
AcDbLine
 10
-129.40966
 20
-79.62459699999999
 30
0.0
 11
-129.40966
 21
-79.157932
 31
0.0
  0
LINE
  5
282
330
280
100
AcDbEntity
  8
ボルト／ビス
  6
Continuous
100
AcDbLine
 10
-129.776328
 20
-79.62459699999999
 30
0.0
 11
-129.776328
 21
-79.55793199999999
 31
0.0
  0
LINE
  5
283
330
280
100
AcDbEntity
  8
ボルト／ビス
  6
Continuous
100
AcDbLine
 10
-129.776328
 20
-79.55793199999999
 30
0.0
 11
-129.042993
 21
-79.55793199999999
 31
0.0
  0
LINE
  5
284
330
280
100
AcDbEntity
  8
ボルト／ビス
  6
Continuous
100
AcDbLine
 10
-129.042993
 20
-79.55793199999999
 30
0.0
 11
-129.042993
 21
-79.62459699999999
 31
0.0
  0
LINE
  5
285
330
280
100
AcDbEntity
  8
ボルト／ビス
  6
Continuous
100
AcDbLine
 10
-129.776328
 20
-79.62459699999999
 30
0.0
 11
-129.042993
 21
-79.62459699999999
 31
0.0
  0
LINE
  5
286
330
280
100
AcDbEntity
  8
ボルト／ビス
  6
Continuous
100
AcDbLine
 10
-129.70966
 20
-79.524597
 30
0.0
 11
-129.70966
 21
-79.55793199999999
 31
0.0
  0
LINE
  5
287
330
280
100
AcDbEntity
  8
ボルト／ビス
  6
Continuous
100
AcDbLine
 10
-129.70966
 20
-79.524597
 30
0.0
 11
-129.10966
 21
-79.524597
 31
0.0
  0
LINE
  5
288
330
280
100
AcDbEntity
  8
ボルト／ビス
  6
Continuous
100
AcDbLine
 10
-129.10966
 20
-79.524597
 30
0.0
 11
-129.10966
 21
-79.55793199999999
 31
0.0
  0
LINE
  5
289
330
280
100
AcDbEntity
  8
ボルト／ビス
  6
Continuous
 62
    64
100
AcDbLine
 10
-129.570035
 20
-79.324597
 30
0.0
 11
-129.60211
 21
-79.33627199999999
 31
0.0
  0
ARC
  5
28A
330
280
100
AcDbEntity
  8
ボルト／ビス
  6
Continuous
 62
    64
100
AcDbCircle
 10
-129.553996
 20
-79.429576
 30
0.0
 40
0.104978
100
AcDbArc
 50
62.721967
 51
90.0
  0
ARC
  5
28B
330
280
100
AcDbEntity
  8
ボルト／ビス
  6
Continuous
 62
    64
100
AcDbCircle
 10
-129.409659
 20
-79.727
 30
0.0
 40
0.402402
100
AcDbArc
 50
76.165002
 51
103.834985
  0
LINE
  5
28C
330
280
100
AcDbEntity
  8
ボルト／ビス
  6
Continuous
 62
    64
100
AcDbLine
 10
-129.249285
 20
-79.324597
 30
0.0
 11
-129.21721
 21
-79.33627199999999
 31
0.0
  0
ARC
  5
28D
330
280
100
AcDbEntity
  8
ボルト／ビス
  6
Continuous
 62
    64
100
AcDbCircle
 10
-129.265321
 20
-79.429576
 30
0.0
 40
0.104978
100
AcDbArc
 50
90.0
 51
117.278033
  0
LINE
  5
28E
330
280
100
AcDbEntity
  8
ボルト／ビス
  6
Continuous
 62
    64
100
AcDbLine
 10
-129.570035
 20
-79.324597
 30
0.0
 11
-129.249285
 21
-79.324597
 31
0.0
  0
LINE
  5
28F
330
280
100
AcDbEntity
  8
ボルト／ビス
  6
Continuous
 62
    64
100
AcDbLine
 10
-129.21721
 20
-79.33627199999999
 30
0.0
 11
-129.21721
 21
-79.457932
 31
0.0
  0
LINE
  5
290
330
280
100
AcDbEntity
  8
ボルト／ビス
  6
Continuous
 62
    64
100
AcDbLine
 10
-129.313435
 20
-79.33627199999999
 30
0.0
 11
-129.313435
 21
-79.457932
 31
0.0
  0
LINE
  5
291
330
280
100
AcDbEntity
  8
ボルト／ビス
  6
Continuous
 62
    64
100
AcDbLine
 10
-129.60211
 20
-79.33627199999999
 30
0.0
 11
-129.60211
 21
-79.457932
 31
0.0
  0
LINE
  5
292
330
280
100
AcDbEntity
  8
ボルト／ビス
  6
Continuous
 62
    64
100
AcDbLine
 10
-129.505885
 20
-79.33627199999999
 30
0.0
 11
-129.505885
 21
-79.457932
 31
0.0
  0
LINE
  5
293
330
280
100
AcDbEntity
  8
ボルト／ビス
  6
Continuous
100
AcDbLine
 10
-129.60211
 20
-79.457932
 30
0.0
 11
-129.21721
 21
-79.457932
 31
0.0
  0
LINE
  5
294
330
280
100
AcDbEntity
  8
ボルト／ビス
  6
Continuous
100
AcDbLine
 10
-129.60966
 20
-79.457932
 30
0.0
 11
-129.60966
 21
-79.524597
 31
0.0
  0
LINE
  5
295
330
280
100
AcDbEntity
  8
ボルト／ビス
  6
Continuous
100
AcDbLine
 10
-129.60966
 20
-79.457932
 30
0.0
 11
-129.20966
 21
-79.457932
 31
0.0
  0
LINE
  5
296
330
280
100
AcDbEntity
  8
ボルト／ビス
  6
Continuous
100
AcDbLine
 10
-129.20966
 20
-79.457932
 30
0.0
 11
-129.20966
 21
-79.524597
 31
0.0
  0
ENDBLK
  5
297
330
280
100
AcDbEntity
  8
0
100
AcDbBlockEnd
  0
BLOCK
  5
298
330
299
100
AcDbEntity
  8
0
100
AcDbBlockBegin
  2
*U26
 70
     1
 71
     0
 10
0.0
 20
0.0
 30
0.0
  3
*U26
  1

  0
LINE
  5
29A
330
299
100
AcDbEntity
  8
ボルト／ビス
  6
Continuous
100
AcDbLine
 10
71.923675
 20
-79.62459699999999
 30
0.0
 11
71.923675
 21
-79.157932
 31
0.0
  0
LINE
  5
29B
330
299
100
AcDbEntity
  8
ボルト／ビス
  6
Continuous
100
AcDbLine
 10
71.557007
 20
-79.62459699999999
 30
0.0
 11
71.557007
 21
-79.55793199999999
 31
0.0
  0
LINE
  5
29C
330
299
100
AcDbEntity
  8
ボルト／ビス
  6
Continuous
100
AcDbLine
 10
71.557007
 20
-79.55793199999999
 30
0.0
 11
72.29034299999999
 21
-79.55793199999999
 31
0.0
  0
LINE
  5
29D
330
299
100
AcDbEntity
  8
ボルト／ビス
  6
Continuous
100
AcDbLine
 10
72.29034299999999
 20
-79.55793199999999
 30
0.0
 11
72.29034299999999
 21
-79.62459699999999
 31
0.0
  0
LINE
  5
29E
330
299
100
AcDbEntity
  8
ボルト／ビス
  6
Continuous
100
AcDbLine
 10
71.557007
 20
-79.62459699999999
 30
0.0
 11
72.29034299999999
 21
-79.62459699999999
 31
0.0
  0
LINE
  5
29F
330
299
100
AcDbEntity
  8
ボルト／ビス
  6
Continuous
100
AcDbLine
 10
71.62367500000001
 20
-79.524597
 30
0.0
 11
71.62367500000001
 21
-79.55793199999999
 31
0.0
  0
LINE
  5
2A0
330
299
100
AcDbEntity
  8
ボルト／ビス
  6
Continuous
100
AcDbLine
 10
71.62367500000001
 20
-79.524597
 30
0.0
 11
72.223675
 21
-79.524597
 31
0.0
  0
LINE
  5
2A1
330
299
100
AcDbEntity
  8
ボルト／ビス
  6
Continuous
100
AcDbLine
 10
72.223675
 20
-79.524597
 30
0.0
 11
72.223675
 21
-79.55793199999999
 31
0.0
  0
LINE
  5
2A2
330
299
100
AcDbEntity
  8
ボルト／ビス
  6
Continuous
 62
    64
100
AcDbLine
 10
71.7633
 20
-79.324597
 30
0.0
 11
71.731225
 21
-79.33627199999999
 31
0.0
  0
ARC
  5
2A3
330
299
100
AcDbEntity
  8
ボルト／ビス
  6
Continuous
 62
    64
100
AcDbCircle
 10
71.77933899999999
 20
-79.429576
 30
0.0
 40
0.104978
100
AcDbArc
 50
62.721967
 51
90.0
  0
ARC
  5
2A4
330
299
100
AcDbEntity
  8
ボルト／ビス
  6
Continuous
 62
    64
100
AcDbCircle
 10
71.923676
 20
-79.727
 30
0.0
 40
0.402402
100
AcDbArc
 50
76.165002
 51
103.834985
  0
LINE
  5
2A5
330
299
100
AcDbEntity
  8
ボルト／ビス
  6
Continuous
 62
    64
100
AcDbLine
 10
72.08405000000001
 20
-79.324597
 30
0.0
 11
72.116125
 21
-79.33627199999999
 31
0.0
  0
ARC
  5
2A6
330
299
100
AcDbEntity
  8
ボルト／ビス
  6
Continuous
 62
    64
100
AcDbCircle
 10
72.06801400000001
 20
-79.429576
 30
0.0
 40
0.104978
100
AcDbArc
 50
90.0
 51
117.278033
  0
LINE
  5
2A7
330
299
100
AcDbEntity
  8
ボルト／ビス
  6
Continuous
 62
    64
100
AcDbLine
 10
71.7633
 20
-79.324597
 30
0.0
 11
72.08405000000001
 21
-79.324597
 31
0.0
  0
LINE
  5
2A8
330
299
100
AcDbEntity
  8
ボルト／ビス
  6
Continuous
 62
    64
100
AcDbLine
 10
72.116125
 20
-79.33627199999999
 30
0.0
 11
72.116125
 21
-79.457932
 31
0.0
  0
LINE
  5
2A9
330
299
100
AcDbEntity
  8
ボルト／ビス
  6
Continuous
 62
    64
100
AcDbLine
 10
72.01990000000001
 20
-79.33627199999999
 30
0.0
 11
72.01990000000001
 21
-79.457932
 31
0.0
  0
LINE
  5
2AA
330
299
100
AcDbEntity
  8
ボルト／ビス
  6
Continuous
 62
    64
100
AcDbLine
 10
71.731225
 20
-79.33627199999999
 30
0.0
 11
71.731225
 21
-79.457932
 31
0.0
  0
LINE
  5
2AB
330
299
100
AcDbEntity
  8
ボルト／ビス
  6
Continuous
 62
    64
100
AcDbLine
 10
71.82745
 20
-79.33627199999999
 30
0.0
 11
71.82745
 21
-79.457932
 31
0.0
  0
LINE
  5
2AC
330
299
100
AcDbEntity
  8
ボルト／ビス
  6
Continuous
100
AcDbLine
 10
71.731225
 20
-79.457932
 30
0.0
 11
72.116125
 21
-79.457932
 31
0.0
  0
LINE
  5
2AD
330
299
100
AcDbEntity
  8
ボルト／ビス
  6
Continuous
100
AcDbLine
 10
71.723675
 20
-79.457932
 30
0.0
 11
71.723675
 21
-79.524597
 31
0.0
  0
LINE
  5
2AE
330
299
100
AcDbEntity
  8
ボルト／ビス
  6
Continuous
100
AcDbLine
 10
71.723675
 20
-79.457932
 30
0.0
 11
72.12367500000001
 21
-79.457932
 31
0.0
  0
LINE
  5
2AF
330
299
100
AcDbEntity
  8
ボルト／ビス
  6
Continuous
100
AcDbLine
 10
72.12367500000001
 20
-79.457932
 30
0.0
 11
72.12367500000001
 21
-79.524597
 31
0.0
  0
ENDBLK
  5
2B0
330
299
100
AcDbEntity
  8
0
100
AcDbBlockEnd
  0
BLOCK
  5
2B1
330
2B2
100
AcDbEntity
  8
0
100
AcDbBlockBegin
  2
*U27
 70
     1
 71
     0
 10
0.0
 20
0.0
 30
0.0
  3
*U27
  1

  0
LINE
  5
2B3
330
2B2
100
AcDbEntity
  8
ボルト／ビス
  6
Continuous
100
AcDbLine
 10
160.790272
 20
12.73238
 30
0.0
 11
160.323608
 21
12.73238
 31
0.0
  0
LINE
  5
2B4
330
2B2
100
AcDbEntity
  8
ボルト／ビス
  6
Continuous
100
AcDbLine
 10
160.790272
 20
12.365712
 30
0.0
 11
160.723608
 21
12.365712
 31
0.0
  0
LINE
  5
2B5
330
2B2
100
AcDbEntity
  8
ボルト／ビス
  6
Continuous
100
AcDbLine
 10
160.723608
 20
12.365712
 30
0.0
 11
160.723608
 21
13.099048
 31
0.0
  0
LINE
  5
2B6
330
2B2
100
AcDbEntity
  8
ボルト／ビス
  6
Continuous
100
AcDbLine
 10
160.723608
 20
13.099048
 30
0.0
 11
160.790272
 21
13.099048
 31
0.0
  0
LINE
  5
2B7
330
2B2
100
AcDbEntity
  8
ボルト／ビス
  6
Continuous
100
AcDbLine
 10
160.790272
 20
12.365712
 30
0.0
 11
160.790272
 21
13.099048
 31
0.0
  0
LINE
  5
2B8
330
2B2
100
AcDbEntity
  8
ボルト／ビス
  6
Continuous
100
AcDbLine
 10
160.690272
 20
12.43238
 30
0.0
 11
160.723608
 21
12.43238
 31
0.0
  0
LINE
  5
2B9
330
2B2
100
AcDbEntity
  8
ボルト／ビス
  6
Continuous
100
AcDbLine
 10
160.690272
 20
12.43238
 30
0.0
 11
160.690272
 21
13.03238
 31
0.0
  0
LINE
  5
2BA
330
2B2
100
AcDbEntity
  8
ボルト／ビス
  6
Continuous
100
AcDbLine
 10
160.690272
 20
13.03238
 30
0.0
 11
160.723608
 21
13.03238
 31
0.0
  0
LINE
  5
2BB
330
2B2
100
AcDbEntity
  8
ボルト／ビス
  6
Continuous
 62
    64
100
AcDbLine
 10
160.490273
 20
12.572005
 30
0.0
 11
160.501947
 21
12.53993
 31
0.0
  0
ARC
  5
2BC
330
2B2
100
AcDbEntity
  8
ボルト／ビス
  6
Continuous
 62
    64
100
AcDbCircle
 10
160.595252
 20
12.588044
 30
0.0
 40
0.104978
100
AcDbArc
 50
152.721967
 51
180.0
  0
ARC
  5
2BD
330
2B2
100
AcDbEntity
  8
ボルト／ビス
  6
Continuous
 62
    64
100
AcDbCircle
 10
160.892676
 20
12.732381
 30
0.0
 40
0.402402
100
AcDbArc
 50
166.165002
 51
193.834985
  0
LINE
  5
2BE
330
2B2
100
AcDbEntity
  8
ボルト／ビス
  6
Continuous
 62
    64
100
AcDbLine
 10
160.490273
 20
12.892755
 30
0.0
 11
160.501947
 21
12.92483
 31
0.0
  0
ARC
  5
2BF
330
2B2
100
AcDbEntity
  8
ボルト／ビス
  6
Continuous
 62
    64
100
AcDbCircle
 10
160.595252
 20
12.876719
 30
0.0
 40
0.104978
100
AcDbArc
 50
180.0
 51
207.278033
  0
LINE
  5
2C0
330
2B2
100
AcDbEntity
  8
ボルト／ビス
  6
Continuous
 62
    64
100
AcDbLine
 10
160.490273
 20
12.572005
 30
0.0
 11
160.490273
 21
12.892755
 31
0.0
  0
LINE
  5
2C1
330
2B2
100
AcDbEntity
  8
ボルト／ビス
  6
Continuous
 62
    64
100
AcDbLine
 10
160.501947
 20
12.92483
 30
0.0
 11
160.623608
 21
12.92483
 31
0.0
  0
LINE
  5
2C2
330
2B2
100
AcDbEntity
  8
ボルト／ビス
  6
Continuous
 62
    64
100
AcDbLine
 10
160.501947
 20
12.828605
 30
0.0
 11
160.623608
 21
12.828605
 31
0.0
  0
LINE
  5
2C3
330
2B2
100
AcDbEntity
  8
ボルト／ビス
  6
Continuous
 62
    64
100
AcDbLine
 10
160.501947
 20
12.53993
 30
0.0
 11
160.623608
 21
12.53993
 31
0.0
  0
LINE
  5
2C4
330
2B2
100
AcDbEntity
  8
ボルト／ビス
  6
Continuous
 62
    64
100
AcDbLine
 10
160.501947
 20
12.636155
 30
0.0
 11
160.623608
 21
12.636155
 31
0.0
  0
LINE
  5
2C5
330
2B2
100
AcDbEntity
  8
ボルト／ビス
  6
Continuous
100
AcDbLine
 10
160.623608
 20
12.53993
 30
0.0
 11
160.623608
 21
12.92483
 31
0.0
  0
LINE
  5
2C6
330
2B2
100
AcDbEntity
  8
ボルト／ビス
  6
Continuous
100
AcDbLine
 10
160.623608
 20
12.53238
 30
0.0
 11
160.690272
 21
12.53238
 31
0.0
  0
LINE
  5
2C7
330
2B2
100
AcDbEntity
  8
ボルト／ビス
  6
Continuous
100
AcDbLine
 10
160.623608
 20
12.53238
 30
0.0
 11
160.623608
 21
12.93238
 31
0.0
  0
LINE
  5
2C8
330
2B2
100
AcDbEntity
  8
ボルト／ビス
  6
Continuous
100
AcDbLine
 10
160.623608
 20
12.93238
 30
0.0
 11
160.690272
 21
12.93238
 31
0.0
  0
ENDBLK
  5
2C9
330
2B2
100
AcDbEntity
  8
0
100
AcDbBlockEnd
  0
BLOCK
  5
2CA
330
2CB
100
AcDbEntity
  8
0
100
AcDbBlockBegin
  2
*U28
 70
     1
 71
     0
 10
0.0
 20
0.0
 30
0.0
  3
*U28
  1

  0
LINE
  5
2CC
330
2CB
100
AcDbEntity
  8
ボルト／ビス
  6
Continuous
100
AcDbLine
 10
160.790272
 20
44.065715
 30
0.0
 11
160.323608
 21
44.065715
 31
0.0
  0
LINE
  5
2CD
330
2CB
100
AcDbEntity
  8
ボルト／ビス
  6
Continuous
100
AcDbLine
 10
160.790272
 20
43.699048
 30
0.0
 11
160.723608
 21
43.699048
 31
0.0
  0
LINE
  5
2CE
330
2CB
100
AcDbEntity
  8
ボルト／ビス
  6
Continuous
100
AcDbLine
 10
160.723608
 20
43.699048
 30
0.0
 11
160.723608
 21
44.432382
 31
0.0
  0
LINE
  5
2CF
330
2CB
100
AcDbEntity
  8
ボルト／ビス
  6
Continuous
100
AcDbLine
 10
160.723608
 20
44.432382
 30
0.0
 11
160.790272
 21
44.432382
 31
0.0
  0
LINE
  5
2D0
330
2CB
100
AcDbEntity
  8
ボルト／ビス
  6
Continuous
100
AcDbLine
 10
160.790272
 20
43.699048
 30
0.0
 11
160.790272
 21
44.432382
 31
0.0
  0
LINE
  5
2D1
330
2CB
100
AcDbEntity
  8
ボルト／ビス
  6
Continuous
100
AcDbLine
 10
160.690272
 20
43.765715
 30
0.0
 11
160.723608
 21
43.765715
 31
0.0
  0
LINE
  5
2D2
330
2CB
100
AcDbEntity
  8
ボルト／ビス
  6
Continuous
100
AcDbLine
 10
160.690272
 20
43.765715
 30
0.0
 11
160.690272
 21
44.365715
 31
0.0
  0
LINE
  5
2D3
330
2CB
100
AcDbEntity
  8
ボルト／ビス
  6
Continuous
100
AcDbLine
 10
160.690272
 20
44.365715
 30
0.0
 11
160.723608
 21
44.365715
 31
0.0
  0
LINE
  5
2D4
330
2CB
100
AcDbEntity
  8
ボルト／ビス
  6
Continuous
 62
    64
100
AcDbLine
 10
160.490273
 20
43.90534
 30
0.0
 11
160.501947
 21
43.873265
 31
0.0
  0
ARC
  5
2D5
330
2CB
100
AcDbEntity
  8
ボルト／ビス
  6
Continuous
 62
    64
100
AcDbCircle
 10
160.595252
 20
43.921379
 30
0.0
 40
0.104978
100
AcDbArc
 50
152.721967
 51
180.0
  0
ARC
  5
2D6
330
2CB
100
AcDbEntity
  8
ボルト／ビス
  6
Continuous
 62
    64
100
AcDbCircle
 10
160.892676
 20
44.065716
 30
0.0
 40
0.402402
100
AcDbArc
 50
166.165002
 51
193.834985
  0
LINE
  5
2D7
330
2CB
100
AcDbEntity
  8
ボルト／ビス
  6
Continuous
 62
    64
100
AcDbLine
 10
160.490273
 20
44.22609
 30
0.0
 11
160.501947
 21
44.258165
 31
0.0
  0
ARC
  5
2D8
330
2CB
100
AcDbEntity
  8
ボルト／ビス
  6
Continuous
 62
    64
100
AcDbCircle
 10
160.595252
 20
44.210054
 30
0.0
 40
0.104978
100
AcDbArc
 50
180.0
 51
207.278033
  0
LINE
  5
2D9
330
2CB
100
AcDbEntity
  8
ボルト／ビス
  6
Continuous
 62
    64
100
AcDbLine
 10
160.490273
 20
43.90534
 30
0.0
 11
160.490273
 21
44.22609
 31
0.0
  0
LINE
  5
2DA
330
2CB
100
AcDbEntity
  8
ボルト／ビス
  6
Continuous
 62
    64
100
AcDbLine
 10
160.501947
 20
44.258165
 30
0.0
 11
160.623608
 21
44.258165
 31
0.0
  0
LINE
  5
2DB
330
2CB
100
AcDbEntity
  8
ボルト／ビス
  6
Continuous
 62
    64
100
AcDbLine
 10
160.501947
 20
44.16194
 30
0.0
 11
160.623608
 21
44.16194
 31
0.0
  0
LINE
  5
2DC
330
2CB
100
AcDbEntity
  8
ボルト／ビス
  6
Continuous
 62
    64
100
AcDbLine
 10
160.501947
 20
43.873265
 30
0.0
 11
160.623608
 21
43.873265
 31
0.0
  0
LINE
  5
2DD
330
2CB
100
AcDbEntity
  8
ボルト／ビス
  6
Continuous
 62
    64
100
AcDbLine
 10
160.501947
 20
43.96949
 30
0.0
 11
160.623608
 21
43.96949
 31
0.0
  0
LINE
  5
2DE
330
2CB
100
AcDbEntity
  8
ボルト／ビス
  6
Continuous
100
AcDbLine
 10
160.623608
 20
43.873265
 30
0.0
 11
160.623608
 21
44.258165
 31
0.0
  0
LINE
  5
2DF
330
2CB
100
AcDbEntity
  8
ボルト／ビス
  6
Continuous
100
AcDbLine
 10
160.623608
 20
43.865715
 30
0.0
 11
160.690272
 21
43.865715
 31
0.0
  0
LINE
  5
2E0
330
2CB
100
AcDbEntity
  8
ボルト／ビス
  6
Continuous
100
AcDbLine
 10
160.623608
 20
43.865715
 30
0.0
 11
160.623608
 21
44.265715
 31
0.0
  0
LINE
  5
2E1
330
2CB
100
AcDbEntity
  8
ボルト／ビス
  6
Continuous
100
AcDbLine
 10
160.623608
 20
44.265715
 30
0.0
 11
160.690272
 21
44.265715
 31
0.0
  0
ENDBLK
  5
2E2
330
2CB
100
AcDbEntity
  8
0
100
AcDbBlockEnd
  0
ENDSEC
  0
SECTION
  2
ENTITIES
  0
LWPOLYLINE
  5
2E3
330
1D
100
AcDbEntity
  8
通り芯
  6
Continuous
100
AcDbPolyline
 90
        4
 70
     1
 43
0.0
 10
-210.0
 20
-148.5
 10
210.0
 20
-148.5
 10
210.0
 20
148.5
 10
-210.0
 20
148.5
  0
INSERT
  5
2E9
330
1D
100
AcDbEntity
  8
型材断面
  6
Continuous
100
AcDbBlockReference
  2
*U0
 10
0.0
 20
0.0
 30
0.0
  0
LINE
  5
2EA
330
1D
100
AcDbEntity
  8
型材断面
  6
DASHDOT
100
AcDbLine
 10
-128.742993
 20
13.399048
 30
0.0
 11
168.93377
 21
13.399048
 31
0.0
  0
LINE
  5
2EB
330
1D
100
AcDbEntity
  8
型材断面
  6
DASHDOT
100
AcDbLine
 10
-128.742993
 20
28.399048
 30
0.0
 11
168.93377
 21
28.399048
 31
0.0
  0
LINE
  5
2EC
330
1D
100
AcDbEntity
  8
型材断面
  6
DASHDOT
100
AcDbLine
 10
-128.742993
 20
43.399048
 30
0.0
 11
168.93377
 21
43.399048
 31
0.0
  0
LINE
  5
2ED
330
1D
100
AcDbEntity
  8
型材断面
  6
DASHDOT
100
AcDbLine
 10
-128.742993
 20
-87.251428
 30
0.0
 11
-128.742993
 21
43.399048
 31
0.0
  0
LINE
  5
2EE
330
1D
100
AcDbEntity
  8
型材断面
  6
DASHDOT
100
AcDbLine
 10
-28.742993
 20
-87.251428
 30
0.0
 11
-28.742993
 21
43.399048
 31
0.0
  0
LINE
  5
2EF
330
1D
100
AcDbEntity
  8
型材断面
  6
DOT
100
AcDbLine
 10
-29.992993
 20
13.399048
 30
0.0
 11
-29.992993
 21
43.399048
 31
0.0
  0
LINE
  5
2F0
330
1D
100
AcDbEntity
  8
型材断面
  6
DOT
100
AcDbLine
 10
-27.492993
 20
13.399048
 30
0.0
 11
-27.492993
 21
43.399048
 31
0.0
  0
LINE
  5
2F1
330
1D
100
AcDbEntity
  8
型材断面
  6
DASHDOT
100
AcDbLine
 10
71.257007
 20
-87.251428
 30
0.0
 11
71.257007
 21
43.399048
 31
0.0
  0
LINE
  5
2F2
330
1D
100
AcDbEntity
  8
型材断面
  6
Continuous
100
AcDbLine
 10
-112.076325
 20
46.029177
 30
0.0
 11
-113.571955
 21
48.619685
 31
0.0
  0
LINE
  5
2F3
330
1D
100
AcDbEntity
  8
型材断面
  6
Continuous
100
AcDbLine
 10
-112.076325
 20
46.029177
 30
0.0
 11
-110.580695
 21
48.619685
 31
0.0
  0
LINE
  5
2F4
330
1D
100
AcDbEntity
  8
型材断面
  6
Continuous
100
AcDbLine
 10
-110.580695
 20
48.619685
 30
0.0
 11
-113.571955
 21
48.619685
 31
0.0
  0
LINE
  5
2F5
330
1D
100
AcDbEntity
  8
型材断面
  6
Continuous
100
AcDbLine
 10
-169.5952
 20
87.906395
 30
0.0
 11
-171.09083
 21
85.315887
 31
0.0
  0
LINE
  5
2F6
330
1D
100
AcDbEntity
  8
型材断面
  6
Continuous
100
AcDbLine
 10
-169.5952
 20
87.906395
 30
0.0
 11
-168.09957
 21
85.315887
 31
0.0
  0
LINE
  5
2F7
330
1D
100
AcDbEntity
  8
型材断面
  6
Continuous
100
AcDbLine
 10
-168.09957
 20
85.315887
 30
0.0
 11
-171.09083
 21
85.315887
 31
0.0
  0
LINE
  5
2F8
330
1D
100
AcDbEntity
  8
型材断面
  6
Continuous
100
AcDbLine
 10
-175.617788
 20
84.377292
 30
0.0
 11
-129.37601
 21
84.377292
 31
0.0
  0
LINE
  5
2F9
330
1D
100
AcDbEntity
  8
型材断面
  6
Continuous
100
AcDbLine
 10
-131.373123
 20
28.399048
 30
0.0
 11
-133.96363
 21
29.894678
 31
0.0
  0
LINE
  5
2FA
330
1D
100
AcDbEntity
  8
型材断面
  6
Continuous
100
AcDbLine
 10
-131.373123
 20
28.399048
 30
0.0
 11
-133.96363
 21
26.903418
 31
0.0
  0
LINE
  5
2FB
330
1D
100
AcDbEntity
  8
型材断面
  6
Continuous
100
AcDbLine
 10
-133.96363
 20
26.903418
 30
0.0
 11
-133.96363
 21
29.894678
 31
0.0
  0
LINE
  5
2FC
330
1D
100
AcDbEntity
  8
型材断面
  6
Continuous
100
AcDbLine
 10
-112.076325
 20
10.768917
 30
0.0
 11
-113.571955
 21
8.17841
 31
0.0
  0
LINE
  5
2FD
330
1D
100
AcDbEntity
  8
型材断面
  6
Continuous
100
AcDbLine
 10
-112.076325
 20
10.768917
 30
0.0
 11
-110.580695
 21
8.17841
 31
0.0
  0
LINE
  5
2FE
330
1D
100
AcDbEntity
  8
型材断面
  6
Continuous
100
AcDbLine
 10
-110.580695
 20
8.17841
 30
0.0
 11
-113.571955
 21
8.17841
 31
0.0
  0
LINE
  5
2FF
330
1D
100
AcDbEntity
  8
型材断面
  6
Continuous
100
AcDbLine
 10
54.59034
 20
46.029177
 30
0.0
 11
56.08597
 21
48.619685
 31
0.0
  0
LINE
  5
300
330
1D
100
AcDbEntity
  8
型材断面
  6
Continuous
100
AcDbLine
 10
54.59034
 20
46.029177
 30
0.0
 11
53.09471
 21
48.619685
 31
0.0
  0
LINE
  5
301
330
1D
100
AcDbEntity
  8
型材断面
  6
Continuous
100
AcDbLine
 10
53.09471
 20
48.619685
 30
0.0
 11
56.08597
 21
48.619685
 31
0.0
  0
LINE
  5
302
330
1D
100
AcDbEntity
  8
型材断面
  6
Continuous
100
AcDbLine
 10
54.59034
 20
10.768917
 30
0.0
 11
56.08597
 21
8.17841
 31
0.0
  0
LINE
  5
303
330
1D
100
AcDbEntity
  8
型材断面
  6
Continuous
100
AcDbLine
 10
54.59034
 20
10.768917
 30
0.0
 11
53.09471
 21
8.17841
 31
0.0
  0
LINE
  5
304
330
1D
100
AcDbEntity
  8
型材断面
  6
Continuous
100
AcDbLine
 10
53.09471
 20
8.17841
 30
0.0
 11
56.08597
 21
8.17841
 31
0.0
  0
LINE
  5
305
330
1D
100
AcDbEntity
  8
型材断面
  6
Continuous
100
AcDbLine
 10
-28.742993
 20
46.029175
 30
0.0
 11
-27.247362
 21
48.619683
 31
0.0
  0
LINE
  5
306
330
1D
100
AcDbEntity
  8
型材断面
  6
Continuous
100
AcDbLine
 10
-28.742993
 20
46.029175
 30
0.0
 11
-30.238623
 21
48.619683
 31
0.0
  0
LINE
  5
307
330
1D
100
AcDbEntity
  8
型材断面
  6
Continuous
100
AcDbLine
 10
-30.238623
 20
48.619683
 30
0.0
 11
-27.247362
 21
48.619683
 31
0.0
  0
LINE
  5
308
330
1D
100
AcDbEntity
  8
型材断面
  6
Continuous
100
AcDbLine
 10
-28.742993
 20
10.768915
 30
0.0
 11
-27.247362
 21
8.178407
 31
0.0
  0
LINE
  5
309
330
1D
100
AcDbEntity
  8
型材断面
  6
Continuous
100
AcDbLine
 10
-28.742993
 20
10.768915
 30
0.0
 11
-30.238623
 21
8.178407
 31
0.0
  0
LINE
  5
30A
330
1D
100
AcDbEntity
  8
型材断面
  6
Continuous
100
AcDbLine
 10
-30.238623
 20
8.178407
 30
0.0
 11
-27.247362
 21
8.178407
 31
0.0
  0
LINE
  5
30B
330
1D
100
AcDbEntity
  8
型材断面
  6
Continuous
100
AcDbLine
 10
73.88713799999999
 20
28.399048
 30
0.0
 11
76.477645
 21
29.894678
 31
0.0
  0
LINE
  5
30C
330
1D
100
AcDbEntity
  8
型材断面
  6
Continuous
100
AcDbLine
 10
73.88713799999999
 20
28.399048
 30
0.0
 11
76.477645
 21
26.903418
 31
0.0
  0
LINE
  5
30D
330
1D
100
AcDbEntity
  8
型材断面
  6
Continuous
100
AcDbLine
 10
76.477645
 20
26.903418
 30
0.0
 11
76.477645
 21
29.894678
 31
0.0
  0
LINE
  5
30E
330
1D
100
AcDbEntity
  8
型材断面
  6
Continuous
100
AcDbLine
 10
-175.617788
 20
78.745947
 30
0.0
 11
-129.37601
 21
78.745947
 31
0.0
  0
LINE
  5
30F
330
1D
100
AcDbEntity
  8
型材断面
  6
Continuous
100
AcDbLine
 10
73.32367499999999
 20
45.465715
 30
0.0
 11
74.42367299999999
 21
46.565712
 31
0.0
  0
LINE
  5
310
330
1D
100
AcDbEntity
  8
型材断面
  6
Continuous
100
AcDbLine
 10
74.42367299999999
 20
46.565712
 30
0.0
 11
74.42367299999999
 21
10.232382
 31
0.0
  0
LINE
  5
311
330
1D
100
AcDbEntity
  8
型材断面
  6
Continuous
100
AcDbLine
 10
73.32367499999999
 20
11.33238
 30
0.0
 11
74.42367299999999
 21
10.232382
 31
0.0
  0
LINE
  5
312
330
1D
100
AcDbEntity
  8
型材断面
  6
Continuous
100
AcDbLine
 10
74.42367299999999
 20
10.232382
 30
0.0
 11
-131.909657
 21
10.232382
 31
0.0
  0
LINE
  5
313
330
1D
100
AcDbEntity
  8
型材断面
  6
Continuous
100
AcDbLine
 10
-130.80966
 20
11.33238
 30
0.0
 11
-131.909657
 21
10.232382
 31
0.0
  0
LINE
  5
314
330
1D
100
AcDbEntity
  8
型材断面
  6
Continuous
100
AcDbLine
 10
74.42367299999999
 20
46.565712
 30
0.0
 11
-131.909657
 21
46.565712
 31
0.0
  0
LINE
  5
315
330
1D
100
AcDbEntity
  8
型材断面
  6
Continuous
100
AcDbLine
 10
-131.909657
 20
10.232382
 30
0.0
 11
-131.909657
 21
46.565712
 31
0.0
  0
LINE
  5
316
330
1D
100
AcDbEntity
  8
型材断面
  6
Continuous
100
AcDbLine
 10
-130.80966
 20
45.465715
 30
0.0
 11
-131.909657
 21
46.565712
 31
0.0
  0
LINE
  5
317
330
1D
100
AcDbEntity
  8
型材断面
  6
DASHDOT
100
AcDbLine
 10
-95.652992
 20
13.399048
 30
0.0
 11
-95.652992
 21
43.399048
 31
0.0
  0
LINE
  5
318
330
1D
100
AcDbEntity
  8
型材断面
  6
DOT
100
AcDbLine
 10
-96.902992
 20
13.399048
 30
0.0
 11
-96.902992
 21
43.399048
 31
0.0
  0
LINE
  5
319
330
1D
100
AcDbEntity
  8
型材断面
  6
DOT
100
AcDbLine
 10
-94.402992
 20
13.399048
 30
0.0
 11
-94.402992
 21
43.399048
 31
0.0
  0
LINE
  5
31A
330
1D
100
AcDbEntity
  8
型材断面
  6
DOT
100
AcDbLine
 10
-63.446325
 20
13.399048
 30
0.0
 11
-63.446325
 21
43.399048
 31
0.0
  0
LINE
  5
31B
330
1D
100
AcDbEntity
  8
型材断面
  6
DOT
100
AcDbLine
 10
-60.946325
 20
13.399048
 30
0.0
 11
-60.946325
 21
43.399048
 31
0.0
  0
LINE
  5
31C
330
1D
100
AcDbEntity
  8
型材断面
  6
DASHDOT
100
AcDbLine
 10
-62.196325
 20
13.399048
 30
0.0
 11
-62.196325
 21
43.399048
 31
0.0
  0
LINE
  5
31D
330
1D
100
AcDbEntity
  8
型材断面
  6
DASHDOT
100
AcDbLine
 10
38.167007
 20
13.399048
 30
0.0
 11
38.167007
 21
43.399048
 31
0.0
  0
LINE
  5
31E
330
1D
100
AcDbEntity
  8
型材断面
  6
DOT
100
AcDbLine
 10
39.417007
 20
13.399048
 30
0.0
 11
39.417007
 21
43.399048
 31
0.0
  0
LINE
  5
31F
330
1D
100
AcDbEntity
  8
型材断面
  6
DOT
100
AcDbLine
 10
36.917007
 20
13.399048
 30
0.0
 11
36.917007
 21
43.399048
 31
0.0
  0
LINE
  5
320
330
1D
100
AcDbEntity
  8
型材断面
  6
DOT
100
AcDbLine
 10
5.96034
 20
13.399048
 30
0.0
 11
5.96034
 21
43.399048
 31
0.0
  0
LINE
  5
321
330
1D
100
AcDbEntity
  8
型材断面
  6
DOT
100
AcDbLine
 10
3.46034
 20
13.399048
 30
0.0
 11
3.46034
 21
43.399048
 31
0.0
  0
LINE
  5
322
330
1D
100
AcDbEntity
  8
型材断面
  6
DASHDOT
100
AcDbLine
 10
4.71034
 20
13.399048
 30
0.0
 11
4.71034
 21
43.399048
 31
0.0
  0
LINE
  5
323
330
1D
100
AcDbEntity
  8
型材断面
  6
Continuous
 62
    14
100
AcDbLine
 10
164.623842
 20
46.565712
 30
0.0
 11
164.123842
 21
46.565712
 31
0.0
  0
LINE
  5
324
330
1D
100
AcDbEntity
  8
型材断面
  6
Continuous
100
AcDbLine
 10
163.957178
 20
44.732378
 30
0.0
 11
164.123842
 21
46.565712
 31
0.0
  0
LINE
  5
325
330
1D
100
AcDbEntity
  8
型材断面
  6
Continuous
100
AcDbLine
 10
164.123842
 20
46.565712
 30
0.0
 11
164.623842
 21
46.565712
 31
0.0
  0
LINE
  5
326
330
1D
100
AcDbEntity
  8
型材断面
  6
Continuous
100
AcDbLine
 10
164.623842
 20
45.732378
 30
0.0
 11
164.957178
 21
45.732378
 31
0.0
  0
LWPOLYLINE
  5
327
330
1D
100
AcDbEntity
  8
型材断面
  6
Continuous
100
AcDbPolyline
 90
        3
 70
     0
 43
0.0
 10
161.790272
 20
44.59905
 10
162.14051
 20
44.59905
 10
162.273842
 20
44.732382
  0
LINE
  5
32C
330
1D
100
AcDbEntity
  8
型材断面
  6
Continuous
100
AcDbLine
 10
163.957178
 20
44.732378
 30
0.0
 11
162.273838
 21
44.732378
 31
0.0
  0
LINE
  5
32D
330
1D
100
AcDbEntity
  8
型材断面
  6
Continuous
 62
    14
100
AcDbLine
 10
164.623842
 20
10.23239
 30
0.0
 11
164.123842
 21
10.23239
 31
0.0
  0
LINE
  5
32E
330
1D
100
AcDbEntity
  8
型材断面
  6
Continuous
100
AcDbLine
 10
163.957178
 20
12.065725
 30
0.0
 11
164.123842
 21
10.23239
 31
0.0
  0
LINE
  5
32F
330
1D
100
AcDbEntity
  8
型材断面
  6
Continuous
100
AcDbLine
 10
164.123842
 20
10.23239
 30
0.0
 11
164.623842
 21
10.23239
 31
0.0
  0
LINE
  5
330
330
1D
100
AcDbEntity
  8
型材断面
  6
Continuous
100
AcDbLine
 10
164.623842
 20
11.065725
 30
0.0
 11
164.957178
 21
11.065725
 31
0.0
  0
LWPOLYLINE
  5
331
330
1D
100
AcDbEntity
  8
型材断面
  6
Continuous
100
AcDbPolyline
 90
        3
 70
     0
 43
0.0
 10
161.790272
 20
12.199052
 10
162.14051
 20
12.199052
 10
162.273842
 20
12.06572
  0
LINE
  5
336
330
1D
100
AcDbEntity
  8
型材断面
  6
Continuous
100
AcDbLine
 10
163.957178
 20
12.065725
 30
0.0
 11
162.273838
 21
12.065725
 31
0.0
  0
LINE
  5
337
330
1D
100
AcDbEntity
  8
型材断面
  6
Continuous
100
AcDbLine
 10
164.123842
 20
46.565712
 30
0.0
 11
164.123842
 21
10.23239
 31
0.0
  0
LINE
  5
338
330
1D
100
AcDbEntity
  8
型材断面
  6
Continuous
100
AcDbLine
 10
164.623842
 20
46.565712
 30
0.0
 11
164.623842
 21
10.23239
 31
0.0
  0
LINE
  5
339
330
1D
100
AcDbEntity
  8
型材断面
  6
Continuous
100
AcDbLine
 10
164.957175
 20
45.732378
 30
0.0
 11
164.957175
 21
11.065725
 31
0.0
  0
LINE
  5
33A
330
1D
100
AcDbEntity
  8
型材断面
  6
Continuous
100
AcDbLine
 10
163.957178
 20
44.732378
 30
0.0
 11
163.957178
 21
12.065725
 31
0.0
  0
LINE
  5
33B
330
1D
100
AcDbEntity
  8
型材断面
  6
Continuous
100
AcDbLine
 10
162.14051
 20
44.59905
 30
0.0
 11
162.14051
 21
12.199052
 31
0.0
  0
LINE
  5
33C
330
1D
100
AcDbEntity
  8
型材断面
  6
Continuous
100
AcDbLine
 10
162.273842
 20
44.732382
 30
0.0
 11
162.273842
 21
12.06572
 31
0.0
  0
LINE
  5
33D
330
1D
100
AcDbEntity
  8
型材断面
  6
Continuous
 62
    14
100
AcDbLine
 10
74.42367299999999
 20
-83.458168
 30
0.0
 11
74.42367299999999
 21
-82.958168
 31
0.0
  0
LINE
  5
33E
330
1D
100
AcDbEntity
  8
型材断面
  6
Continuous
100
AcDbLine
 10
72.59033700000001
 20
-82.79150300000001
 30
0.0
 11
74.42367299999999
 21
-82.958168
 31
0.0
  0
LINE
  5
33F
330
1D
100
AcDbEntity
  8
型材断面
  6
Continuous
100
AcDbLine
 10
74.42367299999999
 20
-82.958168
 30
0.0
 11
74.42367299999999
 21
-83.458168
 31
0.0
  0
LINE
  5
340
330
1D
100
AcDbEntity
  8
型材断面
  6
Continuous
100
AcDbLine
 10
73.59033700000001
 20
-83.458168
 30
0.0
 11
73.59033700000001
 21
-83.79150300000001
 31
0.0
  0
LWPOLYLINE
  5
341
330
1D
100
AcDbEntity
  8
型材断面
  6
Continuous
100
AcDbPolyline
 90
        3
 70
     0
 43
0.0
 10
72.45701
 20
-80.62459699999999
 10
72.45701
 20
-80.974835
 10
72.590343
 20
-81.10816800000001
  0
LINE
  5
346
330
1D
100
AcDbEntity
  8
型材断面
  6
Continuous
100
AcDbLine
 10
72.59033700000001
 20
-82.79150300000001
 30
0.0
 11
72.59033700000001
 21
-81.10816199999999
 31
0.0
  0
LINE
  5
347
330
1D
100
AcDbEntity
  8
型材断面
  6
Continuous
 62
    14
100
AcDbLine
 10
-131.90965
 20
-83.458168
 30
0.0
 11
-131.90965
 21
-82.958168
 31
0.0
  0
LINE
  5
348
330
1D
100
AcDbEntity
  8
型材断面
  6
Continuous
100
AcDbLine
 10
-130.076315
 20
-82.79150300000001
 30
0.0
 11
-131.90965
 21
-82.958168
 31
0.0
  0
LINE
  5
349
330
1D
100
AcDbEntity
  8
型材断面
  6
Continuous
100
AcDbLine
 10
-131.90965
 20
-82.958168
 30
0.0
 11
-131.90965
 21
-83.458168
 31
0.0
  0
LINE
  5
34A
330
1D
100
AcDbEntity
  8
型材断面
  6
Continuous
100
AcDbLine
 10
-131.076315
 20
-83.458168
 30
0.0
 11
-131.076315
 21
-83.79150300000001
 31
0.0
  0
LWPOLYLINE
  5
34B
330
1D
100
AcDbEntity
  8
型材断面
  6
Continuous
100
AcDbPolyline
 90
        3
 70
     0
 43
0.0
 10
-129.942987
 20
-80.62459699999999
 10
-129.942987
 20
-80.974835
 10
-130.07632
 20
-81.10816800000001
  0
LINE
  5
350
330
1D
100
AcDbEntity
  8
型材断面
  6
Continuous
100
AcDbLine
 10
-130.076315
 20
-82.79150300000001
 30
0.0
 11
-130.076315
 21
-81.10816199999999
 31
0.0
  0
LINE
  5
351
330
1D
100
AcDbEntity
  8
型材断面
  6
Continuous
100
AcDbLine
 10
74.42367299999999
 20
-82.958168
 30
0.0
 11
-131.90965
 21
-82.958168
 31
0.0
  0
LINE
  5
352
330
1D
100
AcDbEntity
  8
型材断面
  6
Continuous
100
AcDbLine
 10
74.42367299999999
 20
-83.458168
 30
0.0
 11
-131.90965
 21
-83.458168
 31
0.0
  0
LINE
  5
353
330
1D
100
AcDbEntity
  8
型材断面
  6
Continuous
100
AcDbLine
 10
73.59033700000001
 20
-83.7915
 30
0.0
 11
-131.076315
 21
-83.7915
 31
0.0
  0
LINE
  5
354
330
1D
100
AcDbEntity
  8
型材断面
  6
Continuous
100
AcDbLine
 10
72.59033700000001
 20
-82.79150300000001
 30
0.0
 11
-130.076315
 21
-82.79150300000001
 31
0.0
  0
LINE
  5
355
330
1D
100
AcDbEntity
  8
型材断面
  6
Continuous
100
AcDbLine
 10
72.45701
 20
-80.974835
 30
0.0
 11
-129.942987
 21
-80.974835
 31
0.0
  0
LINE
  5
356
330
1D
100
AcDbEntity
  8
型材断面
  6
Continuous
100
AcDbLine
 10
72.590343
 20
-81.10816800000001
 30
0.0
 11
-130.07632
 21
-81.10816800000001
 31
0.0
  0
TEXT
  5
357
330
1D
100
AcDbEntity
  8
文字
  6
Continuous
100
AcDbText
 10
-166.775
 20
85.52500000000001
 30
0.0
 40
3.0
  1
は排水穴位置を示す
  7
TextStyle03
 72
     5
 11
-136.775
 21
85.52500000000001
 31
0.0
100
AcDbText
  0
TEXT
  5
358
330
1D
100
AcDbEntity
  8
文字
  6
Continuous
100
AcDbText
 10
137.0
 20
-72.77500000000001
 30
0.0
 40
3.0
  1
網入り6.8t
  7
TextStyle03
 72
     5
 11
153.6875
 21
-72.77500000000001
 31
0.0
100
AcDbText
  0
TEXT
  5
359
330
1D
100
AcDbEntity
  8
文字
  6
Continuous
100
AcDbText
 10
143.675
 20
-77.45
 30
0.0
 40
3.0
  1
×６枚
  7
TextStyle03
 72
     5
 11
153.425
 21
-77.45
 31
0.0
100
AcDbText
  0
TEXT
  5
35A
330
1D
100
AcDbEntity
  8
文字
  6
Continuous
100
AcDbText
 10
-149.7
 20
6.875
 30
0.0
 40
3.0
  1
アンカーピッチ
 50
90.0
  7
TextStyle03
 72
     5
 11
-149.7
 21
30.125
 31
0.0
100
AcDbText
  0
TEXT
  5
35B
330
1D
100
AcDbEntity
  8
文字
  6
Continuous
100
AcDbText
 10
-115.3
 20
80.55
 30
0.0
 40
3.0
  1
アンカーピッチ
  7
TextStyle03
 72
     5
 11
-92.05
 21
80.55
 31
0.0
100
AcDbText
  0
TEXT
  5
35C
330
1D
100
AcDbEntity
  8
文字
  6
Continuous
100
AcDbText
 10
-170.5
 20
79.675
 30
0.0
 40
3.0
  1
アンカー数量　２２ヶ所
  7
TextStyle03
 72
     5
 11
-133.75
 21
79.675
 31
0.0
100
AcDbText
  0
TEXT
  5
35D
330
1D
100
AcDbEntity
  8
文字
  6
Continuous
100
AcDbText
 10
77.65000000000001
 20
104.325
 30
0.0
 40
5.0
  1
ＮＳコード：ＮＳＫＬ
  7
TextStyle03
 72
     5
 11
133.275
 21
104.325
 31
0.0
100
AcDbText
  0
TEXT
  5
35E
330
1D
100
AcDbEntity
  8
文字
  6
Continuous
100
AcDbText
 10
78.09999999999999
 20
125.25
 30
0.0
 40
5.0
  1
シリーズ：ＴＤ１ＫＬ
  7
TextStyle03
 72
     5
 11
133.725
 21
125.25
 31
0.0
100
AcDbText
  0
TEXT
  5
35F
330
1D
100
AcDbEntity
  8
文字
  6
Continuous
100
AcDbText
 10
78.09999999999999
 20
119.625
 30
0.0
 40
5.0
  1
　　　　　（固定）900×6000タイプ
  7
TextStyle03
 72
     5
 11
170.2875
 21
119.625
 31
0.0
100
AcDbText
  0
TEXT
  5
360
330
1D
100
AcDbEntity
  8
文字
  6
Continuous
100
AcDbText
 10
78.09999999999999
 20
114.0
 30
0.0
 40
5.0
  1
図面名　：外観姿図
  7
TextStyle03
 72
     5
 11
128.1
 21
114.0
 31
0.0
100
AcDbText
  0
TEXT
  5
361
330
1D
100
AcDbEntity
  8
文字
  6
Continuous
100
AcDbText
 10
78.09999999999999
 20
108.375
 30
0.0
 40
5.0
  1
　　　　　　
  7
TextStyle03
 72
     5
 11
111.225
 21
108.375
 31
0.0
100
AcDbText
  0
INSERT
  5
362
330
1D
100
AcDbEntity
  8
寸法
  6
Continuous
100
AcDbBlockReference
  2
*U1
 10
0.0
 20
0.0
 30
0.0
  0
INSERT
  5
363
330
1D
100
AcDbEntity
  8
寸法
  6
Continuous
100
AcDbBlockReference
  2
*U2
 10
0.0
 20
0.0
 30
0.0
  0
INSERT
  5
364
330
1D
100
AcDbEntity
  8
寸法
  6
Continuous
100
AcDbBlockReference
  2
*U3
 10
0.0
 20
0.0
 30
0.0
  0
INSERT
  5
365
330
1D
100
AcDbEntity
  8
寸法
  6
Continuous
100
AcDbBlockReference
  2
*U5
 10
0.0
 20
0.0
 30
0.0
  0
INSERT
  5
366
330
1D
100
AcDbEntity
  8
寸法
  6
Continuous
100
AcDbBlockReference
  2
*U6
 10
0.0
 20
0.0
 30
0.0
  0
INSERT
  5
367
330
1D
100
AcDbEntity
  8
寸法
  6
Continuous
100
AcDbBlockReference
  2
*U7
 10
0.0
 20
0.0
 30
0.0
  0
INSERT
  5
368
330
1D
100
AcDbEntity
  8
寸法
  6
Continuous
100
AcDbBlockReference
  2
*U8
 10
0.0
 20
0.0
 30
0.0
  0
INSERT
  5
369
330
1D
100
AcDbEntity
  8
寸法
  6
Continuous
100
AcDbBlockReference
  2
*U9
 10
0.0
 20
0.0
 30
0.0
  0
INSERT
  5
36A
330
1D
100
AcDbEntity
  8
寸法
  6
Continuous
100
AcDbBlockReference
  2
*U10
 10
0.0
 20
0.0
 30
0.0
  0
INSERT
  5
36B
330
1D
100
AcDbEntity
  8
寸法
  6
Continuous
100
AcDbBlockReference
  2
*U11
 10
0.0
 20
0.0
 30
0.0
  0
INSERT
  5
36C
330
1D
100
AcDbEntity
  8
寸法
  6
Continuous
100
AcDbBlockReference
  2
*U12
 10
0.0
 20
0.0
 30
0.0
  0
INSERT
  5
36D
330
1D
100
AcDbEntity
  8
寸法
  6
Continuous
100
AcDbBlockReference
  2
*U13
 10
0.0
 20
0.0
 30
0.0
  0
INSERT
  5
36E
330
1D
100
AcDbEntity
  8
寸法
  6
Continuous
100
AcDbBlockReference
  2
*U14
 10
0.0
 20
0.0
 30
0.0
  0
INSERT
  5
36F
330
1D
100
AcDbEntity
  8
寸法
  6
Continuous
100
AcDbBlockReference
  2
*U15
 10
0.0
 20
0.0
 30
0.0
  0
INSERT
  5
370
330
1D
100
AcDbEntity
  8
寸法
  6
Continuous
100
AcDbBlockReference
  2
*U16
 10
0.0
 20
0.0
 30
0.0
  0
INSERT
  5
371
330
1D
100
AcDbEntity
  8
寸法
  6
Continuous
100
AcDbBlockReference
  2
*U17
 10
0.0
 20
0.0
 30
0.0
  0
INSERT
  5
372
330
1D
100
AcDbEntity
  8
寸法
  6
Continuous
100
AcDbBlockReference
  2
*U18
 10
0.0
 20
0.0
 30
0.0
  0
INSERT
  5
373
330
1D
100
AcDbEntity
  8
寸法
  6
Continuous
100
AcDbBlockReference
  2
*U19
 10
0.0
 20
0.0
 30
0.0
  0
INSERT
  5
374
330
1D
100
AcDbEntity
  8
寸法
  6
Continuous
100
AcDbBlockReference
  2
*U20
 10
0.0
 20
0.0
 30
0.0
  0
INSERT
  5
375
330
1D
100
AcDbEntity
  8
寸法
  6
Continuous
100
AcDbBlockReference
  2
*U21
 10
0.0
 20
0.0
 30
0.0
  0
INSERT
  5
376
330
1D
100
AcDbEntity
  8
寸法
  6
Continuous
100
AcDbBlockReference
  2
*U22
 10
0.0
 20
0.0
 30
0.0
  0
INSERT
  5
377
330
1D
100
AcDbEntity
  8
寸法
  6
Continuous
100
AcDbBlockReference
  2
*U23
 10
0.0
 20
0.0
 30
0.0
  0
INSERT
  5
378
330
1D
100
AcDbEntity
  8
寸法
  6
Continuous
100
AcDbBlockReference
  2
*U24
 10
0.0
 20
0.0
 30
0.0
  0
LINE
  5
379
330
1D
100
AcDbEntity
  8
別途部材
  6
Continuous
100
AcDbLine
 10
-130.80966
 20
11.33238
 30
0.0
 11
-130.40966
 21
11.73238
 31
0.0
  0
LINE
  5
37A
330
1D
100
AcDbEntity
  8
別途部材
  6
Continuous
100
AcDbLine
 10
-128.742993
 20
13.399048
 30
0.0
 11
-120.683738
 21
21.458305
 31
0.0
  0
LINE
  5
37B
330
1D
100
AcDbEntity
  8
別途部材
  6
Continuous
100
AcDbLine
 10
-130.40966
 20
11.73238
 30
0.0
 11
-28.742993
 21
11.73238
 31
0.0
  0
LINE
  5
37C
330
1D
100
AcDbEntity
  8
別途部材
  6
Continuous
100
AcDbLine
 10
-130.80966
 20
11.33238
 30
0.0
 11
-28.742993
 21
11.33238
 31
0.0
  0
LINE
  5
37D
330
1D
100
AcDbEntity
  8
別途部材
  6
Continuous
100
AcDbLine
 10
73.32367499999999
 20
11.33238
 30
0.0
 11
72.923675
 21
11.73238
 31
0.0
  0
LINE
  5
37E
330
1D
100
AcDbEntity
  8
別途部材
  6
Continuous
100
AcDbLine
 10
71.257007
 20
13.399048
 30
0.0
 11
63.197753
 21
21.458305
 31
0.0
  0
LINE
  5
37F
330
1D
100
AcDbEntity
  8
別途部材
  6
Continuous
100
AcDbLine
 10
72.923675
 20
11.73238
 30
0.0
 11
-28.742993
 21
11.73238
 31
0.0
  0
LINE
  5
380
330
1D
100
AcDbEntity
  8
別途部材
  6
Continuous
100
AcDbLine
 10
73.32367499999999
 20
11.33238
 30
0.0
 11
-28.742993
 21
11.33238
 31
0.0
  0
LINE
  5
381
330
1D
100
AcDbEntity
  8
別途部材
  6
Continuous
100
AcDbLine
 10
72.923675
 20
11.73238
 30
0.0
 11
72.923675
 21
28.399048
 31
0.0
  0
LINE
  5
382
330
1D
100
AcDbEntity
  8
別途部材
  6
Continuous
100
AcDbLine
 10
73.32367499999999
 20
11.33238
 30
0.0
 11
73.32367499999999
 21
28.399048
 31
0.0
  0
LINE
  5
383
330
1D
100
AcDbEntity
  8
別途部材
  6
Continuous
100
AcDbLine
 10
-130.80966
 20
11.33238
 30
0.0
 11
-130.80966
 21
28.399048
 31
0.0
  0
LINE
  5
384
330
1D
100
AcDbEntity
  8
別途部材
  6
Continuous
100
AcDbLine
 10
-130.40966
 20
11.73238
 30
0.0
 11
-130.40966
 21
28.399048
 31
0.0
  0
LINE
  5
385
330
1D
100
AcDbEntity
  8
別途部材
  6
Continuous
100
AcDbLine
 10
-130.80966
 20
45.465715
 30
0.0
 11
-130.40966
 21
45.065715
 31
0.0
  0
LINE
  5
386
330
1D
100
AcDbEntity
  8
別途部材
  6
Continuous
100
AcDbLine
 10
-128.742993
 20
43.399048
 30
0.0
 11
-120.683738
 21
35.33979
 31
0.0
  0
LINE
  5
387
330
1D
100
AcDbEntity
  8
別途部材
  6
Continuous
100
AcDbLine
 10
-130.40966
 20
45.065715
 30
0.0
 11
-28.742993
 21
45.065715
 31
0.0
  0
LINE
  5
388
330
1D
100
AcDbEntity
  8
別途部材
  6
Continuous
100
AcDbLine
 10
-130.80966
 20
45.465715
 30
0.0
 11
-28.742993
 21
45.465715
 31
0.0
  0
LINE
  5
389
330
1D
100
AcDbEntity
  8
別途部材
  6
Continuous
100
AcDbLine
 10
73.32367499999999
 20
45.465715
 30
0.0
 11
72.923675
 21
45.065715
 31
0.0
  0
LINE
  5
38A
330
1D
100
AcDbEntity
  8
別途部材
  6
Continuous
100
AcDbLine
 10
71.257007
 20
43.399048
 30
0.0
 11
63.197753
 21
35.33979
 31
0.0
  0
LINE
  5
38B
330
1D
100
AcDbEntity
  8
別途部材
  6
Continuous
100
AcDbLine
 10
72.923675
 20
45.065715
 30
0.0
 11
-28.742993
 21
45.065715
 31
0.0
  0
LINE
  5
38C
330
1D
100
AcDbEntity
  8
別途部材
  6
Continuous
100
AcDbLine
 10
73.32367499999999
 20
45.465715
 30
0.0
 11
-28.742993
 21
45.465715
 31
0.0
  0
LINE
  5
38D
330
1D
100
AcDbEntity
  8
別途部材
  6
Continuous
100
AcDbLine
 10
72.923675
 20
45.065715
 30
0.0
 11
72.923675
 21
28.399048
 31
0.0
  0
LINE
  5
38E
330
1D
100
AcDbEntity
  8
別途部材
  6
Continuous
100
AcDbLine
 10
73.32367499999999
 20
45.465715
 30
0.0
 11
73.32367499999999
 21
28.399048
 31
0.0
  0
LINE
  5
38F
330
1D
100
AcDbEntity
  8
別途部材
  6
Continuous
100
AcDbLine
 10
-130.80966
 20
45.465715
 30
0.0
 11
-130.80966
 21
28.399048
 31
0.0
  0
LINE
  5
390
330
1D
100
AcDbEntity
  8
別途部材
  6
Continuous
100
AcDbLine
 10
-130.40966
 20
45.065715
 30
0.0
 11
-130.40966
 21
28.399048
 31
0.0
  0
LINE
  5
391
330
1D
100
AcDbEntity
  8
別途部材
  6
Continuous
 62
    96
100
AcDbLine
 10
160.790272
 20
11.73238
 30
0.0
 11
161.790272
 21
11.33238
 31
0.0
  0
LINE
  5
392
330
1D
100
AcDbEntity
  8
別途部材
  6
Continuous
 62
    96
100
AcDbLine
 10
160.790272
 20
11.73238
 30
0.0
 11
160.790272
 21
28.399048
 31
0.0
  0
LINE
  5
393
330
1D
100
AcDbEntity
  8
別途部材
  6
Continuous
100
AcDbLine
 10
161.790272
 20
11.33238
 30
0.0
 11
161.790272
 21
28.399048
 31
0.0
  0
LINE
  5
394
330
1D
100
AcDbEntity
  8
別途部材
  6
Continuous
 62
    96
100
AcDbLine
 10
160.790272
 20
45.065715
 30
0.0
 11
161.790272
 21
45.465715
 31
0.0
  0
LINE
  5
395
330
1D
100
AcDbEntity
  8
別途部材
  6
Continuous
 62
    96
100
AcDbLine
 10
160.790272
 20
45.065715
 30
0.0
 11
160.790272
 21
28.399048
 31
0.0
  0
LINE
  5
396
330
1D
100
AcDbEntity
  8
別途部材
  6
Continuous
100
AcDbLine
 10
161.790272
 20
45.465715
 30
0.0
 11
161.790272
 21
28.399048
 31
0.0
  0
ARC
  5
397
330
1D
100
AcDbEntity
  8
別途部材
  6
Continuous
100
AcDbCircle
 10
170.123607
 20
28.399048
 30
0.0
 40
17.666667
100
AcDbArc
 50
121.890796
 51
238.109204
  0
INSERT
  5
398
330
1D
100
AcDbEntity
  8
別途部材
  6
Continuous
100
AcDbBlockReference
  2
*U4
 10
0.0
 20
0.0
 30
0.0
  0
INSERT
  5
399
330
1D
100
AcDbEntity
  8
別途部材
  6
DOT
100
AcDbBlockReference
  2
*U25
 10
0.0
 20
0.0
 30
0.0
  0
INSERT
  5
39A
330
1D
100
AcDbEntity
  8
別途部材
  6
DOT
100
AcDbBlockReference
  2
*U26
 10
0.0
 20
0.0
 30
0.0
  0
INSERT
  5
39B
330
1D
100
AcDbEntity
  8
別途部材
  6
DOT
100
AcDbBlockReference
  2
*U27
 10
0.0
 20
0.0
 30
0.0
  0
INSERT
  5
39C
330
1D
100
AcDbEntity
  8
別途部材
  6
DOT
100
AcDbBlockReference
  2
*U28
 10
0.0
 20
0.0
 30
0.0
  0
LINE
  5
39D
330
1D
100
AcDbEntity
  8
曲げ物
  6
Continuous
100
AcDbLine
 10
155.537835
 20
-79.20038
 30
0.0
 11
155.537835
 21
-49.533713
 31
0.0
  0
LINE
  5
39E
330
1D
100
AcDbEntity
  8
曲げ物
  6
Continuous
100
AcDbLine
 10
155.537835
 20
-49.533713
 30
0.0
 11
123.148835
 21
-49.533713
 31
0.0
  0
LINE
  5
39F
330
1D
100
AcDbEntity
  8
曲げ物
  6
Continuous
100
AcDbLine
 10
155.537835
 20
-79.20038
 30
0.0
 11
123.148835
 21
-79.20038
 31
0.0
  0
LINE
  5
3A0
330
1D
100
AcDbEntity
  8
曲げ物
  6
Continuous
100
AcDbLine
 10
123.148835
 20
-49.533713
 30
0.0
 11
123.148835
 21
-79.20038
 31
0.0
  0
ENDSEC
  0
SECTION
  2
OBJECTS
  0
DICTIONARY
  5
C
330
0
100
AcDbDictionary
281
     1
  3
ACAD_GROUP
350
D
  3
ACAD_LAYOUT
350
1A
  3
ACAD_MLINESTYLE
350
17
  3
ACAD_PLOTSETTINGS
350
19
  3
ACAD_PLOTSTYLENAME
350
E
  0
DICTIONARY
  5
D
102
{ACAD_REACTORS
330
C
102
}
330
C
100
AcDbDictionary
281
     1
  0
DICTIONARY
  5
1A
102
{ACAD_REACTORS
330
C
102
}
330
C
100
AcDbDictionary
281
     1
  3
Layout1
350
1C
  3
Model
350
1E
  0
DICTIONARY
  5
17
102
{ACAD_REACTORS
330
C
102
}
330
C
100
AcDbDictionary
281
     1
  3
Standard
350
18
  0
DICTIONARY
  5
19
102
{ACAD_REACTORS
330
C
102
}
330
C
100
AcDbDictionary
281
     1
  0
ACDBDICTIONARYWDFLT
  5
E
102
{ACAD_REACTORS
330
C
102
}
330
C
100
AcDbDictionary
281
     1
  3
Normal
350
F
100
AcDbDictionaryWithDefault
340
F
  0
LAYOUT
  5
1C
102
{ACAD_REACTORS
330
1A
102
}
330
1A
100
AcDbPlotSettings
  1

  2

  4

  6

 40
0.0
 41
0.0
 42
0.0
 43
0.0
 44
0.0
 45
0.0
 46
0.0
 47
0.0
 48
0.0
 49
0.0
140
0.0
141
0.0
142
1.0
143
1.0
 70
   688
 72
     0
 73
     0
 74
     5
  7

 75
    16
 76
     0
 77
     2
 78
   300
147
1.0
148
0.0
149
0.0
100
AcDbLayout
  1
Layout1
 70
     1
 71
     1
 10
0.0
 20
0.0
 11
12.0
 21
9.0
 12
0.0
 22
0.0
 32
0.0
 14
1.000000000000000E+20
 24
1.000000000000000E+20
 34
1.000000000000000E+20
 15
-1.000000000000000E+20
 25
-1.000000000000000E+20
 35
-1.000000000000000E+20
146
0.0
 13
0.0
 23
0.0
 33
0.0
 16
1.0
 26
0.0
 36
0.0
 17
0.0
 27
1.0
 37
0.0
 76
     0
330
1B
  0
LAYOUT
  5
1E
102
{ACAD_REACTORS
330
1A
102
}
330
1A
100
AcDbPlotSettings
  1

  2

  4

  6

 40
0.0
 41
0.0
 42
0.0
 43
0.0
 44
0.0
 45
0.0
 46
0.0
 47
0.0
 48
0.0
 49
0.0
140
0.0
141
0.0
142
1.0
143
1.0
 70
  1712
 72
     0
 73
     0
 74
     0
  7

 75
     0
 76
     0
 77
     2
 78
   300
147
1.0
148
0.0
149
0.0
100
AcDbLayout
  1
Model
 70
     1
 71
     0
 10
0.0
 20
0.0
 11
0.0
 21
0.0
 12
0.0
 22
0.0
 32
0.0
 14
-210.0
 24
-148.5
 34
0.0
 15
210.0
 25
148.5
 35
0.0
146
0.0
 13
0.0
 23
0.0
 33
0.0
 16
1.0
 26
0.0
 36
0.0
 17
0.0
 27
1.0
 37
0.0
 76
     0
330
1D
  0
MLINESTYLE
  5
18
102
{ACAD_REACTORS
330
17
102
}
330
17
100
AcDbMlineStyle
  2
Standard
 70
     0
  3

 62
   256
 51
90.0
 52
90.0
 71
     2
 49
0.5
 62
   256
  6
BYLAYER
 49
-0.5
 62
   256
  6
BYLAYER
  0
ACDBPLACEHOLDER
  5
F
102
{ACAD_REACTORS
330
E
102
}
330
E
  0
ENDSEC
  0
EOF
