  0
SECTION
  2
HEADER
  9
$EXTMIN
 10
-210.0
 20
-148.5
  9
$EXTMAX
 10
210.0
 20
148.5
  9
$PDMODE
 70
    32
  9
$PDSIZE
 40
0.3
  9
$LTSCALE
 40
10.0
  0
ENDSEC
  0
SECTION
  2
TABLES
  0
TABLE
  2
LTYPE
 70
    15
  0
LTYPE
  2
CONTINUOUS
 70
    64
  3
実線
 72
    65
 73
     0
 40
0.0
  0
LTYPE
  2
DASHED
 70
    64
  3
破線A
 72
    65
 73
     2
 40
0.6
 49
0.4
 49
-0.2
  0
LTYPE
  2
DASHEDX2
 70
    64
  3
破線B
 72
    65
 73
     2
 40
1.3
 49
0.9
 49
-0.4
  0
LTYPE
  2
DASHDOT
 70
    64
  3
１点鎖線A
 72
    65
 73
     4
 40
0.5375
 49
0.375
 49
-0.05
 49
0.0625
 49
-0.05
  0
LTYPE
  2
DASHDOTX2
 70
    64
  3
１点鎖線B
 72
    65
 73
     4
 40
1.075
 49
0.75
 49
-0.1
 49
0.125
 49
-0.1
  0
LTYPE
  2
DIVIDE2
 70
    64
  3
２点鎖線A
 72
    65
 73
     6
 40
0.5125
 49
0.3
 49
-0.0375
 49
0.05
 49
-0.0375
 49
0.05
 49
-0.0375
  0
LTYPE
  2
DIVIDE
 70
    64
  3
２点鎖線B
 72
    65
 73
     6
 40
1.05
 49
0.55
 49
-0.1
 49
0.1
 49
-0.1
 49
0.1
 49
-0.1
  0
LTYPE
  2
DOT
 70
    64
  3
点線A
 72
    65
 73
     2
 40
0.1125
 49
0.0625
 49
-0.05
  0
LTYPE
  2
DOTX2
 70
    64
  3
点線B
 72
    65
 73
     2
 40
0.275
 49
0.15
 49
-0.125
  0
LTYPE
  2
CONTINUOUS
 70
    64
  3
実線
 72
    65
 73
     0
 40
0.0
  0
LTYPE
  2
CONTINUOUS
 70
    64
  3
実線
 72
    65
 73
     0
 40
0.0
  0
LTYPE
  2
CONTINUOUS
 70
    64
  3
実線
 72
    65
 73
     0
 40
0.0
  0
LTYPE
  2
CONTINUOUS
 70
    64
  3
実線
 72
    65
 73
     0
 40
0.0
  0
LTYPE
  2
CONTINUOUS
 70
    64
  3
実線
 72
    65
 73
     0
 40
0.0
  0
LTYPE
  2
CONTINUOUS
 70
    64
  3
実線
 72
    65
 73
     0
 40
0.0
  0
ENDTAB
  0
TABLE
  2
LAYER
 70
    41
  0
LAYER
  2
通り芯
 70
     0
 62
    15
  6
CONTINUOUS
  0
LAYER
  2
補助線
 70
     0
 62
    16
  6
DOT
  0
LAYER
  2
躯体
 70
     0
 62
    31
  6
CONTINUOUS
  0
LAYER
  2
型材
 70
     0
 62
    32
  6
CONTINUOUS
  0
LAYER
  2
型材断面
 70
     0
 62
    47
  6
CONTINUOUS
  0
LAYER
  2
ガラス
 70
     0
 62
    48
  6
CONTINUOUS
  0
LAYER
  2
ゴム等
 70
     0
 62
    63
  6
CONTINUOUS
  0
LAYER
  2
ボルト／ビス
 70
     0
 62
    64
  6
CONTINUOUS
  0
LAYER
  2
文字
 70
     0
 62
    79
  6
CONTINUOUS
  0
LAYER
  2
寸法
 70
     0
 62
    80
  6
CONTINUOUS
  0
LAYER
  2
ﾊｯﾁﾝｸﾞ
 70
     0
 62
    95
  6
CONTINUOUS
  0
LAYER
  2
別途部材
 70
     0
 62
    96
  6
CONTINUOUS
  0
LAYER
  2
曲げ物
 70
     0
 62
   111
  6
CONTINUOUS
  0
LAYER
  2
鉄骨等
 70
     0
 62
   112
  6
CONTINUOUS
  0
LAYER
  2
St
 70
     0
 62
   127
  6
CONTINUOUS
  0
LAYER
  2
その他部品等
 70
     0
 62
   128
  6
CONTINUOUS
  0
LAYER
  2
ｶﾞｽｹｯﾄ
 70
     0
 62
   143
  6
CONTINUOUS
  0
LAYER
  2
ｽｹｯﾁ
 70
     0
 62
    14
  6
CONTINUOUS
  0
LAYER
  2
0
 70
     0
 62
    17
  6
CONTINUOUS
  0
LAYER
  2
1
 70
     0
 62
    30
  6
CONTINUOUS
  0
LAYER
  2
4
 70
     0
 62
    33
  6
CONTINUOUS
  0
LAYER
  2
ﾚｲﾔ3
 70
     0
 62
    46
  6
CONTINUOUS
  0
LAYER
  2
外形線
 70
     0
 62
    49
  6
CONTINUOUS
  0
LAYER
  2
部品
 70
     0
 62
    14
  6
CONTINUOUS
  0
LAYER
  2
サッシ芯
 70
     0
 62
    17
  6
DASHDOTX2
  0
LAYER
  2
寸法線
 70
     0
 62
    62
  6
CONTINUOUS
  0
LAYER
  2
姿図外形線
 70
     0
 62
    65
  6
CONTINUOUS
  0
LAYER
  2
姿補助線
 70
     0
 62
    30
  6
CONTINUOUS
  0
LAYER
  2
透視線
 70
     0
 62
    78
  6
DOT
  0
LAYER
  2
用紙
 70
     0
 62
    81
  6
CONTINUOUS
  0
LAYER
  2
実線図枠
 70
     0
 62
    94
  6
CONTINUOUS
  0
LAYER
  2
補助図枠
 70
     0
 62
    97
  6
CONTINUOUS
  0
LAYER
  2
建具記号
 70
     0
 62
   110
  6
CONTINUOUS
  0
LAYER
  2
補助文字
 70
     0
 62
   113
  6
CONTINUOUS
  0
LAYER
  2
LAYER001
 70
     0
 62
     7
  6
CONTINUOUS
  0
LAYER
  2
LAYER010
 70
     0
 62
    11
  6
CONTINUOUS
  0
LAYER
  2
LAYER011
 70
     0
 62
    12
  6
CONTINUOUS
  0
LAYER
  2
LAYER013
 70
     0
 62
    14
  6
CONTINUOUS
  0
LAYER
  2
LAYER026
 70
     0
 62
    11
  6
CONTINUOUS
  0
LAYER
  2
断面線04
 70
     0
 62
     4
  6
CONTINUOUS
  0
LAYER
  2
投影線02
 70
     0
 62
    12
  6
CONTINUOUS
  0
ENDTAB
  0
TABLE
  2
STYLE
 70
    10
  0
STYLE
  2
STANDARD
 70
     0
 40
1.0
 41
1.0
 42
1.0
 50
0.0
 71
     0
  3
TXT
  4
BIGFONT
  0
STYLE
  2
TATE
 70
     4
 40
1.0
 41
1.0
 42
1.0
 50
0.0
 71
     0
  3
TXT
  4
BIGFONT
  0
STYLE
  2
TextStyle03
 70
     0
 40
1.0
 41
1.0
 42
1.0
 50
0.0
 71
     0
  3
MONOTXT
  4
BIGFONT
  0
STYLE
  2
TextStyle04
 70
     0
 40
1.0
 41
1.0
 42
1.0
 50
0.0
 71
     0
  3
MONOTXT
  4
BIGFONT
  0
STYLE
  2
TextStyle05
 70
     0
 40
1.0
 41
1.0
 42
1.0
 50
0.0
 71
     0
  3
MONOTXT
  4
BIGFONT
  0
STYLE
  2
TextStyle06
 70
     0
 40
1.0
 41
1.0
 42
1.0
 50
0.0
 71
     0
  3
MONOTXT
  4
BIGFONT
  0
STYLE
  2
TextStyle07
 70
     0
 40
1.0
 41
1.0
 42
1.0
 50
0.0
 71
     0
  3
MONOTXT
  4
BIGFONT
  0
STYLE
  2
TextStyle08
 70
     0
 40
1.0
 41
1.0
 42
1.0
 50
0.0
 71
     0
  3
MONOTXT
  4
BIGFONT
  0
STYLE
  2
TextStyle09
 70
     0
 40
1.0
 41
1.0
 42
1.0
 50
0.0
 71
     0
  3
MONOTXT
  4
BIGFONT
  0
STYLE
  2
TextStyle10
 70
     0
 40
1.0
 41
1.0
 42
1.0
 50
0.0
 71
     0
  3
MONOTXT
  4
BIGFONT
  0
ENDTAB
  0
ENDSEC
  0
SECTION
  2
BLOCKS
  0
BLOCK
  2
*HAT_0001
 70
    65
 10
0.0
 20
0.0
  0
LINE
  8
ゴム等
 10
-61.325
 20
-33.675
 11
-61.1
 21
-33.45
  0
LINE
  8
ゴム等
 10
-61.8
 20
-33.675
 11
-61.1
 21
-32.975
  0
LINE
  8
ゴム等
 10
-62.275
 20
-33.675
 11
-61.1
 21
-32.525
  0
LINE
  8
ゴム等
 10
-62.725
 20
-33.675
 11
-61.1
 21
-32.05
  0
LINE
  8
ゴム等
 10
-63.2
 20
-33.675
 11
-61.55
 21
-32.0
  0
LINE
  8
ゴム等
 10
-63.675
 20
-33.675
 11
-62.0
 21
-32.0
  0
LINE
  8
ゴム等
 10
-64.15
 20
-33.675
 11
-62.475
 21
-32.0
  0
LINE
  8
ゴム等
 10
-64.425
 20
-33.5
 11
-62.95
 21
-32.0
  0
LINE
  8
ゴム等
 10
-64.425
 20
-33.025
 11
-63.425
 21
-32.0
  0
LINE
  8
ゴム等
 10
-64.425
 20
-32.55
 11
-63.9
 21
-32.0
  0
LINE
  8
ゴム等
 10
-64.425
 20
-32.075
 11
-64.375
 21
-32.0
  0
ENDBLK
  0
BLOCK
  2
*HAT_0002
 70
    65
 10
0.0
 20
0.0
  0
LINE
  8
ゴム等
 10
52.475
 20
-33.675
 11
52.25
 21
-33.45
  0
LINE
  8
ゴム等
 10
52.95
 20
-33.675
 11
52.25
 21
-32.975
  0
LINE
  8
ゴム等
 10
53.425
 20
-33.675
 11
52.25
 21
-32.525
  0
LINE
  8
ゴム等
 10
53.875
 20
-33.675
 11
52.25
 21
-32.05
  0
LINE
  8
ゴム等
 10
54.35
 20
-33.675
 11
52.7
 21
-32.0
  0
LINE
  8
ゴム等
 10
54.825
 20
-33.675
 11
53.15
 21
-32.0
  0
LINE
  8
ゴム等
 10
55.3
 20
-33.675
 11
53.625
 21
-32.0
  0
LINE
  8
ゴム等
 10
55.575
 20
-33.5
 11
54.1
 21
-32.0
  0
LINE
  8
ゴム等
 10
55.575
 20
-33.025
 11
54.575
 21
-32.0
  0
LINE
  8
ゴム等
 10
55.575
 20
-32.55
 11
55.05
 21
-32.0
  0
LINE
  8
ゴム等
 10
55.575
 20
-32.075
 11
55.525
 21
-32.0
  0
ENDBLK
  0
BLOCK
  2
*HAT_0003
 70
    65
 10
0.0
 20
0.0
  0
LINE
  8
ゴム等
 10
52.025
 20
-29.75
 11
52.75
 21
-29.0
  0
LINE
  8
ゴム等
 10
51.175
 20
-29.75
 11
52.75
 21
-28.15
  0
LINE
  8
ゴム等
 10
50.325
 20
-29.75
 11
52.4
 21
-27.675
  0
LINE
  8
ゴム等
 10
49.475
 20
-29.75
 11
51.55
 21
-27.675
  0
LINE
  8
ゴム等
 10
49.425
 20
-28.95
 11
50.7
 21
-27.675
  0
LINE
  8
ゴム等
 10
49.425
 20
-28.1
 11
49.85
 21
-27.675
  0
ENDBLK
  0
BLOCK
  2
*HAT_0004
 70
    65
 10
0.0
 20
0.0
  0
LINE
  8
ゴム等
 10
-13.3
 20
-33.65
 11
-13.525
 21
-33.425
  0
LINE
  8
ゴム等
 10
-12.825
 20
-33.65
 11
-13.525
 21
-32.95
  0
LINE
  8
ゴム等
 10
-12.35
 20
-33.65
 11
-13.525
 21
-32.5
  0
LINE
  8
ゴム等
 10
-11.9
 20
-33.65
 11
-13.525
 21
-32.025
  0
LINE
  8
ゴム等
 10
-11.425
 20
-33.65
 11
-13.075
 21
-31.975
  0
LINE
  8
ゴム等
 10
-10.95
 20
-33.65
 11
-12.625
 21
-31.975
  0
LINE
  8
ゴム等
 10
-10.475
 20
-33.65
 11
-12.15
 21
-31.975
  0
LINE
  8
ゴム等
 10
-10.2
 20
-33.475
 11
-11.675
 21
-31.975
  0
LINE
  8
ゴム等
 10
-10.2
 20
-33.0
 11
-11.2
 21
-31.975
  0
LINE
  8
ゴム等
 10
-10.2
 20
-32.525
 11
-10.725
 21
-31.975
  0
LINE
  8
ゴム等
 10
-10.2
 20
-32.05
 11
-10.25
 21
-31.975
  0
ENDBLK
  0
BLOCK
  2
*HAT_0005
 70
    65
 10
0.0
 20
0.0
  0
LINE
  8
ゴム等
  6
DOT
 10
-13.075
 20
-29.7
 11
-12.35
 21
-28.95
  0
LINE
  8
ゴム等
  6
DOT
 10
-13.925
 20
-29.7
 11
-12.35
 21
-28.1
  0
LINE
  8
ゴム等
  6
DOT
 10
-14.775
 20
-29.7
 11
-12.7
 21
-27.625
  0
LINE
  8
ゴム等
  6
DOT
 10
-15.625
 20
-29.7
 11
-13.55
 21
-27.625
  0
LINE
  8
ゴム等
  6
DOT
 10
-15.675
 20
-28.9
 11
-14.4
 21
-27.625
  0
LINE
  8
ゴム等
  6
DOT
 10
-15.675
 20
-28.05
 11
-15.25
 21
-27.625
  0
ENDBLK
  0
BLOCK
  2
*HAT_0006
 70
    65
 10
0.0
 20
0.0
  0
LINE
  8
ゴム等
  6
DOT
 10
4.2
 20
-29.7
 11
3.475
 21
-28.95
  0
LINE
  8
ゴム等
  6
DOT
 10
5.05
 20
-29.7
 11
3.475
 21
-28.1
  0
LINE
  8
ゴム等
  6
DOT
 10
5.9
 20
-29.7
 11
3.825
 21
-27.625
  0
LINE
  8
ゴム等
  6
DOT
 10
6.75
 20
-29.7
 11
4.675
 21
-27.625
  0
LINE
  8
ゴム等
  6
DOT
 10
6.8
 20
-28.9
 11
5.525
 21
-27.625
  0
LINE
  8
ゴム等
  6
DOT
 10
6.8
 20
-28.05
 11
6.375
 21
-27.625
  0
ENDBLK
  0
BLOCK
  2
*HAT_0007
 70
    65
 10
0.0
 20
0.0
  0
LINE
  8
ゴム等
 10
4.425
 20
-33.65
 11
4.65
 21
-33.425
  0
LINE
  8
ゴム等
 10
3.95
 20
-33.65
 11
4.65
 21
-32.95
  0
LINE
  8
ゴム等
 10
3.475
 20
-33.65
 11
4.65
 21
-32.5
  0
LINE
  8
ゴム等
 10
3.025
 20
-33.65
 11
4.65
 21
-32.025
  0
LINE
  8
ゴム等
 10
2.55
 20
-33.65
 11
4.2
 21
-31.975
  0
LINE
  8
ゴム等
 10
2.075
 20
-33.65
 11
3.75
 21
-31.975
  0
LINE
  8
ゴム等
 10
1.6
 20
-33.65
 11
3.275
 21
-31.975
  0
LINE
  8
ゴム等
 10
1.325
 20
-33.475
 11
2.8
 21
-31.975
  0
LINE
  8
ゴム等
 10
1.325
 20
-33.0
 11
2.325
 21
-31.975
  0
LINE
  8
ゴム等
 10
1.325
 20
-32.525
 11
1.85
 21
-31.975
  0
LINE
  8
ゴム等
 10
1.325
 20
-32.05
 11
1.375
 21
-31.975
  0
ENDBLK
  0
BLOCK
  2
*HAT_0008
 70
    65
 10
0.0
 20
0.0
  0
LINE
  8
ゴム等
 10
4.45
 20
-89.95
 11
4.675
 21
-89.725
  0
LINE
  8
ゴム等
 10
3.975
 20
-89.95
 11
4.675
 21
-89.25
  0
LINE
  8
ゴム等
 10
3.5
 20
-89.95
 11
4.675
 21
-88.8
  0
LINE
  8
ゴム等
 10
3.05
 20
-89.95
 11
4.675
 21
-88.325
  0
LINE
  8
ゴム等
 10
2.575
 20
-89.95
 11
4.225
 21
-88.275
  0
LINE
  8
ゴム等
 10
2.1
 20
-89.95
 11
3.775
 21
-88.275
  0
LINE
  8
ゴム等
 10
1.625
 20
-89.95
 11
3.3
 21
-88.275
  0
LINE
  8
ゴム等
 10
1.35
 20
-89.775
 11
2.825
 21
-88.275
  0
LINE
  8
ゴム等
 10
1.35
 20
-89.3
 11
2.35
 21
-88.275
  0
LINE
  8
ゴム等
 10
1.35
 20
-88.825
 11
1.875
 21
-88.275
  0
LINE
  8
ゴム等
 10
1.35
 20
-88.35
 11
1.4
 21
-88.275
  0
ENDBLK
  0
BLOCK
  2
*HAT_0009
 70
    65
 10
0.0
 20
0.0
  0
LINE
  8
ゴム等
 10
4.275
 20
-86.025
 11
3.55
 21
-85.275
  0
LINE
  8
ゴム等
 10
5.125
 20
-86.025
 11
3.55
 21
-84.425
  0
LINE
  8
ゴム等
 10
5.975
 20
-86.025
 11
3.9
 21
-83.95
  0
LINE
  8
ゴム等
 10
6.825
 20
-86.025
 11
4.75
 21
-83.95
  0
LINE
  8
ゴム等
 10
6.875
 20
-85.225
 11
5.6
 21
-83.95
  0
LINE
  8
ゴム等
 10
6.875
 20
-84.375
 11
6.45
 21
-83.95
  0
ENDBLK
  0
BLOCK
  2
*HAT_0010
 70
    65
 10
0.0
 20
0.0
  0
LINE
  8
ゴム等
 10
-13.3
 20
-89.95
 11
-13.525
 21
-89.725
  0
LINE
  8
ゴム等
 10
-12.825
 20
-89.95
 11
-13.525
 21
-89.25
  0
LINE
  8
ゴム等
 10
-12.35
 20
-89.95
 11
-13.525
 21
-88.8
  0
LINE
  8
ゴム等
 10
-11.9
 20
-89.95
 11
-13.525
 21
-88.325
  0
LINE
  8
ゴム等
 10
-11.425
 20
-89.95
 11
-13.075
 21
-88.275
  0
LINE
  8
ゴム等
 10
-10.95
 20
-89.95
 11
-12.625
 21
-88.275
  0
LINE
  8
ゴム等
 10
-10.475
 20
-89.95
 11
-12.15
 21
-88.275
  0
LINE
  8
ゴム等
 10
-10.2
 20
-89.775
 11
-11.675
 21
-88.275
  0
LINE
  8
ゴム等
 10
-10.2
 20
-89.3
 11
-11.2
 21
-88.275
  0
LINE
  8
ゴム等
 10
-10.2
 20
-88.825
 11
-10.725
 21
-88.275
  0
LINE
  8
ゴム等
 10
-10.2
 20
-88.35
 11
-10.25
 21
-88.275
  0
ENDBLK
  0
BLOCK
  2
*HAT_0011
 70
    65
 10
0.0
 20
0.0
  0
LINE
  8
ゴム等
 10
-13.125
 20
-86.025
 11
-12.4
 21
-85.275
  0
LINE
  8
ゴム等
 10
-13.975
 20
-86.025
 11
-12.4
 21
-84.425
  0
LINE
  8
ゴム等
 10
-14.825
 20
-86.025
 11
-12.75
 21
-83.95
  0
LINE
  8
ゴム等
 10
-15.675
 20
-86.025
 11
-13.6
 21
-83.95
  0
LINE
  8
ゴム等
 10
-15.725
 20
-85.225
 11
-14.45
 21
-83.95
  0
LINE
  8
ゴム等
 10
-15.725
 20
-84.375
 11
-15.3
 21
-83.95
  0
ENDBLK
  0
BLOCK
  2
*HAT_0012
 70
    65
 10
0.0
 20
0.0
  0
LINE
  8
型材断面
  6
DOT
 10
136.175
 20
13.875
 11
135.725
 21
14.325
  0
LINE
  8
型材断面
  6
DOT
 10
137.2
 20
13.7
 11
135.725
 21
15.175
  0
LINE
  8
型材断面
  6
DOT
 10
138.225
 20
13.525
 11
135.725
 21
16.025
  0
LINE
  8
型材断面
  6
DOT
 10
138.375
 20
14.2
 11
136.525
 21
16.075
  0
LINE
  8
型材断面
  6
DOT
 10
138.375
 20
15.05
 11
137.375
 21
16.075
  0
LINE
  8
型材断面
  6
DOT
 10
138.375
 20
15.9
 11
138.2
 21
16.075
  0
ENDBLK
  0
BLOCK
  2
*HAT_0013
 70
    65
 10
0.0
 20
0.0
  0
LINE
  8
ﾊｯﾁﾝｸﾞ
 10
-76.65
 20
-59.55
 11
-76.5
 21
-59.6
  0
LINE
  8
ﾊｯﾁﾝｸﾞ
 10
-76.5
 20
-59.625
 11
-76.5
 21
-60.6
  0
LINE
  8
ﾊｯﾁﾝｸﾞ
 10
-76.5
 20
-60.6
 11
-77.0
 21
-61.6
  0
LINE
  8
ﾊｯﾁﾝｸﾞ
 10
-77.025
 20
-61.6
 11
-77.3
 21
-61.05
  0
LINE
  8
ﾊｯﾁﾝｸﾞ
 10
-76.0
 20
-60.625
 11
-75.5
 21
-61.125
  0
LINE
  8
ﾊｯﾁﾝｸﾞ
 10
-75.5
 20
-61.1
 11
-75.5
 21
-60.6
  0
LINE
  8
ﾊｯﾁﾝｸﾞ
 10
-76.0
 20
-60.6
 11
-75.5
 21
-60.1
  0
LINE
  8
ﾊｯﾁﾝｸﾞ
 10
-75.5
 20
-60.125
 11
-75.5
 21
-60.6
  0
LINE
  8
ﾊｯﾁﾝｸﾞ
 10
-74.525
 20
-60.125
 11
-75.025
 21
-59.6
  0
LINE
  8
ﾊｯﾁﾝｸﾞ
 10
-75.0
 20
-59.6
 11
-74.5
 21
-59.1
  0
LINE
  8
ﾊｯﾁﾝｸﾞ
 10
-74.5
 20
-59.125
 11
-73.5
 21
-59.625
  0
LINE
  8
ﾊｯﾁﾝｸﾞ
 10
-73.5
 20
-59.625
 11
-74.5
 21
-60.125
  0
LINE
  8
ﾊｯﾁﾝｸﾞ
 10
-72.5
 20
-57.625
 11
-73.0
 21
-58.625
  0
LINE
  8
ﾊｯﾁﾝｸﾞ
 10
-73.0
 20
-58.625
 11
-72.5
 21
-59.125
  0
LINE
  8
ﾊｯﾁﾝｸﾞ
 10
-72.5
 20
-59.1
 11
-72.5
 21
-57.6
  0
LINE
  8
ﾊｯﾁﾝｸﾞ
 10
-79.2
 20
-68.35
 11
-79.0
 21
-67.6
  0
LINE
  8
ﾊｯﾁﾝｸﾞ
 10
-79.025
 20
-67.6
 11
-79.7
 21
-66.575
  0
LINE
  8
ﾊｯﾁﾝｸﾞ
 10
-78.0
 20
-64.1
 11
-78.5
 21
-64.6
  0
LINE
  8
ﾊｯﾁﾝｸﾞ
 10
-78.5
 20
-64.6
 11
-78.5
 21
-65.1
  0
LINE
  8
ﾊｯﾁﾝｸﾞ
 10
-78.5
 20
-65.125
 11
-78.0
 21
-65.625
  0
LINE
  8
ﾊｯﾁﾝｸﾞ
 10
-78.0
 20
-65.6
 11
-78.0
 21
-64.1
  0
LINE
  8
ﾊｯﾁﾝｸﾞ
 10
-71.7
 20
-62.8
 11
-72.0
 21
-63.125
  0
LINE
  8
ﾊｯﾁﾝｸﾞ
 10
-72.0
 20
-63.125
 11
-71.7
 21
-63.425
  0
LINE
  8
ﾊｯﾁﾝｸﾞ
 10
-72.0
 20
-66.6
 11
-71.7
 21
-66.6
  0
LINE
  8
ﾊｯﾁﾝｸﾞ
 10
-71.7
 20
-67.0
 11
-71.875
 21
-67.35
  0
LINE
  8
ﾊｯﾁﾝｸﾞ
 10
-72.5
 20
-67.45
 11
-72.5
 21
-67.1
  0
LINE
  8
ﾊｯﾁﾝｸﾞ
 10
-72.5
 20
-67.1
 11
-72.0
 21
-66.6
  0
LINE
  8
ﾊｯﾁﾝｸﾞ
 10
-73.0
 20
-61.1
 11
-72.5
 21
-61.1
  0
LINE
  8
ﾊｯﾁﾝｸﾞ
 10
-72.5
 20
-61.125
 11
-72.0
 21
-61.625
  0
LINE
  8
ﾊｯﾁﾝｸﾞ
 10
-72.0
 20
-61.625
 11
-73.0
 21
-61.625
  0
LINE
  8
ﾊｯﾁﾝｸﾞ
 10
-73.0
 20
-61.6
 11
-73.0
 21
-61.1
  0
LINE
  8
ﾊｯﾁﾝｸﾞ
 10
-76.0
 20
-64.1
 11
-75.0
 21
-64.1
  0
LINE
  8
ﾊｯﾁﾝｸﾞ
 10
-75.0
 20
-64.1
 11
-74.5
 21
-65.6
  0
LINE
  8
ﾊｯﾁﾝｸﾞ
 10
-74.5
 20
-65.6
 11
-75.0
 21
-67.1
  0
LINE
  8
ﾊｯﾁﾝｸﾞ
 10
-75.025
 20
-67.1
 11
-76.5
 21
-66.625
  0
LINE
  8
ﾊｯﾁﾝｸﾞ
 10
-76.525
 20
-66.6
 11
-77.0
 21
-65.6
  0
LINE
  8
ﾊｯﾁﾝｸﾞ
 10
-77.0
 20
-65.6
 11
-76.0
 21
-64.1
  0
LINE
  8
ﾊｯﾁﾝｸﾞ
 10
-73.5
 20
-63.625
 11
-74.0
 21
-64.1
  0
LINE
  8
ﾊｯﾁﾝｸﾞ
 10
-74.0
 20
-64.1
 11
-73.5
 21
-65.1
  0
LINE
  8
ﾊｯﾁﾝｸﾞ
 10
-73.5
 20
-65.1
 11
-73.0
 21
-64.6
  0
LINE
  8
ﾊｯﾁﾝｸﾞ
 10
-73.025
 20
-64.6
 11
-73.525
 21
-63.625
  0
LINE
  8
ﾊｯﾁﾝｸﾞ
 10
-74.5
 20
-55.6
 11
-73.075
 21
-54.55
  0
LINE
  8
ﾊｯﾁﾝｸﾞ
 10
-72.075
 20
-54.55
 11
-72.0
 21
-54.625
  0
LINE
  8
ﾊｯﾁﾝｸﾞ
 10
-72.0
 20
-54.625
 11
-72.5
 21
-56.625
  0
LINE
  8
ﾊｯﾁﾝｸﾞ
 10
-72.525
 20
-56.625
 11
-74.525
 21
-55.625
  0
LINE
  8
ﾊｯﾁﾝｸﾞ
 10
-75.2
 20
-56.225
 11
-75.0
 21
-56.625
  0
LINE
  8
ﾊｯﾁﾝｸﾞ
 10
-75.0
 20
-56.625
 11
-75.35
 21
-56.625
  0
LINE
  8
ﾊｯﾁﾝｸﾞ
 10
-76.0
 20
-67.6
 11
-76.0
 21
-67.9
  0
LINE
  8
ﾊｯﾁﾝｸﾞ
 10
-75.55
 20
-67.85
 11
-76.0
 21
-67.625
  0
LINE
  8
ﾊｯﾁﾝｸﾞ
 10
-76.0
 20
-62.625
 11
-76.5
 21
-63.125
  0
LINE
  8
ﾊｯﾁﾝｸﾞ
 10
-76.5
 20
-63.1
 11
-75.5
 21
-63.1
  0
LINE
  8
ﾊｯﾁﾝｸﾞ
 10
-75.525
 20
-63.125
 11
-76.025
 21
-62.625
  0
LINE
  8
ﾊｯﾁﾝｸﾞ
 10
-76.05
 20
-61.1
 11
-75.95
 21
-61.1
  0
LINE
  8
ﾊｯﾁﾝｸﾞ
 10
-74.55
 20
-61.1
 11
-74.45
 21
-61.1
  0
LINE
  8
ﾊｯﾁﾝｸﾞ
 10
-77.55
 20
-62.6
 11
-77.45
 21
-62.6
  0
LINE
  8
ﾊｯﾁﾝｸﾞ
 10
-77.05
 20
-63.1
 11
-76.95
 21
-63.1
  0
LINE
  8
ﾊｯﾁﾝｸﾞ
 10
-76.55
 20
-62.1
 11
-76.45
 21
-62.1
  0
LINE
  8
ﾊｯﾁﾝｸﾞ
 10
-75.55
 20
-62.1
 11
-75.45
 21
-62.1
  0
LINE
  8
ﾊｯﾁﾝｸﾞ
 10
-74.55
 20
-62.6
 11
-74.45
 21
-62.6
  0
LINE
  8
ﾊｯﾁﾝｸﾞ
 10
-75.05
 20
-63.6
 11
-74.95
 21
-63.6
  0
LINE
  8
ﾊｯﾁﾝｸﾞ
 10
-73.55
 20
-62.6
 11
-73.45
 21
-62.6
  0
LINE
  8
ﾊｯﾁﾝｸﾞ
 10
-72.55
 20
-62.6
 11
-72.45
 21
-62.6
  0
LINE
  8
ﾊｯﾁﾝｸﾞ
 10
-74.05
 20
-61.6
 11
-73.95
 21
-61.6
  0
LINE
  8
ﾊｯﾁﾝｸﾞ
 10
-72.05
 20
-64.1
 11
-71.95
 21
-64.1
  0
LINE
  8
ﾊｯﾁﾝｸﾞ
 10
-72.55
 20
-65.1
 11
-72.45
 21
-65.1
  0
LINE
  8
ﾊｯﾁﾝｸﾞ
 10
-72.05
 20
-66.1
 11
-71.95
 21
-66.1
  0
LINE
  8
ﾊｯﾁﾝｸﾞ
 10
-74.05
 20
-66.1
 11
-73.95
 21
-66.1
  0
LINE
  8
ﾊｯﾁﾝｸﾞ
 10
-73.05
 20
-66.6
 11
-72.95
 21
-66.6
  0
LINE
  8
ﾊｯﾁﾝｸﾞ
 10
-74.05
 20
-67.6
 11
-73.95
 21
-67.6
  0
LINE
  8
ﾊｯﾁﾝｸﾞ
 10
-79.05
 20
-65.6
 11
-78.95
 21
-65.6
  0
LINE
  8
ﾊｯﾁﾝｸﾞ
 10
-77.55
 20
-65.1
 11
-77.45
 21
-65.1
  0
LINE
  8
ﾊｯﾁﾝｸﾞ
 10
-77.05
 20
-64.1
 11
-76.95
 21
-64.1
  0
LINE
  8
ﾊｯﾁﾝｸﾞ
 10
-77.55
 20
-66.6
 11
-77.45
 21
-66.6
  0
LINE
  8
ﾊｯﾁﾝｸﾞ
 10
-78.55
 20
-66.6
 11
-78.45
 21
-66.6
  0
LINE
  8
ﾊｯﾁﾝｸﾞ
 10
-78.55
 20
-67.6
 11
-78.45
 21
-67.6
  0
LINE
  8
ﾊｯﾁﾝｸﾞ
 10
-77.05
 20
-67.6
 11
-76.95
 21
-67.6
  0
LINE
  8
ﾊｯﾁﾝｸﾞ
 10
-74.5
 20
-54.6
 11
-74.45
 21
-54.6
  0
LINE
  8
ﾊｯﾁﾝｸﾞ
 10
-76.05
 20
-59.1
 11
-75.95
 21
-59.1
  0
LINE
  8
ﾊｯﾁﾝｸﾞ
 10
-75.55
 20
-58.6
 11
-75.45
 21
-58.6
  0
LINE
  8
ﾊｯﾁﾝｸﾞ
 10
-75.55
 20
-57.6
 11
-75.45
 21
-57.6
  0
LINE
  8
ﾊｯﾁﾝｸﾞ
 10
-74.55
 20
-57.6
 11
-74.45
 21
-57.6
  0
LINE
  8
ﾊｯﾁﾝｸﾞ
 10
-74.05
 20
-57.6
 11
-73.95
 21
-57.6
  0
LINE
  8
ﾊｯﾁﾝｸﾞ
 10
-74.05
 20
-57.1
 11
-73.95
 21
-57.1
  0
LINE
  8
ﾊｯﾁﾝｸﾞ
 10
-73.05
 20
-57.1
 11
-72.95
 21
-57.1
  0
LINE
  8
ﾊｯﾁﾝｸﾞ
 10
-72.05
 20
-57.1
 11
-71.95
 21
-57.1
  0
LINE
  8
ﾊｯﾁﾝｸﾞ
 10
-72.05
 20
-60.1
 11
-71.95
 21
-60.1
  0
LINE
  8
ﾊｯﾁﾝｸﾞ
 10
-73.05
 20
-60.1
 11
-72.95
 21
-60.1
  0
LINE
  8
ﾊｯﾁﾝｸﾞ
 10
-73.05
 20
-59.6
 11
-72.95
 21
-59.6
  0
LINE
  8
ﾊｯﾁﾝｸﾞ
 10
-74.55
 20
-60.6
 11
-74.45
 21
-60.6
  0
LINE
  8
ﾊｯﾁﾝｸﾞ
 10
-74.05
 20
-58.6
 11
-73.95
 21
-58.6
  0
ENDBLK
  0
BLOCK
  2
*HAT_0014
 70
    65
 10
0.0
 20
0.0
  0
LINE
  8
ﾊｯﾁﾝｸﾞ
 10
-110.125
 20
-61.55
 11
-110.625
 21
-61.2
  0
LINE
  8
ﾊｯﾁﾝｸﾞ
 10
-119.8
 20
-69.6
 11
-119.5
 21
-69.6
  0
LINE
  8
ﾊｯﾁﾝｸﾞ
 10
-119.5
 20
-69.6
 11
-119.0
 21
-67.6
  0
LINE
  8
ﾊｯﾁﾝｸﾞ
 10
-119.0
 20
-67.6
 11
-119.3
 21
-67.175
  0
LINE
  8
ﾊｯﾁﾝｸﾞ
 10
-118.5
 20
-68.6
 11
-119.0
 21
-69.1
  0
LINE
  8
ﾊｯﾁﾝｸﾞ
 10
-119.0
 20
-69.125
 11
-118.5
 21
-70.125
  0
LINE
  8
ﾊｯﾁﾝｸﾞ
 10
-118.5
 20
-70.1
 11
-118.0
 21
-69.1
  0
LINE
  8
ﾊｯﾁﾝｸﾞ
 10
-118.0
 20
-69.1
 11
-118.5
 21
-68.6
  0
LINE
  8
ﾊｯﾁﾝｸﾞ
 10
-118.35
 20
-65.275
 11
-118.0
 21
-65.625
  0
LINE
  8
ﾊｯﾁﾝｸﾞ
 10
-118.0
 20
-65.6
 11
-118.0
 21
-64.575
  0
LINE
  8
ﾊｯﾁﾝｸﾞ
 10
-111.5
 20
-62.625
 11
-112.0
 21
-63.125
  0
LINE
  8
ﾊｯﾁﾝｸﾞ
 10
-112.0
 20
-63.125
 11
-111.5
 21
-63.625
  0
LINE
  8
ﾊｯﾁﾝｸﾞ
 10
-111.5
 20
-63.6
 11
-111.1
 21
-63.6
  0
LINE
  8
ﾊｯﾁﾝｸﾞ
 10
-111.05
 20
-63.525
 11
-111.5
 21
-62.625
  0
LINE
  8
ﾊｯﾁﾝｸﾞ
 10
-112.2
 20
-61.425
 11
-112.0
 21
-61.625
  0
LINE
  8
ﾊｯﾁﾝｸﾞ
 10
-112.0
 20
-61.625
 11
-113.0
 21
-61.625
  0
LINE
  8
ﾊｯﾁﾝｸﾞ
 10
-113.0
 20
-61.6
 11
-113.0
 21
-61.525
  0
LINE
  8
ﾊｯﾁﾝｸﾞ
 10
-116.0
 20
-64.1
 11
-115.0
 21
-64.1
  0
LINE
  8
ﾊｯﾁﾝｸﾞ
 10
-115.0
 20
-64.1
 11
-114.5
 21
-65.6
  0
LINE
  8
ﾊｯﾁﾝｸﾞ
 10
-114.5
 20
-65.6
 11
-115.0
 21
-67.1
  0
LINE
  8
ﾊｯﾁﾝｸﾞ
 10
-115.025
 20
-67.1
 11
-116.5
 21
-66.625
  0
LINE
  8
ﾊｯﾁﾝｸﾞ
 10
-116.5
 20
-66.625
 11
-117.0
 21
-65.625
  0
LINE
  8
ﾊｯﾁﾝｸﾞ
 10
-117.0
 20
-65.6
 11
-116.0
 21
-64.1
  0
LINE
  8
ﾊｯﾁﾝｸﾞ
 10
-113.5
 20
-63.625
 11
-114.0
 21
-64.1
  0
LINE
  8
ﾊｯﾁﾝｸﾞ
 10
-114.0
 20
-64.125
 11
-113.5
 21
-65.125
  0
LINE
  8
ﾊｯﾁﾝｸﾞ
 10
-113.5
 20
-65.1
 11
-113.0
 21
-64.6
  0
LINE
  8
ﾊｯﾁﾝｸﾞ
 10
-113.0
 20
-64.6
 11
-113.5
 21
-63.625
  0
LINE
  8
ﾊｯﾁﾝｸﾞ
 10
-113.5
 20
-68.6
 11
-113.5
 21
-68.65
  0
LINE
  8
ﾊｯﾁﾝｸﾞ
 10
-114.875
 20
-69.725
 11
-115.0
 21
-69.6
  0
LINE
  8
ﾊｯﾁﾝｸﾞ
 10
-115.0
 20
-69.6
 11
-113.5
 21
-68.6
  0
LINE
  8
ﾊｯﾁﾝｸﾞ
 10
-116.5
 20
-69.125
 11
-116.8
 21
-69.975
  0
LINE
  8
ﾊｯﾁﾝｸﾞ
 10
-116.2
 20
-69.9
 11
-116.5
 21
-69.1
  0
LINE
  8
ﾊｯﾁﾝｸﾞ
 10
-116.0
 20
-67.6
 11
-116.0
 21
-68.1
  0
LINE
  8
ﾊｯﾁﾝｸﾞ
 10
-116.0
 20
-68.1
 11
-115.0
 21
-68.1
  0
LINE
  8
ﾊｯﾁﾝｸﾞ
 10
-115.0
 20
-68.125
 11
-116.0
 21
-67.625
  0
LINE
  8
ﾊｯﾁﾝｸﾞ
 10
-116.0
 20
-62.625
 11
-116.5
 21
-63.125
  0
LINE
  8
ﾊｯﾁﾝｸﾞ
 10
-116.5
 20
-63.1
 11
-115.5
 21
-63.1
  0
LINE
  8
ﾊｯﾁﾝｸﾞ
 10
-115.5
 20
-63.125
 11
-116.0
 21
-62.625
  0
LINE
  8
ﾊｯﾁﾝｸﾞ
 10
-117.05
 20
-63.1
 11
-116.95
 21
-63.1
  0
LINE
  8
ﾊｯﾁﾝｸﾞ
 10
-116.55
 20
-62.1
 11
-116.45
 21
-62.1
  0
LINE
  8
ﾊｯﾁﾝｸﾞ
 10
-115.55
 20
-62.1
 11
-115.45
 21
-62.1
  0
LINE
  8
ﾊｯﾁﾝｸﾞ
 10
-114.55
 20
-62.6
 11
-114.45
 21
-62.6
  0
LINE
  8
ﾊｯﾁﾝｸﾞ
 10
-115.05
 20
-63.6
 11
-114.95
 21
-63.6
  0
LINE
  8
ﾊｯﾁﾝｸﾞ
 10
-113.55
 20
-62.6
 11
-113.45
 21
-62.6
  0
LINE
  8
ﾊｯﾁﾝｸﾞ
 10
-112.55
 20
-62.6
 11
-112.45
 21
-62.6
  0
LINE
  8
ﾊｯﾁﾝｸﾞ
 10
-111.05
 20
-62.1
 11
-110.95
 21
-62.1
  0
LINE
  8
ﾊｯﾁﾝｸﾞ
 10
-112.05
 20
-64.1
 11
-111.95
 21
-64.1
  0
LINE
  8
ﾊｯﾁﾝｸﾞ
 10
-112.55
 20
-65.1
 11
-112.45
 21
-65.1
  0
LINE
  8
ﾊｯﾁﾝｸﾞ
 10
-114.05
 20
-66.1
 11
-113.95
 21
-66.1
  0
LINE
  8
ﾊｯﾁﾝｸﾞ
 10
-113.05
 20
-66.6
 11
-112.95
 21
-66.6
  0
LINE
  8
ﾊｯﾁﾝｸﾞ
 10
-114.05
 20
-67.6
 11
-113.95
 21
-67.6
  0
LINE
  8
ﾊｯﾁﾝｸﾞ
 10
-114.55
 20
-68.1
 11
-114.45
 21
-68.1
  0
LINE
  8
ﾊｯﾁﾝｸﾞ
 10
-117.55
 20
-65.1
 11
-117.45
 21
-65.1
  0
LINE
  8
ﾊｯﾁﾝｸﾞ
 10
-117.05
 20
-64.1
 11
-116.95
 21
-64.1
  0
LINE
  8
ﾊｯﾁﾝｸﾞ
 10
-117.55
 20
-66.6
 11
-117.45
 21
-66.6
  0
LINE
  8
ﾊｯﾁﾝｸﾞ
 10
-118.55
 20
-66.6
 11
-118.45
 21
-66.6
  0
LINE
  8
ﾊｯﾁﾝｸﾞ
 10
-118.55
 20
-67.6
 11
-118.45
 21
-67.6
  0
LINE
  8
ﾊｯﾁﾝｸﾞ
 10
-117.05
 20
-67.6
 11
-116.95
 21
-67.6
  0
LINE
  8
ﾊｯﾁﾝｸﾞ
 10
-117.55
 20
-68.6
 11
-117.45
 21
-68.6
  0
LINE
  8
ﾊｯﾁﾝｸﾞ
 10
-116.55
 20
-68.6
 11
-116.45
 21
-68.6
  0
LINE
  8
ﾊｯﾁﾝｸﾞ
 10
-115.55
 20
-69.6
 11
-115.45
 21
-69.6
  0
LINE
  8
ﾊｯﾁﾝｸﾞ
 10
-119.55
 20
-70.1
 11
-119.45
 21
-70.1
  0
ENDBLK
  0
BLOCK
  2
*HAT_0015
 70
    65
 10
0.0
 20
0.0
  0
LINE
  8
St
 10
-70.625
 20
-26.3
 11
-70.0
 21
-26.925
  0
LINE
  8
St
 10
-71.075
 20
-26.3
 11
-70.2
 21
-27.2
  0
LINE
  8
St
 10
-71.55
 20
-26.3
 11
-70.55
 21
-27.3
  0
LINE
  8
St
 10
-72.025
 20
-26.3
 11
-71.025
 21
-27.3
  0
LINE
  8
St
 10
-72.5
 20
-26.3
 11
-71.5
 21
-27.3
  0
LINE
  8
St
 10
-72.975
 20
-26.3
 11
-71.975
 21
-27.3
  0
LINE
  8
St
 10
-73.45
 20
-26.3
 11
-72.45
 21
-27.3
  0
LINE
  8
St
 10
-73.9
 20
-26.3
 11
-72.9
 21
-27.3
  0
LINE
  8
St
 10
-74.375
 20
-26.3
 11
-73.375
 21
-27.3
  0
LINE
  8
St
 10
-74.85
 20
-26.3
 11
-73.85
 21
-27.3
  0
LINE
  8
St
 10
-75.325
 20
-26.3
 11
-74.325
 21
-27.3
  0
LINE
  8
St
 10
-75.8
 20
-26.3
 11
-74.8
 21
-27.3
  0
LINE
  8
St
 10
-76.275
 20
-26.3
 11
-75.275
 21
-27.3
  0
LINE
  8
St
 10
-76.725
 20
-26.3
 11
-75.725
 21
-27.3
  0
LINE
  8
St
 10
-77.2
 20
-26.3
 11
-76.2
 21
-27.3
  0
LINE
  8
St
 10
-77.675
 20
-26.3
 11
-76.675
 21
-27.3
  0
LINE
  8
St
 10
-78.15
 20
-26.3
 11
-77.15
 21
-27.3
  0
LINE
  8
St
 10
-78.625
 20
-26.3
 11
-77.625
 21
-27.3
  0
LINE
  8
St
 10
-79.1
 20
-26.3
 11
-78.1
 21
-27.3
  0
LINE
  8
St
 10
-79.55
 20
-26.3
 11
-78.55
 21
-27.3
  0
LINE
  8
St
 10
-79.875
 20
-26.475
 11
-79.025
 21
-27.3
  0
LINE
  8
St
 10
-80.0
 20
-26.825
 11
-79.5
 21
-27.3
  0
ENDBLK
  0
BLOCK
  2
*HAT_0016
 70
    65
 10
0.0
 20
0.0
  0
LINE
  8
St
 10
61.75
 20
-26.3
 11
61.125
 21
-26.925
  0
LINE
  8
St
 10
62.2
 20
-26.3
 11
61.325
 21
-27.2
  0
LINE
  8
St
 10
62.675
 20
-26.3
 11
61.675
 21
-27.3
  0
LINE
  8
St
 10
63.15
 20
-26.3
 11
62.15
 21
-27.3
  0
LINE
  8
St
 10
63.625
 20
-26.3
 11
62.625
 21
-27.3
  0
LINE
  8
St
 10
64.1
 20
-26.3
 11
63.1
 21
-27.3
  0
LINE
  8
St
 10
64.575
 20
-26.3
 11
63.575
 21
-27.3
  0
LINE
  8
St
 10
65.025
 20
-26.3
 11
64.025
 21
-27.3
  0
LINE
  8
St
 10
65.5
 20
-26.3
 11
64.5
 21
-27.3
  0
LINE
  8
St
 10
65.975
 20
-26.3
 11
64.975
 21
-27.3
  0
LINE
  8
St
 10
66.45
 20
-26.3
 11
65.45
 21
-27.3
  0
LINE
  8
St
 10
66.925
 20
-26.3
 11
65.925
 21
-27.3
  0
LINE
  8
St
 10
67.4
 20
-26.3
 11
66.4
 21
-27.3
  0
LINE
  8
St
 10
67.85
 20
-26.3
 11
66.85
 21
-27.3
  0
LINE
  8
St
 10
68.325
 20
-26.3
 11
67.325
 21
-27.3
  0
LINE
  8
St
 10
68.8
 20
-26.3
 11
67.8
 21
-27.3
  0
LINE
  8
St
 10
69.275
 20
-26.3
 11
68.275
 21
-27.3
  0
LINE
  8
St
 10
69.75
 20
-26.3
 11
68.75
 21
-27.3
  0
LINE
  8
St
 10
70.225
 20
-26.3
 11
69.225
 21
-27.3
  0
LINE
  8
St
 10
70.675
 20
-26.3
 11
69.675
 21
-27.3
  0
LINE
  8
St
 10
71.0
 20
-26.475
 11
70.15
 21
-27.3
  0
LINE
  8
St
 10
71.125
 20
-26.825
 11
70.625
 21
-27.3
  0
ENDBLK
  0
BLOCK
  2
*HAT_0017
 70
    65
 10
0.0
 20
0.0
  0
LINE
  8
その他部品等
 10
-96.05
 20
-58.7
 11
-95.825
 21
-58.45
  0
LINE
  8
その他部品等
 10
-97.15
 20
-58.85
 11
-95.825
 21
-57.525
  0
LINE
  8
その他部品等
 10
-98.225
 20
-59.0
 11
-95.825
 21
-56.575
  0
LINE
  8
その他部品等
 10
-98.375
 20
-58.175
 11
-95.825
 21
-55.65
  0
LINE
  8
その他部品等
 10
-98.375
 20
-57.225
 11
-95.825
 21
-54.7
  0
LINE
  8
その他部品等
 10
-98.375
 20
-56.3
 11
-96.075
 21
-54.0
  0
LINE
  8
その他部品等
 10
-98.375
 20
-55.35
 11
-97.025
 21
-54.0
  0
LINE
  8
その他部品等
 10
-98.375
 20
-54.4
 11
-97.95
 21
-54.0
  0
LINE
  8
その他部品等
 10
-98.375
 20
-58.7
 11
-98.1
 21
-58.975
  0
LINE
  8
その他部品等
 10
-98.375
 20
-57.75
 11
-97.275
 21
-58.85
  0
LINE
  8
その他部品等
 10
-98.375
 20
-56.825
 11
-96.45
 21
-58.75
  0
LINE
  8
その他部品等
 10
-98.375
 20
-55.875
 11
-95.825
 21
-58.4
  0
LINE
  8
その他部品等
 10
-98.375
 20
-54.95
 11
-95.825
 21
-57.475
  0
LINE
  8
その他部品等
 10
-98.375
 20
-54.0
 11
-95.825
 21
-56.525
  0
LINE
  8
その他部品等
 10
-97.425
 20
-54.0
 11
-95.825
 21
-55.6
  0
LINE
  8
その他部品等
 10
-96.475
 20
-54.0
 11
-95.825
 21
-54.65
  0
ENDBLK
  0
BLOCK
  2
*HAT_0018
 70
    65
 10
0.0
 20
0.0
  0
LINE
  8
その他部品等
 10
-125.625
 20
-83.55
 11
-125.025
 21
-82.95
  0
LINE
  8
その他部品等
 10
-126.55
 20
-83.55
 11
-125.025
 21
-82.025
  0
LINE
  8
その他部品等
 10
-127.5
 20
-83.55
 11
-125.025
 21
-81.075
  0
LINE
  8
その他部品等
 10
-128.425
 20
-83.55
 11
-125.775
 21
-80.875
  0
LINE
  8
その他部品等
 10
-129.375
 20
-83.55
 11
-126.7
 21
-80.875
  0
LINE
  8
その他部品等
 10
-130.325
 20
-83.55
 11
-127.65
 21
-80.875
  0
LINE
  8
その他部品等
 10
-131.175
 20
-83.45
 11
-128.575
 21
-80.875
  0
LINE
  8
その他部品等
 10
-131.175
 20
-82.5
 11
-129.525
 21
-80.875
  0
LINE
  8
その他部品等
 10
-131.175
 20
-81.55
 11
-130.475
 21
-80.875
  0
LINE
  8
その他部品等
 10
-131.175
 20
-83.325
 11
-130.95
 21
-83.55
  0
LINE
  8
その他部品等
 10
-131.175
 20
-82.375
 11
-130.0
 21
-83.55
  0
LINE
  8
その他部品等
 10
-131.175
 20
-81.45
 11
-129.075
 21
-83.55
  0
LINE
  8
その他部品等
 10
-130.8
 20
-80.875
 11
-128.125
 21
-83.55
  0
LINE
  8
その他部品等
 10
-129.85
 20
-80.875
 11
-127.175
 21
-83.55
  0
LINE
  8
その他部品等
 10
-128.925
 20
-80.875
 11
-126.25
 21
-83.55
  0
LINE
  8
その他部品等
 10
-127.975
 20
-80.875
 11
-125.3
 21
-83.55
  0
LINE
  8
その他部品等
 10
-127.025
 20
-80.875
 11
-125.025
 21
-82.875
  0
LINE
  8
その他部品等
 10
-126.075
 20
-80.875
 11
-125.025
 21
-81.925
  0
LINE
  8
その他部品等
 10
-125.15
 20
-80.875
 11
-125.025
 21
-81.0
  0
ENDBLK
  0
BLOCK
  2
*HAT_0019
 70
    65
 10
0.0
 20
0.0
  0
LINE
  8
その他部品等
 10
-59.125
 20
-44.15
 11
-59.025
 21
-44.05
  0
LINE
  8
その他部品等
 10
-60.15
 20
-44.325
 11
-59.025
 21
-43.2
  0
LINE
  8
その他部品等
 10
-61.15
 20
-44.475
 11
-59.825
 21
-43.15
  0
LINE
  8
その他部品等
 10
-62.175
 20
-44.65
 11
-60.85
 21
-43.325
  0
LINE
  8
その他部品等
 10
-63.2
 20
-44.825
 11
-61.875
 21
-43.5
  0
LINE
  8
その他部品等
 10
-64.225
 20
-45.0
 11
-62.875
 21
-43.675
  0
LINE
  8
その他部品等
 10
-65.25
 20
-45.175
 11
-63.9
 21
-43.85
  0
LINE
  8
その他部品等
 10
-66.25
 20
-45.35
 11
-64.925
 21
-44.025
  0
LINE
  8
その他部品等
 10
-67.275
 20
-45.525
 11
-65.95
 21
-44.2
  0
LINE
  8
その他部品等
 10
-68.3
 20
-45.7
 11
-66.975
 21
-44.35
  0
LINE
  8
その他部品等
 10
-69.325
 20
-45.875
 11
-68.0
 21
-44.525
  0
LINE
  8
その他部品等
 10
-70.35
 20
-46.05
 11
-69.0
 21
-44.7
  0
LINE
  8
その他部品等
 10
-71.35
 20
-46.2
 11
-70.025
 21
-44.875
  0
LINE
  8
その他部品等
 10
-72.375
 20
-46.375
 11
-71.05
 21
-45.05
  0
LINE
  8
その他部品等
 10
-73.4
 20
-46.55
 11
-72.075
 21
-45.225
  0
LINE
  8
その他部品等
 10
-74.425
 20
-46.725
 11
-73.1
 21
-45.4
  0
LINE
  8
その他部品等
 10
-75.45
 20
-46.9
 11
-74.1
 21
-45.575
  0
LINE
  8
その他部品等
 10
-76.45
 20
-47.075
 11
-75.125
 21
-45.75
  0
LINE
  8
その他部品等
 10
-77.475
 20
-47.25
 11
-76.15
 21
-45.925
  0
LINE
  8
その他部品等
 10
-78.5
 20
-47.425
 11
-77.175
 21
-46.1
  0
LINE
  8
その他部品等
 10
-79.525
 20
-47.6
 11
-78.2
 21
-46.275
  0
LINE
  8
その他部品等
 10
-80.55
 20
-47.775
 11
-79.2
 21
-46.45
  0
LINE
  8
その他部品等
 10
-81.575
 20
-47.95
 11
-80.225
 21
-46.6
  0
LINE
  8
その他部品等
 10
-82.575
 20
-48.125
 11
-81.25
 21
-46.775
  0
LINE
  8
その他部品等
 10
-83.6
 20
-48.3
 11
-82.275
 21
-46.95
  0
LINE
  8
その他部品等
 10
-84.625
 20
-48.475
 11
-83.3
 21
-47.125
  0
LINE
  8
その他部品等
 10
-85.65
 20
-48.625
 11
-84.3
 21
-47.3
  0
LINE
  8
その他部品等
 10
-86.675
 20
-48.8
 11
-85.325
 21
-47.475
  0
LINE
  8
その他部品等
 10
-87.675
 20
-48.975
 11
-86.35
 21
-47.65
  0
LINE
  8
その他部品等
 10
-88.7
 20
-49.15
 11
-87.375
 21
-47.825
  0
LINE
  8
その他部品等
 10
-89.725
 20
-49.325
 11
-88.4
 21
-48.0
  0
LINE
  8
その他部品等
 10
-90.75
 20
-49.5
 11
-89.4
 21
-48.175
  0
LINE
  8
その他部品等
 10
-91.775
 20
-49.675
 11
-90.425
 21
-48.35
  0
LINE
  8
その他部品等
 10
-92.775
 20
-49.85
 11
-91.45
 21
-48.5
  0
LINE
  8
その他部品等
 10
-97.125
 20
-53.35
 11
-96.7
 21
-52.9
  0
LINE
  8
その他部品等
 10
-93.8
 20
-50.025
 11
-92.475
 21
-48.675
  0
LINE
  8
その他部品等
 10
-97.7
 20
-53.075
 11
-96.7
 21
-52.075
  0
LINE
  8
その他部品等
 10
-97.7
 20
-52.225
 11
-96.7
 21
-51.225
  0
LINE
  8
その他部品等
 10
-94.825
 20
-50.2
 11
-93.5
 21
-48.85
  0
LINE
  8
その他部品等
 10
-95.85
 20
-50.375
 11
-94.5
 21
-49.025
  0
LINE
  8
その他部品等
 10
-97.7
 20
-51.375
 11
-95.525
 21
-49.2
  0
LINE
  8
その他部品等
 10
-97.7
 20
-50.525
 11
-96.55
 21
-49.375
  0
LINE
  8
その他部品等
 10
-97.7
 20
-49.675
 11
-97.575
 21
-49.55
  0
LINE
  8
その他部品等
 10
-97.7
 20
-52.55
 11
-96.9
 21
-53.35
  0
LINE
  8
その他部品等
 10
-97.7
 20
-51.7
 11
-96.7
 21
-52.7
  0
LINE
  8
その他部品等
 10
-97.7
 20
-50.85
 11
-96.7
 21
-51.85
  0
LINE
  8
その他部品等
 10
-97.7
 20
-50.0
 11
-96.7
 21
-51.0
  0
LINE
  8
その他部品等
 10
-97.35
 20
-49.5
 11
-96.325
 21
-50.525
  0
LINE
  8
その他部品等
 10
-96.625
 20
-49.375
 11
-95.675
 21
-50.325
  0
LINE
  8
その他部品等
 10
-95.9
 20
-49.275
 11
-94.95
 21
-50.2
  0
LINE
  8
その他部品等
 10
-95.175
 20
-49.15
 11
-94.225
 21
-50.1
  0
LINE
  8
その他部品等
 10
-94.45
 20
-49.025
 11
-93.5
 21
-49.975
  0
LINE
  8
その他部品等
 10
-93.725
 20
-48.9
 11
-92.775
 21
-49.85
  0
LINE
  8
その他部品等
 10
-93.0
 20
-48.775
 11
-92.05
 21
-49.725
  0
LINE
  8
その他部品等
 10
-92.275
 20
-48.65
 11
-91.325
 21
-49.6
  0
LINE
  8
その他部品等
 10
-91.55
 20
-48.525
 11
-90.6
 21
-49.475
  0
LINE
  8
その他部品等
 10
-90.825
 20
-48.4
 11
-89.875
 21
-49.35
  0
LINE
  8
その他部品等
 10
-90.1
 20
-48.275
 11
-89.15
 21
-49.225
  0
LINE
  8
その他部品等
 10
-89.375
 20
-48.15
 11
-88.425
 21
-49.1
  0
LINE
  8
その他部品等
 10
-88.65
 20
-48.025
 11
-87.7
 21
-48.975
  0
LINE
  8
その他部品等
 10
-87.925
 20
-47.9
 11
-86.975
 21
-48.85
  0
LINE
  8
その他部品等
 10
-87.2
 20
-47.8
 11
-86.25
 21
-48.725
  0
LINE
  8
その他部品等
 10
-86.475
 20
-47.675
 11
-85.525
 21
-48.625
  0
LINE
  8
その他部品等
 10
-85.75
 20
-47.55
 11
-84.8
 21
-48.5
  0
LINE
  8
その他部品等
 10
-85.025
 20
-47.425
 11
-84.075
 21
-48.375
  0
LINE
  8
その他部品等
 10
-84.3
 20
-47.3
 11
-83.35
 21
-48.25
  0
LINE
  8
その他部品等
 10
-83.575
 20
-47.175
 11
-82.625
 21
-48.125
  0
LINE
  8
その他部品等
 10
-82.85
 20
-47.05
 11
-81.9
 21
-48.0
  0
LINE
  8
その他部品等
 10
-82.125
 20
-46.925
 11
-81.2
 21
-47.875
  0
LINE
  8
その他部品等
 10
-81.4
 20
-46.8
 11
-80.475
 21
-47.75
  0
LINE
  8
その他部品等
 10
-80.675
 20
-46.675
 11
-79.75
 21
-47.625
  0
LINE
  8
その他部品等
 10
-79.95
 20
-46.575
 11
-79.025
 21
-47.5
  0
LINE
  8
その他部品等
 10
-79.225
 20
-46.45
 11
-78.3
 21
-47.4
  0
LINE
  8
その他部品等
 10
-78.5
 20
-46.325
 11
-77.575
 21
-47.275
  0
LINE
  8
その他部品等
 10
-77.8
 20
-46.2
 11
-76.85
 21
-47.15
  0
LINE
  8
その他部品等
 10
-77.075
 20
-46.075
 11
-76.125
 21
-47.025
  0
LINE
  8
その他部品等
 10
-76.35
 20
-45.95
 11
-75.4
 21
-46.9
  0
LINE
  8
その他部品等
 10
-75.625
 20
-45.825
 11
-74.675
 21
-46.775
  0
LINE
  8
その他部品等
 10
-74.9
 20
-45.7
 11
-73.95
 21
-46.65
  0
LINE
  8
その他部品等
 10
-74.175
 20
-45.575
 11
-73.225
 21
-46.525
  0
LINE
  8
その他部品等
 10
-73.45
 20
-45.45
 11
-72.5
 21
-46.4
  0
LINE
  8
その他部品等
 10
-72.725
 20
-45.325
 11
-71.775
 21
-46.275
  0
LINE
  8
その他部品等
 10
-72.0
 20
-45.2
 11
-71.05
 21
-46.15
  0
LINE
  8
その他部品等
 10
-71.275
 20
-45.1
 11
-70.325
 21
-46.025
  0
LINE
  8
その他部品等
 10
-70.55
 20
-44.975
 11
-69.6
 21
-45.925
  0
LINE
  8
その他部品等
 10
-69.825
 20
-44.85
 11
-68.875
 21
-45.8
  0
LINE
  8
その他部品等
 10
-69.1
 20
-44.725
 11
-68.15
 21
-45.675
  0
LINE
  8
その他部品等
 10
-68.375
 20
-44.6
 11
-67.425
 21
-45.55
  0
LINE
  8
その他部品等
 10
-67.65
 20
-44.475
 11
-66.7
 21
-45.425
  0
LINE
  8
その他部品等
 10
-66.925
 20
-44.35
 11
-65.975
 21
-45.3
  0
LINE
  8
その他部品等
 10
-66.2
 20
-44.225
 11
-65.25
 21
-45.175
  0
LINE
  8
その他部品等
 10
-65.475
 20
-44.1
 11
-64.525
 21
-45.05
  0
LINE
  8
その他部品等
 10
-64.75
 20
-43.975
 11
-63.8
 21
-44.925
  0
LINE
  8
その他部品等
 10
-64.025
 20
-43.85
 11
-63.075
 21
-44.8
  0
LINE
  8
その他部品等
 10
-63.3
 20
-43.725
 11
-62.35
 21
-44.675
  0
LINE
  8
その他部品等
 10
-62.575
 20
-43.625
 11
-61.625
 21
-44.575
  0
LINE
  8
その他部品等
 10
-61.85
 20
-43.5
 11
-60.9
 21
-44.45
  0
LINE
  8
その他部品等
 10
-61.125
 20
-43.375
 11
-60.175
 21
-44.325
  0
LINE
  8
その他部品等
 10
-60.4
 20
-43.25
 11
-59.45
 21
-44.2
  0
LINE
  8
その他部品等
 10
-59.675
 20
-43.125
 11
-59.025
 21
-43.775
  0
ENDBLK
  0
BLOCK
  2
*HAT_0020
 70
    65
 10
0.0
 20
0.0
  0
LINE
  8
その他部品等
 10
-59.325
 20
-52.8
 11
-59.025
 21
-52.525
  0
LINE
  8
その他部品等
 10
-60.175
 20
-52.8
 11
-59.025
 21
-51.675
  0
LINE
  8
その他部品等
 10
-61.025
 20
-52.8
 11
-59.025
 21
-50.825
  0
LINE
  8
その他部品等
 10
-61.85
 20
-52.8
 11
-59.025
 21
-49.975
  0
LINE
  8
その他部品等
 10
-62.7
 20
-52.8
 11
-59.025
 21
-49.125
  0
LINE
  8
その他部品等
 10
-63.55
 20
-52.8
 11
-59.025
 21
-48.275
  0
LINE
  8
その他部品等
 10
-64.4
 20
-52.8
 11
-59.025
 21
-47.425
  0
LINE
  8
その他部品等
 10
-65.25
 20
-52.8
 11
-59.025
 21
-46.6
  0
LINE
  8
その他部品等
 10
-65.45
 20
-52.175
 11
-59.025
 21
-45.75
  0
LINE
  8
その他部品等
 10
-65.45
 20
-51.325
 11
-59.025
 21
-44.9
  0
LINE
  8
その他部品等
 10
-65.45
 20
-50.475
 11
-59.775
 21
-44.8
  0
LINE
  8
その他部品等
 10
-65.45
 20
-49.625
 11
-60.8
 21
-44.975
  0
LINE
  8
その他部品等
 10
-65.45
 20
-48.775
 11
-61.8
 21
-45.125
  0
LINE
  8
その他部品等
 10
-65.45
 20
-47.925
 11
-62.825
 21
-45.3
  0
LINE
  8
その他部品等
 10
-65.45
 20
-47.075
 11
-63.85
 21
-45.475
  0
LINE
  8
その他部品等
 10
-65.45
 20
-46.25
 11
-64.875
 21
-45.65
  0
LINE
  8
その他部品等
 10
-65.45
 20
-52.6
 11
-65.25
 21
-52.8
  0
LINE
  8
その他部品等
 10
-65.45
 20
-51.75
 11
-64.4
 21
-52.8
  0
LINE
  8
その他部品等
 10
-65.45
 20
-50.9
 11
-63.55
 21
-52.8
  0
LINE
  8
その他部品等
 10
-65.45
 20
-50.05
 11
-62.7
 21
-52.8
  0
LINE
  8
その他部品等
 10
-65.45
 20
-49.2
 11
-61.85
 21
-52.8
  0
LINE
  8
その他部品等
 10
-65.45
 20
-48.35
 11
-61.0
 21
-52.8
  0
LINE
  8
その他部品等
 10
-65.45
 20
-47.5
 11
-60.15
 21
-52.8
  0
LINE
  8
その他部品等
 10
-65.45
 20
-46.675
 11
-59.325
 21
-52.8
  0
LINE
  8
その他部品等
 10
-65.45
 20
-45.825
 11
-59.025
 21
-52.25
  0
LINE
  8
その他部品等
 10
-64.8
 20
-45.65
 11
-59.025
 21
-51.4
  0
LINE
  8
その他部品等
 10
-64.075
 20
-45.525
 11
-59.025
 21
-50.55
  0
LINE
  8
その他部品等
 10
-63.35
 20
-45.4
 11
-59.025
 21
-49.7
  0
LINE
  8
その他部品等
 10
-62.625
 20
-45.275
 11
-59.025
 21
-48.85
  0
LINE
  8
その他部品等
 10
-61.9
 20
-45.15
 11
-59.025
 21
-48.0
  0
LINE
  8
その他部品等
 10
-61.175
 20
-45.025
 11
-59.025
 21
-47.15
  0
LINE
  8
その他部品等
 10
-60.45
 20
-44.9
 11
-59.025
 21
-46.3
  0
LINE
  8
その他部品等
 10
-59.725
 20
-44.775
 11
-59.025
 21
-45.45
  0
ENDBLK
  0
BLOCK
  2
*HAT_0021
 70
    65
 10
0.0
 20
0.0
  0
LINE
  8
その他部品等
 10
87.2
 20
-58.7
 11
86.975
 21
-58.45
  0
LINE
  8
その他部品等
 10
88.3
 20
-58.85
 11
86.975
 21
-57.525
  0
LINE
  8
その他部品等
 10
89.375
 20
-59.0
 11
86.975
 21
-56.575
  0
LINE
  8
その他部品等
 10
89.525
 20
-58.175
 11
86.975
 21
-55.65
  0
LINE
  8
その他部品等
 10
89.525
 20
-57.225
 11
86.975
 21
-54.7
  0
LINE
  8
その他部品等
 10
89.525
 20
-56.3
 11
87.225
 21
-54.0
  0
LINE
  8
その他部品等
 10
89.525
 20
-55.35
 11
88.175
 21
-54.0
  0
LINE
  8
その他部品等
 10
89.525
 20
-54.4
 11
89.1
 21
-54.0
  0
LINE
  8
その他部品等
 10
89.525
 20
-58.7
 11
89.25
 21
-58.975
  0
LINE
  8
その他部品等
 10
89.525
 20
-57.75
 11
88.425
 21
-58.85
  0
LINE
  8
その他部品等
 10
89.525
 20
-56.825
 11
87.6
 21
-58.75
  0
LINE
  8
その他部品等
 10
89.525
 20
-55.875
 11
86.975
 21
-58.4
  0
LINE
  8
その他部品等
 10
89.525
 20
-54.95
 11
86.975
 21
-57.475
  0
LINE
  8
その他部品等
 10
89.525
 20
-54.0
 11
86.975
 21
-56.525
  0
LINE
  8
その他部品等
 10
88.575
 20
-54.0
 11
86.975
 21
-55.6
  0
LINE
  8
その他部品等
 10
87.625
 20
-54.0
 11
86.975
 21
-54.65
  0
ENDBLK
  0
BLOCK
  2
*HAT_0022
 70
    65
 10
0.0
 20
0.0
  0
LINE
  8
その他部品等
 10
116.775
 20
-83.55
 11
116.175
 21
-82.95
  0
LINE
  8
その他部品等
 10
117.7
 20
-83.55
 11
116.175
 21
-82.025
  0
LINE
  8
その他部品等
 10
118.65
 20
-83.55
 11
116.175
 21
-81.075
  0
LINE
  8
その他部品等
 10
119.575
 20
-83.55
 11
116.925
 21
-80.875
  0
LINE
  8
その他部品等
 10
120.525
 20
-83.55
 11
117.85
 21
-80.875
  0
LINE
  8
その他部品等
 10
121.475
 20
-83.55
 11
118.8
 21
-80.875
  0
LINE
  8
その他部品等
 10
122.325
 20
-83.45
 11
119.725
 21
-80.875
  0
LINE
  8
その他部品等
 10
122.325
 20
-82.5
 11
120.675
 21
-80.875
  0
LINE
  8
その他部品等
 10
122.325
 20
-81.55
 11
121.625
 21
-80.875
  0
LINE
  8
その他部品等
 10
122.325
 20
-83.325
 11
122.1
 21
-83.55
  0
LINE
  8
その他部品等
 10
122.325
 20
-82.375
 11
121.15
 21
-83.55
  0
LINE
  8
その他部品等
 10
122.325
 20
-81.45
 11
120.225
 21
-83.55
  0
LINE
  8
その他部品等
 10
121.95
 20
-80.875
 11
119.275
 21
-83.55
  0
LINE
  8
その他部品等
 10
121.0
 20
-80.875
 11
118.325
 21
-83.55
  0
LINE
  8
その他部品等
 10
120.075
 20
-80.875
 11
117.4
 21
-83.55
  0
LINE
  8
その他部品等
 10
119.125
 20
-80.875
 11
116.45
 21
-83.55
  0
LINE
  8
その他部品等
 10
118.175
 20
-80.875
 11
116.175
 21
-82.875
  0
LINE
  8
その他部品等
 10
117.225
 20
-80.875
 11
116.175
 21
-81.925
  0
LINE
  8
その他部品等
 10
116.3
 20
-80.875
 11
116.175
 21
-81.0
  0
ENDBLK
  0
BLOCK
  2
*HAT_0023
 70
    65
 10
0.0
 20
0.0
  0
LINE
  8
その他部品等
 10
50.275
 20
-44.15
 11
50.175
 21
-44.05
  0
LINE
  8
その他部品等
 10
51.3
 20
-44.325
 11
50.175
 21
-43.2
  0
LINE
  8
その他部品等
 10
52.3
 20
-44.475
 11
50.975
 21
-43.15
  0
LINE
  8
その他部品等
 10
53.325
 20
-44.65
 11
52.0
 21
-43.325
  0
LINE
  8
その他部品等
 10
54.35
 20
-44.825
 11
53.025
 21
-43.5
  0
LINE
  8
その他部品等
 10
55.375
 20
-45.0
 11
54.025
 21
-43.675
  0
LINE
  8
その他部品等
 10
56.4
 20
-45.175
 11
55.05
 21
-43.85
  0
LINE
  8
その他部品等
 10
57.4
 20
-45.35
 11
56.075
 21
-44.025
  0
LINE
  8
その他部品等
 10
58.425
 20
-45.525
 11
57.1
 21
-44.2
  0
LINE
  8
その他部品等
 10
59.45
 20
-45.7
 11
58.125
 21
-44.35
  0
LINE
  8
その他部品等
 10
60.475
 20
-45.875
 11
59.15
 21
-44.525
  0
LINE
  8
その他部品等
 10
61.5
 20
-46.05
 11
60.15
 21
-44.7
  0
LINE
  8
その他部品等
 10
62.5
 20
-46.2
 11
61.175
 21
-44.875
  0
LINE
  8
その他部品等
 10
63.525
 20
-46.375
 11
62.2
 21
-45.05
  0
LINE
  8
その他部品等
 10
64.55
 20
-46.55
 11
63.225
 21
-45.225
  0
LINE
  8
その他部品等
 10
65.575
 20
-46.725
 11
64.25
 21
-45.4
  0
LINE
  8
その他部品等
 10
66.6
 20
-46.9
 11
65.25
 21
-45.575
  0
LINE
  8
その他部品等
 10
67.6
 20
-47.075
 11
66.275
 21
-45.75
  0
LINE
  8
その他部品等
 10
68.625
 20
-47.25
 11
67.3
 21
-45.925
  0
LINE
  8
その他部品等
 10
69.65
 20
-47.425
 11
68.325
 21
-46.1
  0
LINE
  8
その他部品等
 10
70.675
 20
-47.6
 11
69.35
 21
-46.275
  0
LINE
  8
その他部品等
 10
71.7
 20
-47.775
 11
70.35
 21
-46.45
  0
LINE
  8
その他部品等
 10
72.725
 20
-47.95
 11
71.375
 21
-46.6
  0
LINE
  8
その他部品等
 10
73.725
 20
-48.125
 11
72.4
 21
-46.775
  0
LINE
  8
その他部品等
 10
74.75
 20
-48.3
 11
73.425
 21
-46.95
  0
LINE
  8
その他部品等
 10
75.775
 20
-48.475
 11
74.45
 21
-47.125
  0
LINE
  8
その他部品等
 10
76.8
 20
-48.625
 11
75.45
 21
-47.3
  0
LINE
  8
その他部品等
 10
77.825
 20
-48.8
 11
76.475
 21
-47.475
  0
LINE
  8
その他部品等
 10
78.825
 20
-48.975
 11
77.5
 21
-47.65
  0
LINE
  8
その他部品等
 10
79.85
 20
-49.15
 11
78.525
 21
-47.825
  0
LINE
  8
その他部品等
 10
80.875
 20
-49.325
 11
79.55
 21
-48.0
  0
LINE
  8
その他部品等
 10
81.9
 20
-49.5
 11
80.55
 21
-48.175
  0
LINE
  8
その他部品等
 10
82.925
 20
-49.675
 11
81.575
 21
-48.35
  0
LINE
  8
その他部品等
 10
83.925
 20
-49.85
 11
82.6
 21
-48.5
  0
LINE
  8
その他部品等
 10
88.275
 20
-53.35
 11
87.85
 21
-52.9
  0
LINE
  8
その他部品等
 10
84.95
 20
-50.025
 11
83.625
 21
-48.675
  0
LINE
  8
その他部品等
 10
88.85
 20
-53.075
 11
87.85
 21
-52.075
  0
LINE
  8
その他部品等
 10
88.85
 20
-52.225
 11
87.85
 21
-51.225
  0
LINE
  8
その他部品等
 10
85.975
 20
-50.2
 11
84.65
 21
-48.85
  0
LINE
  8
その他部品等
 10
87.0
 20
-50.375
 11
85.65
 21
-49.025
  0
LINE
  8
その他部品等
 10
88.85
 20
-51.375
 11
86.675
 21
-49.2
  0
LINE
  8
その他部品等
 10
88.85
 20
-50.525
 11
87.7
 21
-49.375
  0
LINE
  8
その他部品等
 10
88.85
 20
-49.675
 11
88.725
 21
-49.55
  0
LINE
  8
その他部品等
 10
88.85
 20
-52.55
 11
88.05
 21
-53.35
  0
LINE
  8
その他部品等
 10
88.85
 20
-51.7
 11
87.85
 21
-52.7
  0
LINE
  8
その他部品等
 10
88.85
 20
-50.85
 11
87.85
 21
-51.85
  0
LINE
  8
その他部品等
 10
88.85
 20
-50.0
 11
87.85
 21
-51.0
  0
LINE
  8
その他部品等
 10
88.5
 20
-49.5
 11
87.475
 21
-50.525
  0
LINE
  8
その他部品等
 10
87.775
 20
-49.375
 11
86.825
 21
-50.325
  0
LINE
  8
その他部品等
 10
87.05
 20
-49.275
 11
86.1
 21
-50.2
  0
LINE
  8
その他部品等
 10
86.325
 20
-49.15
 11
85.375
 21
-50.1
  0
LINE
  8
その他部品等
 10
85.6
 20
-49.025
 11
84.65
 21
-49.975
  0
LINE
  8
その他部品等
 10
84.875
 20
-48.9
 11
83.925
 21
-49.85
  0
LINE
  8
その他部品等
 10
84.15
 20
-48.775
 11
83.2
 21
-49.725
  0
LINE
  8
その他部品等
 10
83.425
 20
-48.65
 11
82.475
 21
-49.6
  0
LINE
  8
その他部品等
 10
82.7
 20
-48.525
 11
81.75
 21
-49.475
  0
LINE
  8
その他部品等
 10
81.975
 20
-48.4
 11
81.025
 21
-49.35
  0
LINE
  8
その他部品等
 10
81.25
 20
-48.275
 11
80.3
 21
-49.225
  0
LINE
  8
その他部品等
 10
80.525
 20
-48.15
 11
79.575
 21
-49.1
  0
LINE
  8
その他部品等
 10
79.8
 20
-48.025
 11
78.85
 21
-48.975
  0
LINE
  8
その他部品等
 10
79.075
 20
-47.9
 11
78.125
 21
-48.85
  0
LINE
  8
その他部品等
 10
78.35
 20
-47.8
 11
77.4
 21
-48.725
  0
LINE
  8
その他部品等
 10
77.625
 20
-47.675
 11
76.675
 21
-48.625
  0
LINE
  8
その他部品等
 10
76.9
 20
-47.55
 11
75.95
 21
-48.5
  0
LINE
  8
その他部品等
 10
76.175
 20
-47.425
 11
75.225
 21
-48.375
  0
LINE
  8
その他部品等
 10
75.45
 20
-47.3
 11
74.5
 21
-48.25
  0
LINE
  8
その他部品等
 10
74.725
 20
-47.175
 11
73.775
 21
-48.125
  0
LINE
  8
その他部品等
 10
74.0
 20
-47.05
 11
73.05
 21
-48.0
  0
LINE
  8
その他部品等
 10
73.275
 20
-46.925
 11
72.35
 21
-47.875
  0
LINE
  8
その他部品等
 10
72.55
 20
-46.8
 11
71.625
 21
-47.75
  0
LINE
  8
その他部品等
 10
71.825
 20
-46.675
 11
70.9
 21
-47.625
  0
LINE
  8
その他部品等
 10
71.1
 20
-46.575
 11
70.175
 21
-47.5
  0
LINE
  8
その他部品等
 10
70.375
 20
-46.45
 11
69.45
 21
-47.4
  0
LINE
  8
その他部品等
 10
69.65
 20
-46.325
 11
68.725
 21
-47.275
  0
LINE
  8
その他部品等
 10
68.95
 20
-46.2
 11
68.0
 21
-47.15
  0
LINE
  8
その他部品等
 10
68.225
 20
-46.075
 11
67.275
 21
-47.025
  0
LINE
  8
その他部品等
 10
67.5
 20
-45.95
 11
66.55
 21
-46.9
  0
LINE
  8
その他部品等
 10
66.775
 20
-45.825
 11
65.825
 21
-46.775
  0
LINE
  8
その他部品等
 10
66.05
 20
-45.7
 11
65.1
 21
-46.65
  0
LINE
  8
その他部品等
 10
65.325
 20
-45.575
 11
64.375
 21
-46.525
  0
LINE
  8
その他部品等
 10
64.6
 20
-45.45
 11
63.65
 21
-46.4
  0
LINE
  8
その他部品等
 10
63.875
 20
-45.325
 11
62.925
 21
-46.275
  0
LINE
  8
その他部品等
 10
63.15
 20
-45.2
 11
62.2
 21
-46.15
  0
LINE
  8
その他部品等
 10
62.425
 20
-45.1
 11
61.475
 21
-46.025
  0
LINE
  8
その他部品等
 10
61.7
 20
-44.975
 11
60.75
 21
-45.925
  0
LINE
  8
その他部品等
 10
60.975
 20
-44.85
 11
60.025
 21
-45.8
  0
LINE
  8
その他部品等
 10
60.25
 20
-44.725
 11
59.3
 21
-45.675
  0
LINE
  8
その他部品等
 10
59.525
 20
-44.6
 11
58.575
 21
-45.55
  0
LINE
  8
その他部品等
 10
58.8
 20
-44.475
 11
57.85
 21
-45.425
  0
LINE
  8
その他部品等
 10
58.075
 20
-44.35
 11
57.125
 21
-45.3
  0
LINE
  8
その他部品等
 10
57.35
 20
-44.225
 11
56.4
 21
-45.175
  0
LINE
  8
その他部品等
 10
56.625
 20
-44.1
 11
55.675
 21
-45.05
  0
LINE
  8
その他部品等
 10
55.9
 20
-43.975
 11
54.95
 21
-44.925
  0
LINE
  8
その他部品等
 10
55.175
 20
-43.85
 11
54.225
 21
-44.8
  0
LINE
  8
その他部品等
 10
54.45
 20
-43.725
 11
53.5
 21
-44.675
  0
LINE
  8
その他部品等
 10
53.725
 20
-43.625
 11
52.775
 21
-44.575
  0
LINE
  8
その他部品等
 10
53.0
 20
-43.5
 11
52.05
 21
-44.45
  0
LINE
  8
その他部品等
 10
52.275
 20
-43.375
 11
51.325
 21
-44.325
  0
LINE
  8
その他部品等
 10
51.55
 20
-43.25
 11
50.6
 21
-44.2
  0
LINE
  8
その他部品等
 10
50.825
 20
-43.125
 11
50.175
 21
-43.775
  0
ENDBLK
  0
BLOCK
  2
*HAT_0024
 70
    65
 10
0.0
 20
0.0
  0
LINE
  8
その他部品等
 10
50.475
 20
-52.8
 11
50.175
 21
-52.525
  0
LINE
  8
その他部品等
 10
51.325
 20
-52.8
 11
50.175
 21
-51.675
  0
LINE
  8
その他部品等
 10
52.175
 20
-52.8
 11
50.175
 21
-50.825
  0
LINE
  8
その他部品等
 10
53.0
 20
-52.8
 11
50.175
 21
-49.975
  0
LINE
  8
その他部品等
 10
53.85
 20
-52.8
 11
50.175
 21
-49.125
  0
LINE
  8
その他部品等
 10
54.7
 20
-52.8
 11
50.175
 21
-48.275
  0
LINE
  8
その他部品等
 10
55.55
 20
-52.8
 11
50.175
 21
-47.425
  0
LINE
  8
その他部品等
 10
56.4
 20
-52.8
 11
50.175
 21
-46.6
  0
LINE
  8
その他部品等
 10
56.6
 20
-52.175
 11
50.175
 21
-45.75
  0
LINE
  8
その他部品等
 10
56.6
 20
-51.325
 11
50.175
 21
-44.9
  0
LINE
  8
その他部品等
 10
56.6
 20
-50.475
 11
50.925
 21
-44.8
  0
LINE
  8
その他部品等
 10
56.6
 20
-49.625
 11
51.95
 21
-44.975
  0
LINE
  8
その他部品等
 10
56.6
 20
-48.775
 11
52.95
 21
-45.125
  0
LINE
  8
その他部品等
 10
56.6
 20
-47.925
 11
53.975
 21
-45.3
  0
LINE
  8
その他部品等
 10
56.6
 20
-47.075
 11
55.0
 21
-45.475
  0
LINE
  8
その他部品等
 10
56.6
 20
-46.25
 11
56.025
 21
-45.65
  0
LINE
  8
その他部品等
 10
56.6
 20
-52.6
 11
56.4
 21
-52.8
  0
LINE
  8
その他部品等
 10
56.6
 20
-51.75
 11
55.55
 21
-52.8
  0
LINE
  8
その他部品等
 10
56.6
 20
-50.9
 11
54.7
 21
-52.8
  0
LINE
  8
その他部品等
 10
56.6
 20
-50.05
 11
53.85
 21
-52.8
  0
LINE
  8
その他部品等
 10
56.6
 20
-49.2
 11
53.0
 21
-52.8
  0
LINE
  8
その他部品等
 10
56.6
 20
-48.35
 11
52.15
 21
-52.8
  0
LINE
  8
その他部品等
 10
56.6
 20
-47.5
 11
51.3
 21
-52.8
  0
LINE
  8
その他部品等
 10
56.6
 20
-46.675
 11
50.475
 21
-52.8
  0
LINE
  8
その他部品等
 10
56.6
 20
-45.825
 11
50.175
 21
-52.25
  0
LINE
  8
その他部品等
 10
55.95
 20
-45.65
 11
50.175
 21
-51.4
  0
LINE
  8
その他部品等
 10
55.225
 20
-45.525
 11
50.175
 21
-50.55
  0
LINE
  8
その他部品等
 10
54.5
 20
-45.4
 11
50.175
 21
-49.7
  0
LINE
  8
その他部品等
 10
53.775
 20
-45.275
 11
50.175
 21
-48.85
  0
LINE
  8
その他部品等
 10
53.05
 20
-45.15
 11
50.175
 21
-48.0
  0
LINE
  8
その他部品等
 10
52.325
 20
-45.025
 11
50.175
 21
-47.15
  0
LINE
  8
その他部品等
 10
51.6
 20
-44.9
 11
50.175
 21
-46.3
  0
LINE
  8
その他部品等
 10
50.875
 20
-44.775
 11
50.175
 21
-45.45
  0
ENDBLK
  0
BLOCK
  2
*GRP_0001
 70
    65
 10
0.0
 20
0.0
  0
LINE
  8
型材断面
  6
CONTINUOUS
 10
195.0
 20
133.5
 11
195.0
 21
-133.5
  0
LINE
  8
型材断面
  6
CONTINUOUS
 10
195.0
 20
-133.5
 11
-185.0
 21
-133.5
  0
LINE
  8
型材断面
  6
CONTINUOUS
 10
-185.0
 20
-133.5
 11
-185.0
 21
133.5
  0
LINE
  8
型材断面
  6
CONTINUOUS
 10
195.0
 20
133.5
 11
-185.0
 21
133.5
  0
LINE
  8
型材断面
  6
CONTINUOUS
 10
145.0
 20
-133.5
 11
145.0
 21
-118.5
  0
LINE
  8
型材断面
  6
CONTINUOUS
 10
195.0
 20
-118.5
 11
145.0
 21
-118.5
  0
ENDBLK
  0
BLOCK
  2
*GRP_0002
 70
    65
 10
0.0
 20
0.0
  0
LINE
  8
曲げ物
  6
CONTINUOUS
 10
120.48658
 20
-77.211153
 11
120.48653
 21
-97.211153
  0
LINE
  8
曲げ物
  6
DOT
 10
120.153255
 20
-77.211153
 11
120.153205
 21
-97.211153
  0
LINE
  8
曲げ物
  6
CONTINUOUS
 10
117.15324
 20
-77.211153
 11
117.153215
 21
-97.211153
  0
LINE
  8
曲げ物
  6
DOT
 10
117.48659
 20
-77.211153
 11
117.48654
 21
-97.211153
  0
LINE
  8
曲げ物
  6
CONTINUOUS
 10
120.48653
 20
-97.211153
 11
117.153215
 21
-97.211153
  0
LINE
  8
曲げ物
  6
CONTINUOUS
 10
120.48658
 20
-77.211153
 11
117.15324
 21
-77.211153
  0
ENDBLK
  0
BLOCK
  2
*GRP_0003
 70
    65
 10
0.0
 20
0.0
  0
LINE
  8
曲げ物
  6
CONTINUOUS
 10
-126.01768
 20
-77.211153
 11
-126.01773
 21
-97.211153
  0
LINE
  8
曲げ物
  6
DOT
 10
-126.351005
 20
-77.211153
 11
-126.351055
 21
-97.211153
  0
LINE
  8
曲げ物
  6
CONTINUOUS
 10
-129.35102
 20
-77.211153
 11
-129.351045
 21
-97.211153
  0
LINE
  8
曲げ物
  6
DOT
 10
-129.01767
 20
-77.211153
 11
-129.01772
 21
-97.211153
  0
LINE
  8
曲げ物
  6
CONTINUOUS
 10
-126.01773
 20
-97.211153
 11
-129.351045
 21
-97.211153
  0
LINE
  8
曲げ物
  6
CONTINUOUS
 10
-126.01768
 20
-77.211153
 11
-129.35102
 21
-77.211153
  0
ENDBLK
  0
BLOCK
  2
*GRP_0004
 70
    65
 10
0.0
 20
0.0
  0
LINE
  8
型材断面
  6
CONTINUOUS
 62
    47
 10
-131.68421
 20
-63.544485
 11
-131.68425
 21
-83.544485
  0
LINE
  8
型材断面
  6
CONTINUOUS
 10
-131.150885
 20
-80.377818
 11
-130.484217
 21
-80.377818
  0
LINE
  8
型材断面
  6
CONTINUOUS
 10
-129.984217
 20
-79.544485
 11
-130.484217
 21
-79.544485
  0
LINE
  8
型材断面
  6
CONTINUOUS
 10
-130.484217
 20
-80.377818
 11
-130.484217
 21
-79.544485
  0
LINE
  8
型材断面
  6
CONTINUOUS
 10
-129.984217
 20
-80.544485
 11
-129.984217
 21
-79.544485
  0
LINE
  8
型材断面
  6
CONTINUOUS
 10
-131.150885
 20
-80.877818
 11
-130.31755
 21
-80.877818
  0
ARC
  8
型材断面
  6
CONTINUOUS
 10
-130.317554
 20
-80.544486
 40
0.333333
 50
-90.0
 51
0.0
  0
LINE
  8
型材断面
  6
CONTINUOUS
 62
    47
 10
-131.68425
 20
-83.544485
 11
-131.150918
 21
-83.544485
  0
LINE
  8
型材断面
  6
CONTINUOUS
 10
-131.15088
 20
-64.01017
 11
-131.15091
 21
-80.377818
  0
LINE
  8
型材断面
  6
CONTINUOUS
 10
-131.150912
 20
-80.877818
 11
-131.150918
 21
-83.544485
  0
LINE
  8
型材断面
  6
CONTINUOUS
 10
-126.889207
 20
-63.428947
 11
-126.7973
 21
-64.090657
  0
LINE
  8
型材断面
  6
CONTINUOUS
 10
-126.7973
 20
-64.090657
 11
-125.542192
 21
-63.919892
  0
LINE
  8
型材断面
  6
CONTINUOUS
 10
-125.542192
 20
-63.919892
 11
-125.473405
 21
-64.415143
  0
LINE
  8
型材断面
  6
CONTINUOUS
 10
-125.473405
 20
-64.415143
 11
-127.223953
 21
-64.653312
  0
LINE
  8
型材断面
  6
CONTINUOUS
 10
-127.384455
 20
-63.497732
 11
-127.223953
 21
-64.653312
  0
LINE
  8
型材断面
  6
CONTINUOUS
 10
-107.39555
 20
-60.776747
 11
-107.30733
 21
-61.438958
  0
LINE
  8
型材断面
  6
CONTINUOUS
 10
-107.30733
 20
-61.438958
 11
-108.56244
 21
-61.609723
  0
LINE
  8
型材断面
  6
CONTINUOUS
 10
-108.56244
 20
-61.609723
 11
-108.496413
 21
-62.105347
  0
LINE
  8
型材断面
  6
CONTINUOUS
 10
-108.496413
 20
-62.105347
 11
-106.745865
 21
-61.867177
  0
LINE
  8
型材断面
  6
CONTINUOUS
 10
-106.899928
 20
-60.710722
 11
-106.745865
 21
-61.867177
  0
LINE
  8
型材断面
  6
CONTINUOUS
 10
-95.23627
 20
-59.796637
 11
-95.167483
 21
-60.291885
  0
LINE
  8
型材断面
  6
CONTINUOUS
 10
-93.350878
 20
-60.044728
 11
-95.167483
 21
-60.291885
  0
LINE
  8
型材断面
  6
CONTINUOUS
 10
-95.23627
 20
-59.796637
 11
-93.850878
 21
-59.608147
  0
LINE
  8
型材断面
  6
CONTINUOUS
 10
-93.850878
 20
-59.608147
 11
-93.850878
 21
-58.93534
  0
LINE
  8
型材断面
  6
CONTINUOUS
 10
-131.15088
 20
-64.01017
 11
-127.384455
 21
-63.497732
  0
LINE
  8
型材断面
  6
CONTINUOUS
 10
-126.889015
 20
-63.430325
 11
-107.395365
 21
-60.778128
  0
LINE
  8
型材断面
  6
CONTINUOUS
 10
-106.899928
 20
-60.710722
 11
-93.850878
 21
-58.93534
  0
LINE
  8
型材断面
  6
CONTINUOUS
 10
-93.88421
 20
-54.501627
 11
-93.350878
 21
-54.501627
  0
LINE
  8
型材断面
  6
CONTINUOUS
 62
    47
 10
-93.350878
 20
-60.011088
 11
-93.350878
 21
-54.501627
  0
LINE
  8
型材断面
  6
CONTINUOUS
 10
-93.88421
 20
-54.501627
 11
-93.88421
 21
-58.401627
  0
LINE
  8
型材断面
  6
CONTINUOUS
 10
-131.68421
 20
-63.544485
 11
-93.88421
 21
-58.401627
  0
ENDBLK
  0
BLOCK
  2
*GRP_0005
 70
    65
 10
0.0
 20
0.0
  0
LINE
  8
型材断面
  6
CONTINUOUS
 62
    47
 10
122.81975
 20
-63.544485
 11
122.81979
 21
-83.544485
  0
LINE
  8
型材断面
  6
CONTINUOUS
 10
122.286425
 20
-80.377818
 11
121.619758
 21
-80.377818
  0
LINE
  8
型材断面
  6
CONTINUOUS
 10
121.119758
 20
-79.544485
 11
121.619758
 21
-79.544485
  0
LINE
  8
型材断面
  6
CONTINUOUS
 10
121.619758
 20
-80.377818
 11
121.619758
 21
-79.544485
  0
LINE
  8
型材断面
  6
CONTINUOUS
 10
121.119758
 20
-80.544485
 11
121.119758
 21
-79.544485
  0
LINE
  8
型材断面
  6
CONTINUOUS
 10
122.286425
 20
-80.877818
 11
121.45309
 21
-80.877818
  0
ARC
  8
型材断面
  6
CONTINUOUS
 10
121.453094
 20
-80.544486
 40
0.333333
 50
180.0
 51
270.0
  0
LINE
  8
型材断面
  6
CONTINUOUS
 62
    47
 10
122.81979
 20
-83.544485
 11
122.286457
 21
-83.544485
  0
LINE
  8
型材断面
  6
CONTINUOUS
 10
122.28642
 20
-64.01017
 11
122.28645
 21
-80.377818
  0
LINE
  8
型材断面
  6
CONTINUOUS
 10
122.286453
 20
-80.877818
 11
122.286457
 21
-83.544485
  0
LINE
  8
型材断面
  6
CONTINUOUS
 10
118.024748
 20
-63.428947
 11
117.93284
 21
-64.090657
  0
LINE
  8
型材断面
  6
CONTINUOUS
 10
117.93284
 20
-64.090657
 11
116.677732
 21
-63.919892
  0
LINE
  8
型材断面
  6
CONTINUOUS
 10
116.677732
 20
-63.919892
 11
116.608945
 21
-64.415143
  0
LINE
  8
型材断面
  6
CONTINUOUS
 10
116.608945
 20
-64.415143
 11
118.359492
 21
-64.653312
  0
LINE
  8
型材断面
  6
CONTINUOUS
 10
118.519995
 20
-63.497732
 11
118.359492
 21
-64.653312
  0
LINE
  8
型材断面
  6
CONTINUOUS
 10
98.53109
 20
-60.776747
 11
98.44287
 21
-61.438958
  0
LINE
  8
型材断面
  6
CONTINUOUS
 10
98.44287
 20
-61.438958
 11
99.69798
 21
-61.609723
  0
LINE
  8
型材断面
  6
CONTINUOUS
 10
99.69798
 20
-61.609723
 11
99.631953
 21
-62.105347
  0
LINE
  8
型材断面
  6
CONTINUOUS
 10
99.631953
 20
-62.105347
 11
97.881405
 21
-61.867177
  0
LINE
  8
型材断面
  6
CONTINUOUS
 10
98.035468
 20
-60.710722
 11
97.881405
 21
-61.867177
  0
LINE
  8
型材断面
  6
CONTINUOUS
 10
86.37181
 20
-59.796637
 11
86.303023
 21
-60.291885
  0
LINE
  8
型材断面
  6
CONTINUOUS
 10
84.486418
 20
-60.044728
 11
86.303023
 21
-60.291885
  0
LINE
  8
型材断面
  6
CONTINUOUS
 10
86.37181
 20
-59.796637
 11
84.986418
 21
-59.608147
  0
LINE
  8
型材断面
  6
CONTINUOUS
 10
84.986418
 20
-59.608147
 11
84.986418
 21
-58.93534
  0
LINE
  8
型材断面
  6
CONTINUOUS
 10
122.28642
 20
-64.01017
 11
118.519995
 21
-63.497732
  0
LINE
  8
型材断面
  6
CONTINUOUS
 10
118.024555
 20
-63.430325
 11
98.530905
 21
-60.778128
  0
LINE
  8
型材断面
  6
CONTINUOUS
 10
98.035468
 20
-60.710722
 11
84.986418
 21
-58.93534
  0
LINE
  8
型材断面
  6
CONTINUOUS
 10
85.01975
 20
-54.501627
 11
84.486418
 21
-54.501627
  0
LINE
  8
型材断面
  6
CONTINUOUS
 62
    47
 10
84.486418
 20
-60.011088
 11
84.486418
 21
-54.501627
  0
LINE
  8
型材断面
  6
CONTINUOUS
 10
85.01975
 20
-54.501627
 11
85.01975
 21
-58.401627
  0
LINE
  8
型材断面
  6
CONTINUOUS
 10
122.81975
 20
-63.544485
 11
85.01975
 21
-58.401627
  0
ENDBLK
  0
BLOCK
  2
*GRP_0006
 70
    65
 10
0.0
 20
0.0
  0
LINE
  8
型材断面
  6
CONTINUOUS
 62
    47
 10
-59.017502
 20
-53.342705
 11
-59.017502
 21
-43.01884
  0
LINE
  8
型材断面
  6
CONTINUOUS
 62
    47
 10
-97.684238
 20
-49.572535
 11
-59.017502
 21
-43.01884
  0
LINE
  8
型材断面
  6
CONTINUOUS
 62
    47
 10
-97.684238
 20
-49.572535
 11
-97.684238
 21
-53.342705
  0
LINE
  8
型材断面
  6
CONTINUOUS
 62
    47
 10
-93.350865
 20
-54.00933
 11
-98.350782
 21
-54.00933
  0
LINE
  8
型材断面
  6
CONTINUOUS
 62
    47
 10
-64.884133
 20
-53.342705
 11
-59.017502
 21
-53.342705
  0
LINE
  8
型材断面
  6
CONTINUOUS
 62
    47
 10
-64.884133
 20
-54.00933
 11
-58.350845
 21
-54.00933
  0
LINE
  8
型材断面
  6
CONTINUOUS
 62
    47
 10
-65.017522
 20
-53.876
 11
-65.017522
 21
-53.475978
  0
LINE
  8
型材断面
  6
CONTINUOUS
 62
    47
 10
-90.1508
 20
-53.342705
 11
-97.684238
 21
-53.342705
  0
LINE
  8
型材断面
  6
CONTINUOUS
 62
    47
 10
-90.1508
 20
-54.00933
 11
-92.68415
 21
-54.00933
  0
LINE
  8
型材断面
  6
CONTINUOUS
 62
    47
 10
-90.017527
 20
-53.876
 11
-90.017527
 21
-53.475978
  0
LINE
  8
型材断面
  6
CONTINUOUS
 62
    47
 10
-98.350782
 20
-54.00933
 11
-98.350782
 21
-49.009353
  0
LINE
  8
型材断面
  6
CONTINUOUS
 62
    47
 10
-98.350782
 20
-49.009353
 11
-69.017468
 21
-44.037547
  0
LINE
  8
型材断面
  6
CONTINUOUS
 62
    47
 10
-68.35086
 20
-43.924547
 11
-59.017502
 21
-42.342673
  0
LINE
  8
型材断面
  6
CONTINUOUS
 62
    47
 10
-68.35086
 20
-41.342695
 11
-66.850925
 21
-41.342695
  0
LINE
  8
型材断面
  6
CONTINUOUS
 62
    47
 10
-66.850925
 20
-39.676025
 11
-67.25086
 21
-39.676025
  0
LINE
  8
型材断面
  6
CONTINUOUS
 62
    47
 10
-67.25086
 20
-39.676025
 11
-67.25086
 21
-40.676015
  0
LINE
  8
型材断面
  6
CONTINUOUS
 62
    47
 10
-67.25086
 20
-40.676015
 11
-68.35086
 21
-40.676015
  0
LINE
  8
型材断面
  6
CONTINUOUS
 62
    47
 10
-68.35086
 20
-41.342695
 11
-68.35086
 21
-43.924547
  0
LINE
  8
型材断面
  6
CONTINUOUS
 62
    47
 10
-66.850925
 20
-39.676025
 11
-66.850925
 21
-41.342695
  0
ARC
  8
型材断面
  6
CONTINUOUS
 62
    47
 10
-64.884133
 20
-53.475978
 40
0.133333
 50
90.001373
 51
180.002747
  0
ARC
  8
型材断面
  6
CONTINUOUS
 62
    47
 10
-64.884133
 20
-53.876001
 40
0.133333
 50
180.002747
 51
270.00412
  0
ARC
  8
型材断面
  6
CONTINUOUS
 62
    47
 10
-90.1508
 20
-53.475978
 40
0.133333
 50
0.0
 51
90.001373
  0
ARC
  8
型材断面
  6
CONTINUOUS
 62
    47
 10
-90.1508
 20
-53.876001
 40
0.133333
 50
270.00412
 51
360.0
  0
LINE
  8
型材断面
  6
CONTINUOUS
 62
    47
 10
-67.25086
 20
-26.6761
 11
-66.850925
 21
-26.6761
  0
LINE
  8
型材断面
  6
CONTINUOUS
 62
    47
 10
-67.25086
 20
-27.34278
 11
-68.35086
 21
-27.34278
  0
LINE
  8
型材断面
  6
CONTINUOUS
 62
    47
 10
-66.850925
 20
-26.6761
 11
-69.017468
 21
-26.6761
  0
LINE
  8
型材断面
  6
CONTINUOUS
 62
    47
 10
-69.017468
 20
-27.342652
 11
-69.017468
 21
-26.6761
  0
LINE
  8
型材断面
  6
CONTINUOUS
 62
    47
 10
-68.35086
 20
-27.342652
 11
-67.25086
 21
-27.342652
  0
LINE
  8
型材断面
  6
CONTINUOUS
 62
    47
 10
-68.35086
 20
-34.342692
 11
-60.6842
 21
-34.342692
  0
LINE
  8
型材断面
  6
CONTINUOUS
 62
    47
 10
-60.6842
 20
-34.342692
 11
-60.6842
 21
-33.009375
  0
LINE
  8
型材断面
  6
CONTINUOUS
 62
    47
 10
-60.6842
 20
-33.009375
 11
-61.084135
 21
-33.009375
  0
LINE
  8
型材断面
  6
CONTINUOUS
 62
    47
 10
-61.084135
 20
-33.675995
 11
-61.084135
 21
-33.009375
  0
LINE
  8
型材断面
  6
CONTINUOUS
 62
    47
 10
-66.017635
 20
-32.409395
 11
-64.684265
 21
-32.409395
  0
LINE
  8
型材断面
  6
CONTINUOUS
 62
    47
 10
-64.684265
 20
-32.409395
 11
-64.684265
 21
-33.676065
  0
LINE
  8
型材断面
  6
CONTINUOUS
 62
    47
 10
-65.184227
 20
-33.676065
 11
-65.184227
 21
-32.909395
  0
LINE
  8
型材断面
  6
CONTINUOUS
 62
    47
 10
-65.184227
 20
-32.909395
 11
-66.017635
 21
-32.909395
  0
LINE
  8
型材断面
  6
CONTINUOUS
 62
    47
 10
-66.017635
 20
-32.909395
 11
-66.017635
 21
-32.409395
  0
LINE
  8
型材断面
  6
CONTINUOUS
 62
    47
 10
-61.084135
 20
-33.675995
 11
-64.684265
 21
-33.675995
  0
LINE
  8
型材断面
  6
CONTINUOUS
 62
    47
 10
-65.184227
 20
-33.676065
 11
-68.35086
 21
-33.676065
  0
LINE
  8
型材断面
  6
CONTINUOUS
 62
    47
 10
-68.35086
 20
-40.676015
 11
-68.35086
 21
-34.342692
  0
LINE
  8
型材断面
  6
CONTINUOUS
 62
    47
 10
-68.35086
 20
-27.342652
 11
-68.35086
 21
-33.676065
  0
LINE
  8
型材断面
  6
CONTINUOUS
 10
-66.850925
 20
-28.342765
 11
-67.25086
 21
-28.342765
  0
LINE
  8
型材断面
  6
CONTINUOUS
 62
    47
 10
-67.25086
 20
-27.34278
 11
-67.25086
 21
-28.342765
  0
LINE
  8
型材断面
  6
CONTINUOUS
 62
    47
 10
-69.884167
 20
-29.442688
 11
-69.017468
 21
-29.442688
  0
LINE
  8
型材断面
  6
CONTINUOUS
 62
    47
 10
-69.884167
 20
-29.842665
 11
-69.017468
 21
-29.842665
  0
LINE
  8
型材断面
  6
CONTINUOUS
 62
    47
 10
-70.01744
 20
-29.709332
 11
-70.01744
 21
-29.576002
  0
ARC
  8
型材断面
  6
CONTINUOUS
 62
    47
 10
-69.884168
 20
-29.576002
 40
0.133333
 50
90.001373
 51
180.002747
  0
ARC
  8
型材断面
  6
CONTINUOUS
 62
    47
 10
-69.884168
 20
-29.709334
 40
0.133333
 50
180.002747
 51
270.00412
  0
LINE
  8
型材断面
  6
CONTINUOUS
 62
    47
 10
-78.88363
 20
-29.842665
 11
-80.416938
 21
-29.842665
  0
LINE
  8
型材断面
  6
CONTINUOUS
 62
    47
 10
-78.88363
 20
-29.442688
 11
-79.750353
 21
-29.442688
  0
LINE
  8
型材断面
  6
CONTINUOUS
 62
    47
 10
-78.750357
 20
-29.576002
 11
-78.750357
 21
-29.709332
  0
ARC
  8
型材断面
  6
CONTINUOUS
 62
    47
 10
-78.88363
 20
-29.709334
 40
0.133333
 50
270.00412
 51
360.0
  0
ARC
  8
型材断面
  6
CONTINUOUS
 62
    47
 10
-78.88363
 20
-29.576002
 40
0.133333
 50
0.0
 51
90.001373
  0
LINE
  8
型材断面
  6
CONTINUOUS
 62
    47
 10
-69.017468
 20
-44.037547
 11
-69.017468
 21
-29.842665
  0
LINE
  8
型材断面
  6
CONTINUOUS
 10
-69.017468
 20
-28.342652
 11
-79.750353
 21
-28.342652
  0
LINE
  8
型材断面
  6
CONTINUOUS
 62
    47
 10
-79.750353
 20
-29.442688
 11
-79.750353
 21
-28.342652
  0
LINE
  8
型材断面
  6
CONTINUOUS
 62
    47
 10
-69.017468
 20
-29.442688
 11
-69.017468
 21
-28.342652
  0
LINE
  8
型材断面
  6
CONTINUOUS
 10
-75.017003
 20
-27.442652
 11
-74.917003
 21
-27.342652
  0
LINE
  8
型材断面
  6
CONTINUOUS
 62
    47
 10
-69.017468
 20
-27.342652
 11
-74.917003
 21
-27.342652
  0
LINE
  8
型材断面
  6
CONTINUOUS
 10
-75.017003
 20
-27.442652
 11
-75.117003
 21
-27.342652
  0
LINE
  8
型材断面
  6
CONTINUOUS
 62
    47
 10
-75.117003
 20
-27.342652
 11
-80.416938
 21
-27.342652
  0
LINE
  8
型材断面
  6
CONTINUOUS
 10
-80.416938
 20
-29.842665
 11
-80.416938
 21
-27.342652
  0
LINE
  8
型材断面
  6
CONTINUOUS
 62
    47
 10
-92.68415
 20
-54.00933
 11
-92.68415
 21
-59.00933
  0
LINE
  8
型材断面
  6
CONTINUOUS
 10
-93.350878
 20
-59.00933
 11
-92.68415
 21
-59.00933
  0
LINE
  8
型材断面
  6
CONTINUOUS
 10
-93.250878
 20
-56.50933
 11
-93.350878
 21
-56.40933
  0
LINE
  8
型材断面
  6
CONTINUOUS
 10
-93.250878
 20
-56.50933
 11
-93.350878
 21
-56.60933
  0
LINE
  8
型材断面
  6
CONTINUOUS
 62
    47
 10
-93.350865
 20
-54.00933
 11
-93.350865
 21
-56.409343
  0
LINE
  8
型材断面
  6
CONTINUOUS
 62
    47
 10
-93.350865
 20
-56.609317
 11
-93.350865
 21
-59.00933
  0
LINE
  8
型材断面
  6
CONTINUOUS
 10
-59.017502
 20
-39.342673
 11
-58.350845
 21
-39.342673
  0
LINE
  8
型材断面
  6
CONTINUOUS
 62
    47
 10
-59.017502
 20
-42.342673
 11
-59.017502
 21
-39.342673
  0
LINE
  8
型材断面
  6
CONTINUOUS
 62
    47
 10
-58.350845
 20
-54.00933
 11
-58.350845
 21
-39.342673
  0
LINE
  8
型材断面
  6
CONTINUOUS
 10
-66.850925
 20
-26.6761
 11
-66.850925
 21
-28.342765
  0
CIRCLE
  8
LAYER010
  6
CONTINUOUS
 62
     7
 10
-98.350782
 20
-49.009353
 40
0.11111
  0
ENDBLK
  0
BLOCK
  2
*GRP_0007
 70
    65
 10
0.0
 20
0.0
  0
LINE
  8
型材断面
  6
CONTINUOUS
 62
    47
 10
50.153043
 20
-53.342705
 11
50.153043
 21
-43.01884
  0
LINE
  8
型材断面
  6
CONTINUOUS
 62
    47
 10
88.819778
 20
-49.572535
 11
50.153043
 21
-43.01884
  0
LINE
  8
型材断面
  6
CONTINUOUS
 62
    47
 10
88.819778
 20
-49.572535
 11
88.819778
 21
-53.342705
  0
LINE
  8
型材断面
  6
CONTINUOUS
 62
    47
 10
84.486405
 20
-54.00933
 11
89.486322
 21
-54.00933
  0
LINE
  8
型材断面
  6
CONTINUOUS
 62
    47
 10
56.019672
 20
-53.342705
 11
50.153043
 21
-53.342705
  0
LINE
  8
型材断面
  6
CONTINUOUS
 62
    47
 10
56.019672
 20
-54.00933
 11
49.486385
 21
-54.00933
  0
LINE
  8
型材断面
  6
CONTINUOUS
 62
    47
 10
56.153062
 20
-53.876
 11
56.153062
 21
-53.475978
  0
LINE
  8
型材断面
  6
CONTINUOUS
 62
    47
 10
81.28634
 20
-53.342705
 11
88.819778
 21
-53.342705
  0
LINE
  8
型材断面
  6
CONTINUOUS
 62
    47
 10
81.28634
 20
-54.00933
 11
83.81969
 21
-54.00933
  0
LINE
  8
型材断面
  6
CONTINUOUS
 62
    47
 10
81.153067
 20
-53.876
 11
81.153067
 21
-53.475978
  0
LINE
  8
型材断面
  6
CONTINUOUS
 62
    47
 10
89.486322
 20
-54.00933
 11
89.486322
 21
-49.009353
  0
LINE
  8
型材断面
  6
CONTINUOUS
 62
    47
 10
89.486322
 20
-49.009353
 11
60.153008
 21
-44.037547
  0
LINE
  8
型材断面
  6
CONTINUOUS
 62
    47
 10
59.4864
 20
-43.924547
 11
50.153043
 21
-42.342673
  0
LINE
  8
型材断面
  6
CONTINUOUS
 62
    47
 10
59.4864
 20
-41.342695
 11
57.986465
 21
-41.342695
  0
LINE
  8
型材断面
  6
CONTINUOUS
 62
    47
 10
57.986465
 20
-39.676025
 11
58.3864
 21
-39.676025
  0
LINE
  8
型材断面
  6
CONTINUOUS
 62
    47
 10
58.3864
 20
-39.676025
 11
58.3864
 21
-40.676015
  0
LINE
  8
型材断面
  6
CONTINUOUS
 62
    47
 10
58.3864
 20
-40.676015
 11
59.4864
 21
-40.676015
  0
LINE
  8
型材断面
  6
CONTINUOUS
 62
    47
 10
59.4864
 20
-41.342695
 11
59.4864
 21
-43.924547
  0
LINE
  8
型材断面
  6
CONTINUOUS
 62
    47
 10
57.986465
 20
-39.676025
 11
57.986465
 21
-41.342695
  0
ARC
  8
型材断面
  6
CONTINUOUS
 62
    47
 10
56.019673
 20
-53.475978
 40
0.133333
 50
359.997253
 51
449.998627
  0
ARC
  8
型材断面
  6
CONTINUOUS
 62
    47
 10
56.019673
 20
-53.876001
 40
0.133333
 50
269.99588
 51
359.997253
  0
ARC
  8
型材断面
  6
CONTINUOUS
 62
    47
 10
81.28634
 20
-53.475978
 40
0.133333
 50
89.998627
 51
180.0
  0
ARC
  8
型材断面
  6
CONTINUOUS
 62
    47
 10
81.28634
 20
-53.876001
 40
0.133333
 50
180.0
 51
269.99588
  0
LINE
  8
型材断面
  6
CONTINUOUS
 62
    47
 10
58.3864
 20
-26.6761
 11
57.986465
 21
-26.6761
  0
LINE
  8
型材断面
  6
CONTINUOUS
 62
    47
 10
58.3864
 20
-27.34278
 11
59.4864
 21
-27.34278
  0
LINE
  8
型材断面
  6
CONTINUOUS
 62
    47
 10
57.986465
 20
-26.6761
 11
60.153008
 21
-26.6761
  0
LINE
  8
型材断面
  6
CONTINUOUS
 62
    47
 10
60.153008
 20
-27.342652
 11
60.153008
 21
-26.6761
  0
LINE
  8
型材断面
  6
CONTINUOUS
 62
    47
 10
59.4864
 20
-27.342652
 11
58.3864
 21
-27.342652
  0
LINE
  8
型材断面
  6
CONTINUOUS
 62
    47
 10
59.4864
 20
-34.342692
 11
51.81974
 21
-34.342692
  0
LINE
  8
型材断面
  6
CONTINUOUS
 62
    47
 10
51.81974
 20
-34.342692
 11
51.81974
 21
-33.009375
  0
LINE
  8
型材断面
  6
CONTINUOUS
 62
    47
 10
51.81974
 20
-33.009375
 11
52.219675
 21
-33.009375
  0
LINE
  8
型材断面
  6
CONTINUOUS
 62
    47
 10
52.219675
 20
-33.675995
 11
52.219675
 21
-33.009375
  0
LINE
  8
型材断面
  6
CONTINUOUS
 62
    47
 10
57.153175
 20
-32.409395
 11
55.819805
 21
-32.409395
  0
LINE
  8
型材断面
  6
CONTINUOUS
 62
    47
 10
55.819805
 20
-32.409395
 11
55.819805
 21
-33.676065
  0
LINE
  8
型材断面
  6
CONTINUOUS
 62
    47
 10
56.319767
 20
-33.676065
 11
56.319767
 21
-32.909395
  0
LINE
  8
型材断面
  6
CONTINUOUS
 62
    47
 10
56.319767
 20
-32.909395
 11
57.153175
 21
-32.909395
  0
LINE
  8
型材断面
  6
CONTINUOUS
 62
    47
 10
57.153175
 20
-32.909395
 11
57.153175
 21
-32.409395
  0
LINE
  8
型材断面
  6
CONTINUOUS
 62
    47
 10
52.219675
 20
-33.675995
 11
55.819805
 21
-33.675995
  0
LINE
  8
型材断面
  6
CONTINUOUS
 62
    47
 10
56.319767
 20
-33.676065
 11
59.4864
 21
-33.676065
  0
LINE
  8
型材断面
  6
CONTINUOUS
 62
    47
 10
59.4864
 20
-40.676015
 11
59.4864
 21
-34.342692
  0
LINE
  8
型材断面
  6
CONTINUOUS
 62
    47
 10
59.4864
 20
-27.342652
 11
59.4864
 21
-33.676065
  0
LINE
  8
型材断面
  6
CONTINUOUS
 10
57.986465
 20
-28.342765
 11
58.3864
 21
-28.342765
  0
LINE
  8
型材断面
  6
CONTINUOUS
 62
    47
 10
58.3864
 20
-27.34278
 11
58.3864
 21
-28.342765
  0
LINE
  8
型材断面
  6
CONTINUOUS
 62
    47
 10
61.019708
 20
-29.442688
 11
60.153008
 21
-29.442688
  0
LINE
  8
型材断面
  6
CONTINUOUS
 62
    47
 10
61.019708
 20
-29.842665
 11
60.153008
 21
-29.842665
  0
LINE
  8
型材断面
  6
CONTINUOUS
 62
    47
 10
61.15298
 20
-29.709332
 11
61.15298
 21
-29.576002
  0
ARC
  8
型材断面
  6
CONTINUOUS
 62
    47
 10
61.019708
 20
-29.576002
 40
0.133333
 50
359.997253
 51
449.998627
  0
ARC
  8
型材断面
  6
CONTINUOUS
 62
    47
 10
61.019708
 20
-29.709334
 40
0.133333
 50
269.99588
 51
359.997253
  0
LINE
  8
型材断面
  6
CONTINUOUS
 62
    47
 10
70.01917
 20
-29.842665
 11
71.552477
 21
-29.842665
  0
LINE
  8
型材断面
  6
CONTINUOUS
 62
    47
 10
70.01917
 20
-29.442688
 11
70.885893
 21
-29.442688
  0
LINE
  8
型材断面
  6
CONTINUOUS
 62
    47
 10
69.885897
 20
-29.576002
 11
69.885897
 21
-29.709332
  0
ARC
  8
型材断面
  6
CONTINUOUS
 62
    47
 10
70.01917
 20
-29.709334
 40
0.133333
 50
180.0
 51
269.99588
  0
ARC
  8
型材断面
  6
CONTINUOUS
 62
    47
 10
70.01917
 20
-29.576002
 40
0.133333
 50
89.998627
 51
180.0
  0
LINE
  8
型材断面
  6
CONTINUOUS
 62
    47
 10
60.153008
 20
-44.037547
 11
60.153008
 21
-29.842665
  0
LINE
  8
型材断面
  6
CONTINUOUS
 10
60.153008
 20
-28.342652
 11
70.885893
 21
-28.342652
  0
LINE
  8
型材断面
  6
CONTINUOUS
 62
    47
 10
70.885893
 20
-29.442688
 11
70.885893
 21
-28.342652
  0
LINE
  8
型材断面
  6
CONTINUOUS
 62
    47
 10
60.153008
 20
-29.442688
 11
60.153008
 21
-28.342652
  0
LINE
  8
型材断面
  6
CONTINUOUS
 10
66.152542
 20
-27.442652
 11
66.052542
 21
-27.342652
  0
LINE
  8
型材断面
  6
CONTINUOUS
 62
    47
 10
60.153008
 20
-27.342652
 11
66.052542
 21
-27.342652
  0
LINE
  8
型材断面
  6
CONTINUOUS
 10
66.152542
 20
-27.442652
 11
66.252542
 21
-27.342652
  0
LINE
  8
型材断面
  6
CONTINUOUS
 62
    47
 10
66.252542
 20
-27.342652
 11
71.552477
 21
-27.342652
  0
LINE
  8
型材断面
  6
CONTINUOUS
 10
71.552477
 20
-29.842665
 11
71.552477
 21
-27.342652
  0
LINE
  8
型材断面
  6
CONTINUOUS
 62
    47
 10
83.81969
 20
-54.00933
 11
83.81969
 21
-59.00933
  0
LINE
  8
型材断面
  6
CONTINUOUS
 10
84.486418
 20
-59.00933
 11
83.81969
 21
-59.00933
  0
LINE
  8
型材断面
  6
CONTINUOUS
 10
84.386418
 20
-56.50933
 11
84.486418
 21
-56.40933
  0
LINE
  8
型材断面
  6
CONTINUOUS
 10
84.386418
 20
-56.50933
 11
84.486418
 21
-56.60933
  0
LINE
  8
型材断面
  6
CONTINUOUS
 62
    47
 10
84.486405
 20
-54.00933
 11
84.486405
 21
-56.409343
  0
LINE
  8
型材断面
  6
CONTINUOUS
 62
    47
 10
84.486405
 20
-56.609317
 11
84.486405
 21
-59.00933
  0
LINE
  8
型材断面
  6
CONTINUOUS
 10
50.153043
 20
-39.342673
 11
49.486385
 21
-39.342673
  0
LINE
  8
型材断面
  6
CONTINUOUS
 62
    47
 10
50.153043
 20
-42.342673
 11
50.153043
 21
-39.342673
  0
LINE
  8
型材断面
  6
CONTINUOUS
 62
    47
 10
49.486385
 20
-54.00933
 11
49.486385
 21
-39.342673
  0
LINE
  8
型材断面
  6
CONTINUOUS
 10
57.986465
 20
-26.6761
 11
57.986465
 21
-28.342765
  0
CIRCLE
  8
LAYER010
  6
CONTINUOUS
 62
     7
 10
89.486322
 20
-49.009353
 40
0.11111
  0
ENDBLK
  0
BLOCK
  2
*GRP_0008
 70
    65
 10
0.0
 20
0.0
  0
LINE
  8
型材断面
  6
CONTINUOUS
 62
    47
 10
49.05316
 20
-28.00941
 11
49.05316
 21
-27.009412
  0
LINE
  8
型材断面
  6
CONTINUOUS
 62
    47
 10
56.419737
 20
-33.009397
 11
57.31981
 21
-33.009397
  0
LINE
  8
型材断面
  6
CONTINUOUS
 62
    47
 10
57.31981
 20
-33.009397
 11
57.31981
 21
-27.67608
  0
LINE
  8
型材断面
  6
CONTINUOUS
 62
    47
 10
56.419737
 20
-33.676065
 11
56.419737
 21
-33.009397
  0
LINE
  8
型材断面
  6
CONTINUOUS
 62
    47
 10
49.05316
 20
-28.00941
 11
49.453095
 21
-28.00941
  0
LINE
  8
型材断面
  6
CONTINUOUS
 62
    47
 10
49.453095
 20
-28.00941
 11
49.453095
 21
-27.67608
  0
LINE
  8
型材断面
  6
CONTINUOUS
 62
    47
 10
57.31981
 20
-27.67608
 11
49.453095
 21
-27.67608
  0
LINE
  8
型材断面
  6
CONTINUOUS
 62
    47
 10
57.986465
 20
-29.009393
 11
58.586398
 21
-29.009393
  0
LINE
  8
型材断面
  6
CONTINUOUS
 62
    47
 10
58.586398
 20
-29.009393
 11
58.586398
 21
-28.509443
  0
LINE
  8
型材断面
  6
CONTINUOUS
 62
    47
 10
58.586398
 20
-28.509443
 11
57.986465
 21
-28.509443
  0
LINE
  8
型材断面
  6
CONTINUOUS
 62
    47
 10
57.986465
 20
-29.009393
 11
57.986465
 21
-33.676065
  0
LINE
  8
型材断面
  6
CONTINUOUS
 62
    47
 10
49.05316
 20
-27.009412
 11
57.986465
 21
-27.009412
  0
LINE
  8
型材断面
  6
CONTINUOUS
 62
    47
 10
57.986465
 20
-28.509443
 11
57.986465
 21
-26.6761
  0
ENDBLK
  0
BLOCK
  2
*GRP_0009
 70
    65
 10
0.0
 20
0.0
  0
LINE
  8
断面線04
  6
CONTINUOUS
 62
    47
 10
7.734438
 20
-37.009345
 11
7.401095
 21
-38.67601
  0
LINE
  8
断面線04
  6
CONTINUOUS
 62
    47
 10
-8.83223
 20
-33.67601
 11
-8.83223
 21
-32.909345
  0
ARC
  8
断面線04
  6
CONTINUOUS
 62
    47
 10
-7.06558
 20
-27.776007
 40
0.1
 50
90.0
 51
180.0
  0
LINE
  8
断面線04
  6
CONTINUOUS
 62
    47
 10
-7.165563
 20
-28.242677
 11
-7.165563
 21
-27.77601
  0
ARC
  8
断面線04
  6
CONTINUOUS
 62
    47
 10
-7.06558
 20
-28.242674
 40
0.1
 50
180.0
 51
270.0
  0
ARC
  8
断面線04
  6
CONTINUOUS
 62
    47
 10
-8.098913
 20
-32.509341
 40
0.1
 50
0.0
 51
90.0
  0
LINE
  8
断面線04
  6
CONTINUOUS
 62
    47
 10
-7.998905
 20
-32.809345
 11
-7.998905
 21
-32.509345
  0
LINE
  8
断面線04
  6
CONTINUOUS
 62
    47
 10
-8.098905
 20
-32.909345
 11
-8.83223
 21
-32.909345
  0
ARC
  8
断面線04
  6
CONTINUOUS
 62
    47
 10
-8.098913
 20
-32.809341
 40
0.1
 50
270.0
 51
360.0
  0
LINE
  8
断面線04
  6
CONTINUOUS
 62
    47
 10
-8.098905
 20
-32.409345
 11
-9.23223
 21
-32.409345
  0
LINE
  8
断面線04
  6
CONTINUOUS
 62
    47
 10
-9.33223
 20
-33.67601
 11
-9.33223
 21
-32.509345
  0
ARC
  8
断面線04
  6
CONTINUOUS
 62
    47
 10
-9.232246
 20
-32.509341
 40
0.1
 50
90.0
 51
180.0
  0
LINE
  8
断面線04
  6
CONTINUOUS
 62
    47
 10
-8.83223
 20
-33.67601
 11
-6.43223
 21
-33.67601
  0
LINE
  8
断面線04
  6
CONTINUOUS
 62
    47
 10
-13.598905
 20
-33.67601
 11
-13.598905
 21
-33.109345
  0
ARC
  8
断面線04
  6
CONTINUOUS
 62
    47
 10
-13.698913
 20
-33.109341
 40
0.1
 50
0.0
 51
90.0
  0
LINE
  8
断面線04
  6
CONTINUOUS
 62
    47
 10
-13.698905
 20
-33.009345
 11
-13.898905
 21
-33.009345
  0
ARC
  8
断面線04
  6
CONTINUOUS
 62
    47
 10
-13.898913
 20
-33.109341
 40
0.1
 50
90.0
 51
180.0
  0
LINE
  8
断面線04
  6
CONTINUOUS
 62
    47
 10
-16.93223
 20
-39.342677
 11
-16.93223
 21
-37.009345
  0
LINE
  8
断面線04
  6
CONTINUOUS
 62
    47
 10
-13.998905
 20
-38.67601
 11
-16.265563
 21
-38.67601
  0
LINE
  8
断面線04
  6
CONTINUOUS
 62
    47
 10
-9.33223
 20
-33.67601
 11
-13.598905
 21
-33.67601
  0
LINE
  8
断面線04
  6
CONTINUOUS
 62
    47
 10
-7.065563
 20
-27.67601
 11
-4.43223
 21
-27.67601
  0
LINE
  8
断面線04
  6
CONTINUOUS
 62
    47
 10
-6.43223
 20
-33.67601
 11
-6.43223
 21
-28.342677
  0
LINE
  8
断面線04
  6
CONTINUOUS
 62
    47
 10
-7.065563
 20
-28.342677
 11
-6.43223
 21
-28.342677
  0
LINE
  8
断面線04
  6
CONTINUOUS
 62
    47
 10
-0.03223
 20
-33.67601
 11
-0.03223
 21
-32.909345
  0
ARC
  8
断面線04
  6
CONTINUOUS
 62
    47
 10
-1.798913
 20
-27.776007
 40
0.1
 50
0.0
 51
90.0
  0
LINE
  8
断面線04
  6
CONTINUOUS
 62
    47
 10
-1.698905
 20
-28.242677
 11
-1.698905
 21
-27.77601
  0
ARC
  8
断面線04
  6
CONTINUOUS
 62
    47
 10
-1.798913
 20
-28.242674
 40
0.1
 50
270.0
 51
360.0
  0
ARC
  8
断面線04
  6
CONTINUOUS
 62
    47
 10
-0.76558
 20
-32.509341
 40
0.1
 50
90.0
 51
180.0
  0
LINE
  8
断面線04
  6
CONTINUOUS
 62
    47
 10
-0.865563
 20
-32.809345
 11
-0.865563
 21
-32.509345
  0
LINE
  8
断面線04
  6
CONTINUOUS
 62
    47
 10
-0.765563
 20
-32.909345
 11
-0.03223
 21
-32.909345
  0
ARC
  8
断面線04
  6
CONTINUOUS
 62
    47
 10
-0.76558
 20
-32.809341
 40
0.1
 50
180.0
 51
270.0
  0
LINE
  8
断面線04
  6
CONTINUOUS
 62
    47
 10
-0.765563
 20
-32.409345
 11
0.36777
 21
-32.409345
  0
LINE
  8
断面線04
  6
CONTINUOUS
 62
    47
 10
0.46777
 20
-33.67601
 11
0.46777
 21
-32.509345
  0
ARC
  8
断面線04
  6
CONTINUOUS
 62
    47
 10
0.367754
 20
-32.509341
 40
0.1
 50
0.0
 51
90.0
  0
LINE
  8
断面線04
  6
CONTINUOUS
 62
    47
 10
-0.03223
 20
-33.67601
 11
-2.43223
 21
-33.67601
  0
LINE
  8
断面線04
  6
CONTINUOUS
 62
    47
 10
4.734438
 20
-33.67601
 11
4.734438
 21
-33.109345
  0
ARC
  8
断面線04
  6
CONTINUOUS
 62
    47
 10
4.83442
 20
-33.109341
 40
0.1
 50
90.0
 51
180.0
  0
LINE
  8
断面線04
  6
CONTINUOUS
 62
    47
 10
4.834438
 20
-33.009345
 11
5.034438
 21
-33.009345
  0
ARC
  8
断面線04
  6
CONTINUOUS
 62
    47
 10
5.03442
 20
-33.109341
 40
0.1
 50
0.0
 51
90.0
  0
LINE
  8
断面線04
  6
CONTINUOUS
 62
    47
 10
5.134438
 20
-38.67601
 11
7.401095
 21
-38.67601
  0
LINE
  8
断面線04
  6
CONTINUOUS
 62
    47
 10
0.46777
 20
-33.67601
 11
4.734438
 21
-33.67601
  0
LINE
  8
断面線04
  6
CONTINUOUS
 62
    47
 10
-1.798905
 20
-27.67601
 11
-4.43223
 21
-27.67601
  0
LINE
  8
断面線04
  6
CONTINUOUS
 62
    47
 10
-2.43223
 20
-33.67601
 11
-2.43223
 21
-28.342677
  0
LINE
  8
断面線04
  6
CONTINUOUS
 62
    47
 10
-1.798905
 20
-28.342677
 11
-2.43223
 21
-28.342677
  0
LINE
  8
断面線04
  6
CONTINUOUS
 62
    47
 10
8.06777
 20
-37.009345
 11
7.734438
 21
-37.009345
  0
LINE
  8
断面線04
  6
CONTINUOUS
 62
    47
 10
-16.598905
 20
-37.009345
 11
-16.265563
 21
-38.67601
  0
LINE
  8
断面線04
  6
CONTINUOUS
 62
    47
 10
-16.93223
 20
-37.009345
 11
-16.598905
 21
-37.009345
  0
LINE
  8
断面線04
  6
CONTINUOUS
 62
    47
 10
-13.998905
 20
-33.109345
 11
-13.998905
 21
-38.67601
  0
LINE
  8
断面線04
  6
CONTINUOUS
 62
    47
 10
5.134438
 20
-33.109345
 11
5.134438
 21
-38.67601
  0
LINE
  8
断面線04
  6
CONTINUOUS
 62
    47
 10
8.06777
 20
-37.009345
 11
8.06777
 21
-39.342677
  0
LINE
  8
断面線04
  6
CONTINUOUS
 62
    47
 10
-13.998905
 20
-54.009345
 11
5.134438
 21
-54.009345
  0
LINE
  8
断面線04
  6
CONTINUOUS
 62
    47
 10
-13.998905
 20
-54.009345
 11
-13.998905
 21
-39.342677
  0
LINE
  8
断面線04
  6
CONTINUOUS
 62
    47
 10
5.134438
 20
-54.009345
 11
5.134438
 21
-39.342677
  0
LINE
  8
断面線04
  6
CONTINUOUS
 62
    47
 10
-16.93223
 20
-39.342677
 11
-13.998905
 21
-39.342677
  0
LINE
  8
断面線04
  6
CONTINUOUS
 62
    47
 10
5.134438
 20
-39.342677
 11
8.06777
 21
-39.342677
  0
ARC
  8
断面線04
  6
CONTINUOUS
 62
    47
 10
-12.268798
 20
-36.290021
 40
0.25
 50
312.542364
 51
492.542397
  0
ARC
  8
断面線04
  6
CONTINUOUS
 62
    47
 10
-12.832244
 20
-35.67604
 40
0.583333
 50
47.457615
 51
312.542407
  0
ARC
  8
断面線04
  6
CONTINUOUS
 62
    47
 10
-12.832244
 20
-35.67604
 40
1.083333
 50
252.079761
 51
312.542389
  0
ARC
  8
断面線04
  6
CONTINUOUS
 62
    47
 10
-12.268798
 20
-35.062059
 40
0.25
 50
227.457603
 51
407.457636
  0
LINE
  8
断面線04
  6
CONTINUOUS
 62
    47
 10
-5.598905
 20
-34.509345
 11
-12.832237
 21
-34.509345
  0
ARC
  8
断面線04
  6
CONTINUOUS
 62
    47
 10
-12.832244
 20
-35.67604
 40
1.083333
 50
47.457611
 51
90.000025
  0
LINE
  8
断面線04
  6
CONTINUOUS
 62
    47
 10
-12.832237
 20
-34.59271
 11
-12.832237
 21
-34.509345
  0
ARC
  8
断面線04
  6
CONTINUOUS
 62
    47
 10
3.404312
 20
-36.290021
 40
0.25
 50
47.457603
 51
227.457636
  0
ARC
  8
断面線04
  6
CONTINUOUS
 62
    47
 10
3.967758
 20
-35.67604
 40
0.583333
 50
227.457593
 51
492.542385
  0
ARC
  8
断面線04
  6
CONTINUOUS
 62
    47
 10
3.404312
 20
-35.062059
 40
0.25
 50
132.542364
 51
312.542397
  0
ARC
  8
断面線04
  6
CONTINUOUS
 62
    47
 10
3.967758
 20
-35.67604
 40
1.083333
 50
89.999975
 51
132.542389
  0
ARC
  8
断面線04
  6
CONTINUOUS
 62
    47
 10
3.967758
 20
-35.67604
 40
1.083333
 50
227.457611
 51
287.920239
  0
LINE
  8
断面線04
  6
CONTINUOUS
 62
    47
 10
3.96777
 20
-34.59271
 11
3.96777
 21
-34.509345
  0
LINE
  8
断面線04
  6
CONTINUOUS
 62
    47
 10
-3.265563
 20
-34.509345
 11
3.96777
 21
-34.509345
  0
LINE
  8
断面線04
  6
CONTINUOUS
 62
    47
 10
-3.265563
 20
-29.009345
 11
-5.598905
 21
-29.009345
  0
ARC
  8
断面線04
  6
CONTINUOUS
 62
    47
 10
-11.833013
 20
-52.378406
 40
0.25
 50
357.542364
 51
537.542397
  0
ARC
  8
断面線04
  6
CONTINUOUS
 62
    47
 10
-12.66558
 20
-52.342673
 40
0.583333
 50
92.457615
 51
357.542407
  0
ARC
  8
断面線04
  6
CONTINUOUS
 62
    47
 10
-12.701313
 20
-51.510106
 40
0.25
 50
272.457576
 51
452.457618
  0
ARC
  8
断面線04
  6
CONTINUOUS
 62
    47
 10
-12.66558
 20
-52.342673
 40
1.083333
 50
332.513353
 51
357.542389
  0
ARC
  8
断面線04
  6
CONTINUOUS
 62
    47
 10
2.968521
 20
-52.378406
 40
0.25
 50
2.457603
 51
182.457636
  0
ARC
  8
断面線04
  6
CONTINUOUS
 62
    47
 10
3.801088
 20
-52.342673
 40
0.583333
 50
182.457593
 51
447.542385
  0
ARC
  8
断面線04
  6
CONTINUOUS
 62
    47
 10
3.836821
 20
-51.510106
 40
0.25
 50
87.542382
 51
267.542424
  0
ARC
  8
断面線04
  6
CONTINUOUS
 62
    47
 10
3.801088
 20
-52.342673
 40
1.083333
 50
182.457611
 51
207.486647
  0
ARC
  8
断面線04
  6
CONTINUOUS
 62
    47
 10
3.801088
 20
-52.342673
 40
1.083333
 50
62.513336
 51
87.542389
  0
ARC
  8
断面線04
  6
CONTINUOUS
 62
    47
 10
-12.66558
 20
-52.342673
 40
1.083333
 50
92.457611
 51
117.486331
  0
LINE
  8
断面線04
  6
CONTINUOUS
 62
    47
 10
-3.598895
 20
-31.52962
 11
-3.598895
 21
-32.02962
  0
LINE
  8
断面線04
  6
CONTINUOUS
 62
    47
 10
-5.265563
 20
-32.02962
 11
-5.265563
 21
-31.52962
  0
LINE
  8
断面線04
  6
CONTINUOUS
 62
    47
 10
-5.265563
 20
-32.02962
 11
-5.598905
 21
-32.02962
  0
LINE
  8
断面線04
  6
CONTINUOUS
 62
    47
 10
-5.265563
 20
-31.52962
 11
-5.598905
 21
-31.52962
  0
LINE
  8
断面線04
  6
CONTINUOUS
 62
    47
 10
-3.598895
 20
-31.52962
 11
-3.265563
 21
-31.52962
  0
LINE
  8
断面線04
  6
CONTINUOUS
 62
    47
 10
-3.598895
 20
-32.02962
 11
-3.265563
 21
-32.02962
  0
LINE
  8
断面線04
  6
CONTINUOUS
 62
    47
 10
-3.265563
 20
-34.509345
 11
-3.265563
 21
-32.02962
  0
LINE
  8
断面線04
  6
CONTINUOUS
 62
    47
 10
-3.265563
 20
-31.52962
 11
-3.265563
 21
-29.009345
  0
LINE
  8
断面線04
  6
CONTINUOUS
 62
    47
 10
-5.598905
 20
-34.509345
 11
-5.598905
 21
-32.02962
  0
LINE
  8
断面線04
  6
CONTINUOUS
 62
    47
 10
-5.598905
 20
-31.52962
 11
-5.598905
 21
-29.009345
  0
LINE
  8
断面線04
  6
CONTINUOUS
 62
    47
 10
-3.098895
 20
-51.509345
 11
-3.598895
 21
-51.509345
  0
LINE
  8
断面線04
  6
CONTINUOUS
 62
    47
 10
-5.765563
 20
-51.509345
 11
-5.265563
 21
-51.509345
  0
LINE
  8
断面線04
  6
CONTINUOUS
 62
    47
 10
-3.598895
 20
-51.509345
 11
-3.598895
 21
-52.842677
  0
LINE
  8
断面線04
  6
CONTINUOUS
 62
    47
 10
-3.598895
 20
-52.842677
 11
-5.265563
 21
-52.842677
  0
LINE
  8
断面線04
  6
CONTINUOUS
 62
    47
 10
-5.265563
 20
-51.509345
 11
-5.265563
 21
-52.842677
  0
LINE
  8
断面線04
  6
CONTINUOUS
 62
    47
 10
-5.765563
 20
-51.509345
 11
-5.765563
 21
-52.842677
  0
LINE
  8
断面線04
  6
CONTINUOUS
 62
    47
 10
-11.70452
 20
-52.842677
 11
-5.765563
 21
-52.842677
  0
LINE
  8
断面線04
  6
CONTINUOUS
 62
    47
 10
-3.098895
 20
-51.509345
 11
-3.098895
 21
-52.842677
  0
LINE
  8
断面線04
  6
CONTINUOUS
 62
    47
 10
2.840055
 20
-52.842677
 11
-3.098895
 21
-52.842677
  0
LINE
  8
断面線04
  6
CONTINUOUS
 62
    47
 10
-13.16557
 20
-51.381628
 11
-13.16557
 21
-39.009345
  0
LINE
  8
断面線04
  6
CONTINUOUS
 62
    47
 10
-7.93223
 20
-39.009345
 11
-13.16557
 21
-39.009345
  0
LINE
  8
断面線04
  6
CONTINUOUS
 62
    47
 10
-0.93223
 20
-39.009345
 11
4.301105
 21
-39.009345
  0
LINE
  8
断面線04
  6
CONTINUOUS
 62
    47
 10
4.301105
 20
-51.381628
 11
4.301105
 21
-39.009345
  0
LINE
  8
断面線04
  6
CONTINUOUS
 62
    47
 10
-13.16557
 20
-36.70682
 11
-13.16557
 21
-38.342677
  0
LINE
  8
断面線04
  6
CONTINUOUS
 62
    47
 10
-13.16557
 20
-38.342677
 11
-7.93223
 21
-38.342677
  0
LINE
  8
断面線04
  6
CONTINUOUS
 62
    47
 10
-7.93223
 20
-39.009345
 11
-7.93223
 21
-38.342677
  0
LINE
  8
断面線04
  6
CONTINUOUS
 62
    47
 10
4.301105
 20
-36.70682
 11
4.301105
 21
-38.342677
  0
LINE
  8
断面線04
  6
CONTINUOUS
 62
    47
 10
4.301105
 20
-38.342677
 11
-0.93223
 21
-38.342677
  0
LINE
  8
断面線04
  6
CONTINUOUS
 62
    47
 10
-0.93223
 20
-39.009345
 11
-0.93223
 21
-38.342677
  0
ENDBLK
  0
BLOCK
  2
*GRP_0010
 70
    65
 10
0.0
 20
0.0
  0
LINE
  8
型材断面
  6
DOT
 10
-7.93223
 20
-27.67601
 11
-7.93223
 21
-33.009345
  0
LINE
  8
型材断面
  6
DOT
 10
-15.798895
 20
-27.67601
 11
-7.93223
 21
-27.67601
  0
ARC
  8
型材断面
  6
DOT
 10
-16.098902
 20
-27.109341
 40
0.1
 50
90.0
 51
180.0
  0
LINE
  8
型材断面
  6
DOT
 10
-15.798895
 20
-27.67601
 11
-15.798895
 21
-27.909345
  0
ARC
  8
型材断面
  6
DOT
 10
-15.898902
 20
-27.909341
 40
0.1
 50
270.0
 51
360.0
  0
LINE
  8
型材断面
  6
DOT
 10
-16.098895
 20
-28.009345
 11
-15.898895
 21
-28.009345
  0
LINE
  8
型材断面
  6
DOT
 10
-16.198895
 20
-27.909345
 11
-16.198895
 21
-27.109345
  0
ARC
  8
型材断面
  6
DOT
 10
-16.098902
 20
-27.909341
 40
0.1
 50
180.0
 51
270.0
  0
LINE
  8
型材断面
  6
DOT
 10
-16.098895
 20
-27.009345
 11
-7.365563
 21
-27.009345
  0
LINE
  8
型材断面
  6
DOT
 10
-7.265563
 20
-27.109345
 11
-7.265563
 21
-28.509345
  0
ARC
  8
型材断面
  6
DOT
 10
-7.365569
 20
-27.109341
 40
0.1
 50
0.0
 51
90.0
  0
LINE
  8
型材断面
  6
DOT
 10
-7.265563
 20
-29.009345
 11
-7.265563
 21
-33.57601
  0
ARC
  8
型材断面
  6
DOT
 10
-7.365569
 20
-33.576008
 40
0.1
 50
270.0
 51
360.0
  0
LINE
  8
型材断面
  6
DOT
 10
-8.73223
 20
-33.67601
 11
-7.365563
 21
-33.67601
  0
ARC
  8
型材断面
  6
DOT
 10
-8.732236
 20
-33.576008
 40
0.1
 50
180.0
 51
270.0
  0
LINE
  8
型材断面
  6
DOT
 10
-8.83223
 20
-33.109345
 11
-8.83223
 21
-33.57601
  0
LINE
  8
型材断面
  6
DOT
 10
-8.73223
 20
-33.009345
 11
-7.93223
 21
-33.009345
  0
ARC
  8
型材断面
  6
DOT
 10
-8.732236
 20
-33.109341
 40
0.1
 50
90.0
 51
180.0
  0
LINE
  8
型材断面
  6
DOT
 10
-6.765563
 20
-28.509345
 11
-7.265563
 21
-28.509345
  0
ARC
  8
型材断面
  6
DOT
 10
-6.765569
 20
-28.609341
 40
0.1
 50
0.0
 51
90.0
  0
LINE
  8
型材断面
  6
DOT
 10
-6.665563
 20
-28.609345
 11
-6.665563
 21
-28.909345
  0
LINE
  8
型材断面
  6
DOT
 10
-6.765563
 20
-29.009345
 11
-7.265563
 21
-29.009345
  0
ARC
  8
型材断面
  6
DOT
 10
-6.765569
 20
-28.909341
 40
0.1
 50
270.0
 51
360.0
  0
ENDBLK
  0
BLOCK
  2
*GRP_0011
 70
    65
 10
0.0
 20
0.0
  0
LINE
  8
型材断面
  6
DOT
 10
-0.93223
 20
-27.67601
 11
-0.93223
 21
-33.009345
  0
LINE
  8
型材断面
  6
DOT
 10
6.934435
 20
-27.67601
 11
-0.93223
 21
-27.67601
  0
ARC
  8
型材断面
  6
DOT
 10
7.234439
 20
-27.109341
 40
0.1
 50
0.0
 51
90.0
  0
LINE
  8
型材断面
  6
DOT
 10
6.934435
 20
-27.67601
 11
6.934435
 21
-27.909345
  0
ARC
  8
型材断面
  6
DOT
 10
7.034439
 20
-27.909341
 40
0.1
 50
180.0
 51
270.0
  0
LINE
  8
型材断面
  6
DOT
 10
7.234435
 20
-28.009345
 11
7.034435
 21
-28.009345
  0
LINE
  8
型材断面
  6
DOT
 10
7.334435
 20
-27.909345
 11
7.334435
 21
-27.109345
  0
ARC
  8
型材断面
  6
DOT
 10
7.234439
 20
-27.909341
 40
0.1
 50
270.0
 51
360.0
  0
LINE
  8
型材断面
  6
DOT
 10
7.234435
 20
-27.009345
 11
-1.498898
 21
-27.009345
  0
LINE
  8
型材断面
  6
DOT
 10
-1.598898
 20
-27.109345
 11
-1.598898
 21
-28.509345
  0
ARC
  8
型材断面
  6
DOT
 10
-1.498894
 20
-27.109341
 40
0.1
 50
90.0
 51
180.0
  0
LINE
  8
型材断面
  6
DOT
 10
-1.598898
 20
-29.009345
 11
-1.598898
 21
-33.57601
  0
ARC
  8
型材断面
  6
DOT
 10
-1.498894
 20
-33.576008
 40
0.1
 50
180.0
 51
270.0
  0
LINE
  8
型材断面
  6
DOT
 10
-0.13223
 20
-33.67601
 11
-1.498898
 21
-33.67601
  0
ARC
  8
型材断面
  6
DOT
 10
-0.132228
 20
-33.576008
 40
0.1
 50
270.0
 51
360.0
  0
LINE
  8
型材断面
  6
DOT
 10
-0.03223
 20
-33.109345
 11
-0.03223
 21
-33.57601
  0
LINE
  8
型材断面
  6
DOT
 10
-0.13223
 20
-33.009345
 11
-0.93223
 21
-33.009345
  0
ARC
  8
型材断面
  6
DOT
 10
-0.132228
 20
-33.109341
 40
0.1
 50
0.0
 51
90.0
  0
LINE
  8
型材断面
  6
DOT
 10
-2.098898
 20
-28.509345
 11
-1.598898
 21
-28.509345
  0
ARC
  8
型材断面
  6
DOT
 10
-2.098894
 20
-28.609341
 40
0.1
 50
90.0
 51
180.0
  0
LINE
  8
型材断面
  6
DOT
 10
-2.198898
 20
-28.609345
 11
-2.198898
 21
-28.909345
  0
LINE
  8
型材断面
  6
DOT
 10
-2.098898
 20
-29.009345
 11
-1.598898
 21
-29.009345
  0
ARC
  8
型材断面
  6
DOT
 10
-2.098894
 20
-28.909341
 40
0.1
 50
180.0
 51
270.0
  0
ENDBLK
  0
BLOCK
  2
*GRP_0012
 70
    65
 10
0.0
 20
0.0
  0
SPLINE
  5
1400000
100
AcDbEntity
  8
ガラス
100
AcDbSpline
  6
CONTINUOUS
 70
     0
 71
     3
 74
     3
 44
0.0
 11
54.416455
 21
-42.254543
 11
53.810182
 21
-42.277843
 11
53.386533
 21
-42.644095
  0
SPLINE
  5
1400001
100
AcDbEntity
  8
ガラス
100
AcDbSpline
  6
CONTINUOUS
 70
     0
 71
     3
 74
     3
 44
0.0
 11
53.386533
 21
-42.644095
 11
53.82057
 21
-42.713853
 11
54.175197
 21
-42.843825
  0
ARC
  8
ガラス
  6
CONTINUOUS
 10
54.295826
 20
-42.549182
 40
0.318378
 50
247.735412
 51
427.735412
  0
ENDBLK
  0
BLOCK
  2
*GRP_0013
 70
    65
 10
0.0
 20
0.0
  0
SPLINE
  5
1400002
100
AcDbEntity
  8
ガラス
100
AcDbSpline
  6
CONTINUOUS
 70
     0
 71
     3
 74
     3
 44
0.0
 11
58.481305
 21
-42.943477
 11
57.875033
 21
-42.966777
 11
57.451383
 21
-43.33303
  0
SPLINE
  5
1400003
100
AcDbEntity
  8
ガラス
100
AcDbSpline
  6
CONTINUOUS
 70
     0
 71
     3
 74
     3
 44
0.0
 11
57.451383
 21
-43.33303
 11
57.88542
 21
-43.402787
 11
58.240048
 21
-43.53276
  0
ARC
  8
ガラス
  6
CONTINUOUS
 10
58.360676
 20
-43.238118
 40
0.318378
 50
247.735412
 51
427.735412
  0
ENDBLK
  0
BLOCK
  2
*GRP_0014
 70
    65
 10
0.0
 20
0.0
  0
SPLINE
  5
1400004
100
AcDbEntity
  8
ガラス
100
AcDbSpline
  6
CONTINUOUS
 70
     0
 71
     3
 74
     3
 44
0.0
 11
63.347617
 21
-43.76825
 11
62.741345
 21
-43.79155
 11
62.317695
 21
-44.157802
  0
SPLINE
  5
1400005
100
AcDbEntity
  8
ガラス
100
AcDbSpline
  6
CONTINUOUS
 70
     0
 71
     3
 74
     3
 44
0.0
 11
62.317695
 21
-44.157802
 11
62.751733
 21
-44.22756
 11
63.10636
 21
-44.357532
  0
ARC
  8
ガラス
  6
CONTINUOUS
 10
63.226989
 20
-44.06289
 40
0.318378
 50
247.735412
 51
427.735412
  0
ENDBLK
  0
BLOCK
  2
*GRP_0015
 70
    65
 10
0.0
 20
0.0
  0
SPLINE
  5
1400006
100
AcDbEntity
  8
ガラス
100
AcDbSpline
  6
CONTINUOUS
 70
     0
 71
     3
 74
     3
 44
0.0
 11
50.916542
 21
-34.641532
 11
50.939842
 21
-34.03526
 11
51.306095
 21
-33.61161
  0
SPLINE
  5
1400007
100
AcDbEntity
  8
ガラス
100
AcDbSpline
  6
CONTINUOUS
 70
     0
 71
     3
 74
     3
 44
0.0
 11
51.306095
 21
-33.61161
 11
51.375852
 21
-34.045647
 11
51.505825
 21
-34.400275
  0
ARC
  8
ガラス
  6
CONTINUOUS
 10
51.211184
 20
-34.520902
 40
0.318378
 50
202.264588
 51
382.264588
  0
ENDBLK
  0
BLOCK
  2
*GRP_0016
 70
    65
 10
0.0
 20
0.0
  0
SPLINE
  5
1400008
100
AcDbEntity
  8
ガラス
100
AcDbSpline
  6
CONTINUOUS
 70
     0
 71
     3
 74
     3
 44
0.0
 11
50.916542
 21
-39.876937
 11
50.939842
 21
-39.270665
 11
51.306095
 21
-38.847015
  0
SPLINE
  5
1400009
100
AcDbEntity
  8
ガラス
100
AcDbSpline
  6
CONTINUOUS
 70
     0
 71
     3
 74
     3
 44
0.0
 11
51.306095
 21
-38.847015
 11
51.375852
 21
-39.281052
 11
51.505825
 21
-39.63568
  0
ARC
  8
ガラス
  6
CONTINUOUS
 10
51.211184
 20
-39.756308
 40
0.318378
 50
202.264588
 51
382.264588
  0
ENDBLK
  0
BLOCK
  2
*GRP_0017
 70
    65
 10
0.0
 20
0.0
  0
SPLINE
  5
1400010
100
AcDbEntity
  8
ガラス
100
AcDbSpline
  6
CONTINUOUS
 70
     0
 71
     3
 74
     3
 44
0.0
 11
-63.280915
 21
-42.254543
 11
-62.674643
 21
-42.277843
 11
-62.250993
 21
-42.644095
  0
SPLINE
  5
1400011
100
AcDbEntity
  8
ガラス
100
AcDbSpline
  6
CONTINUOUS
 70
     0
 71
     3
 74
     3
 44
0.0
 11
-62.250993
 21
-42.644095
 11
-62.68503
 21
-42.713853
 11
-63.039657
 21
-42.843825
  0
ARC
  8
ガラス
  6
CONTINUOUS
 10
-63.160286
 20
-42.549182
 40
0.318378
 50
112.264588
 51
292.264588
  0
ENDBLK
  0
BLOCK
  2
*GRP_0018
 70
    65
 10
0.0
 20
0.0
  0
SPLINE
  5
1400012
100
AcDbEntity
  8
ガラス
100
AcDbSpline
  6
CONTINUOUS
 70
     0
 71
     3
 74
     3
 44
0.0
 11
-67.345765
 21
-42.943477
 11
-66.739492
 21
-42.966777
 11
-66.315842
 21
-43.33303
  0
SPLINE
  5
1400013
100
AcDbEntity
  8
ガラス
100
AcDbSpline
  6
CONTINUOUS
 70
     0
 71
     3
 74
     3
 44
0.0
 11
-66.315842
 21
-43.33303
 11
-66.74988
 21
-43.402787
 11
-67.104507
 21
-43.53276
  0
ARC
  8
ガラス
  6
CONTINUOUS
 10
-67.225136
 20
-43.238118
 40
0.318378
 50
112.264588
 51
292.264588
  0
ENDBLK
  0
BLOCK
  2
*GRP_0019
 70
    65
 10
0.0
 20
0.0
  0
SPLINE
  5
1400014
100
AcDbEntity
  8
ガラス
100
AcDbSpline
  6
CONTINUOUS
 70
     0
 71
     3
 74
     3
 44
0.0
 11
-72.212078
 21
-43.76825
 11
-71.605805
 21
-43.79155
 11
-71.182155
 21
-44.157802
  0
SPLINE
  5
1400015
100
AcDbEntity
  8
ガラス
100
AcDbSpline
  6
CONTINUOUS
 70
     0
 71
     3
 74
     3
 44
0.0
 11
-71.182155
 21
-44.157802
 11
-71.616193
 21
-44.22756
 11
-71.97082
 21
-44.357532
  0
ARC
  8
ガラス
  6
CONTINUOUS
 10
-72.091449
 20
-44.06289
 40
0.318378
 50
112.264588
 51
292.264588
  0
ENDBLK
  0
BLOCK
  2
*GRP_0020
 70
    65
 10
0.0
 20
0.0
  0
SPLINE
  5
1400016
100
AcDbEntity
  8
ガラス
100
AcDbSpline
  6
CONTINUOUS
 70
     0
 71
     3
 74
     3
 44
0.0
 11
-59.781002
 21
-34.641532
 11
-59.804302
 21
-34.03526
 11
-60.170555
 21
-33.61161
  0
SPLINE
  5
1400017
100
AcDbEntity
  8
ガラス
100
AcDbSpline
  6
CONTINUOUS
 70
     0
 71
     3
 74
     3
 44
0.0
 11
-60.170555
 21
-33.61161
 11
-60.240312
 21
-34.045647
 11
-60.370285
 21
-34.400275
  0
ARC
  8
ガラス
  6
CONTINUOUS
 10
-60.075644
 20
-34.520902
 40
0.318378
 50
157.735412
 51
337.735412
  0
ENDBLK
  0
BLOCK
  2
*GRP_0021
 70
    65
 10
0.0
 20
0.0
  0
SPLINE
  5
1400018
100
AcDbEntity
  8
ガラス
100
AcDbSpline
  6
CONTINUOUS
 70
     0
 71
     3
 74
     3
 44
0.0
 11
-59.781002
 21
-39.876937
 11
-59.804302
 21
-39.270665
 11
-60.170555
 21
-38.847015
  0
SPLINE
  5
1400019
100
AcDbEntity
  8
ガラス
100
AcDbSpline
  6
CONTINUOUS
 70
     0
 71
     3
 74
     3
 44
0.0
 11
-60.170555
 21
-38.847015
 11
-60.240312
 21
-39.281052
 11
-60.370285
 21
-39.63568
  0
ARC
  8
ガラス
  6
CONTINUOUS
 10
-60.075644
 20
-39.756308
 40
0.318378
 50
157.735412
 51
337.735412
  0
ENDBLK
  0
BLOCK
  2
*GRP_0022
 70
    65
 10
0.0
 20
0.0
  0
LINE
  8
ゴム等
  6
CONTINUOUS
 10
-64.417468
 20
-32.009328
 11
-61.084135
 21
-32.009328
  0
LINE
  8
ゴム等
  6
CONTINUOUS
 10
-61.084135
 20
-32.009328
 11
-61.084135
 21
-33.675995
  0
LINE
  8
ゴム等
  6
CONTINUOUS
 10
-61.084135
 20
-33.675995
 11
-64.417468
 21
-33.675995
  0
LINE
  8
ゴム等
  6
CONTINUOUS
 10
-64.417468
 20
-32.009328
 11
-64.417468
 21
-33.675995
  0
INSERT
  2
*HAT_0001
  8
ゴム等
 10
0.0
 20
0.0
  0
ENDBLK
  0
BLOCK
  2
*GRP_0023
 70
    65
 10
0.0
 20
0.0
  0
LINE
  8
ゴム等
  6
CONTINUOUS
 10
55.553008
 20
-32.009328
 11
52.219675
 21
-32.009328
  0
LINE
  8
ゴム等
  6
CONTINUOUS
 10
52.219675
 20
-32.009328
 11
52.219675
 21
-33.675995
  0
LINE
  8
ゴム等
  6
CONTINUOUS
 10
52.219675
 20
-33.675995
 11
55.553008
 21
-33.675995
  0
LINE
  8
ゴム等
  6
CONTINUOUS
 10
55.553008
 20
-32.009328
 11
55.553008
 21
-33.675995
  0
INSERT
  2
*HAT_0002
  8
ゴム等
 10
0.0
 20
0.0
  0
ENDBLK
  0
BLOCK
  2
*GRP_0024
 70
    65
 10
0.0
 20
0.0
  0
LINE
  8
ゴム等
  6
CONTINUOUS
 10
49.453095
 20
-27.67608
 11
49.453095
 21
-29.742748
  0
LINE
  8
ゴム等
  6
CONTINUOUS
 10
49.453095
 20
-29.742748
 11
52.786427
 21
-29.742748
  0
LINE
  8
ゴム等
  6
CONTINUOUS
 10
52.786427
 20
-29.742748
 11
52.786427
 21
-27.67608
  0
LINE
  8
ゴム等
  6
CONTINUOUS
 10
49.453095
 20
-27.67608
 11
52.786427
 21
-27.67608
  0
INSERT
  2
*HAT_0003
  8
ゴム等
 10
0.0
 20
0.0
  0
ENDBLK
  0
BLOCK
  2
*GRP_0025
 70
    65
 10
0.0
 20
0.0
  0
LINE
  8
ゴム等
  6
CONTINUOUS
 10
-10.265572
 20
-32.009343
 11
-13.598905
 21
-32.009343
  0
LINE
  8
ゴム等
  6
CONTINUOUS
 10
-13.598905
 20
-32.009343
 11
-13.598905
 21
-33.67601
  0
LINE
  8
ゴム等
  6
CONTINUOUS
 10
-13.598905
 20
-33.67601
 11
-10.265572
 21
-33.67601
  0
LINE
  8
ゴム等
  6
CONTINUOUS
 10
-10.265572
 20
-32.009343
 11
-10.265572
 21
-33.67601
  0
INSERT
  2
*HAT_0004
  8
ゴム等
 10
0.0
 20
0.0
  0
ENDBLK
  0
BLOCK
  2
*GRP_0026
 70
    65
 10
0.0
 20
0.0
  0
LINE
  8
ゴム等
  6
DOT
 10
-15.798895
 20
-27.67601
 11
-15.798895
 21
-29.742677
  0
LINE
  8
ゴム等
  6
DOT
 10
-15.798895
 20
-29.742677
 11
-12.465563
 21
-29.742677
  0
LINE
  8
ゴム等
  6
DOT
 10
-12.465563
 20
-29.742677
 11
-12.465563
 21
-27.67601
  0
LINE
  8
ゴム等
  6
DOT
 10
-15.798895
 20
-27.67601
 11
-12.465563
 21
-27.67601
  0
INSERT
  2
*HAT_0005
  8
ゴム等
 10
0.0
 20
0.0
  0
ENDBLK
  0
BLOCK
  2
*GRP_0027
 70
    65
 10
0.0
 20
0.0
  0
LINE
  8
ゴム等
  6
DOT
 10
6.934435
 20
-27.67601
 11
6.934435
 21
-29.742677
  0
LINE
  8
ゴム等
  6
DOT
 10
6.934435
 20
-29.742677
 11
3.601102
 21
-29.742677
  0
LINE
  8
ゴム等
  6
DOT
 10
3.601102
 20
-29.742677
 11
3.601102
 21
-27.67601
  0
LINE
  8
ゴム等
  6
DOT
 10
6.934435
 20
-27.67601
 11
3.601102
 21
-27.67601
  0
INSERT
  2
*HAT_0006
  8
ゴム等
 10
0.0
 20
0.0
  0
ENDBLK
  0
BLOCK
  2
*GRP_0028
 70
    65
 10
0.0
 20
0.0
  0
LINE
  8
ゴム等
  6
CONTINUOUS
 10
1.401113
 20
-32.009343
 11
4.734445
 21
-32.009343
  0
LINE
  8
ゴム等
  6
CONTINUOUS
 10
4.734445
 20
-32.009343
 11
4.734445
 21
-33.67601
  0
LINE
  8
ゴム等
  6
CONTINUOUS
 10
4.734445
 20
-33.67601
 11
1.401113
 21
-33.67601
  0
LINE
  8
ゴム等
  6
CONTINUOUS
 10
1.401113
 20
-32.009343
 11
1.401113
 21
-33.67601
  0
INSERT
  2
*HAT_0007
  8
ゴム等
 10
0.0
 20
0.0
  0
ENDBLK
  0
BLOCK
  2
*GRP_0029
 70
    65
 10
0.0
 20
0.0
  0
LINE
  8
ボルト／ビス
  6
CONTINUOUS
 62
    64
 10
-96.01757
 20
-53.409372
 11
-94.684238
 21
-53.409372
  0
LINE
  8
ボルト／ビス
  6
CONTINUOUS
 62
    64
 10
-96.350903
 20
-54.009372
 11
-96.01757
 21
-53.409372
  0
LINE
  8
ボルト／ビス
  6
CONTINUOUS
 62
    64
 10
-96.350903
 20
-54.009372
 11
-94.350903
 21
-54.009372
  0
LINE
  8
ボルト／ビス
  6
CONTINUOUS
 62
    64
 10
-94.350903
 20
-54.009372
 11
-94.684238
 21
-53.409372
  0
LINE
  8
ボルト／ビス
  6
CONTINUOUS
 62
    64
 10
-95.350903
 20
-54.503882
 11
-95.350903
 21
-51.049698
  0
LINE
  8
ボルト／ビス
  6
CONTINUOUS
 62
    64
 10
-96.01757
 20
-51.509372
 11
-95.850903
 21
-51.342705
  0
LINE
  8
ボルト／ビス
  6
CONTINUOUS
 62
    64
 10
-94.684238
 20
-51.509372
 11
-94.850903
 21
-51.342705
  0
LINE
  8
ボルト／ビス
  6
CONTINUOUS
 62
    64
 10
-95.850903
 20
-51.342705
 11
-94.850903
 21
-51.342705
  0
LINE
  8
ボルト／ビス
  6
CONTINUOUS
 62
    64
 10
-96.01757
 20
-51.509372
 11
-94.684238
 21
-51.509372
  0
LINE
  8
ボルト／ビス
  6
CONTINUOUS
 62
    64
 10
-95.850903
 20
-53.409372
 11
-95.850903
 21
-51.342705
  0
LINE
  8
ボルト／ビス
  6
CONTINUOUS
 62
    64
 10
-94.850903
 20
-53.409372
 11
-94.850903
 21
-51.342705
  0
LINE
  8
ボルト／ビス
  6
CONTINUOUS
 62
    64
 10
-94.684238
 20
-53.409372
 11
-94.684238
 21
-51.509372
  0
LINE
  8
ボルト／ビス
  6
CONTINUOUS
 62
    64
 10
-96.01757
 20
-53.409372
 11
-96.01757
 21
-51.509372
  0
ENDBLK
  0
BLOCK
  2
*GRP_0030
 70
    65
 10
0.0
 20
0.0
  0
LINE
  8
ボルト／ビス
  6
CONTINUOUS
 62
    64
 10
-62.473368
 20
-53.409372
 11
-61.140035
 21
-53.409372
  0
LINE
  8
ボルト／ビス
  6
CONTINUOUS
 62
    64
 10
-62.806703
 20
-54.009372
 11
-62.473368
 21
-53.409372
  0
LINE
  8
ボルト／ビス
  6
CONTINUOUS
 62
    64
 10
-62.806703
 20
-54.009372
 11
-60.806703
 21
-54.009372
  0
LINE
  8
ボルト／ビス
  6
CONTINUOUS
 62
    64
 10
-60.806703
 20
-54.009372
 11
-61.140035
 21
-53.409372
  0
LINE
  8
ボルト／ビス
  6
CONTINUOUS
 62
    64
 10
-61.806703
 20
-54.503882
 11
-61.806703
 21
-51.049698
  0
LINE
  8
ボルト／ビス
  6
CONTINUOUS
 62
    64
 10
-62.473368
 20
-51.509372
 11
-62.306703
 21
-51.342705
  0
LINE
  8
ボルト／ビス
  6
CONTINUOUS
 62
    64
 10
-61.140035
 20
-51.509372
 11
-61.306703
 21
-51.342705
  0
LINE
  8
ボルト／ビス
  6
CONTINUOUS
 62
    64
 10
-62.306703
 20
-51.342705
 11
-61.306703
 21
-51.342705
  0
LINE
  8
ボルト／ビス
  6
CONTINUOUS
 62
    64
 10
-62.473368
 20
-51.509372
 11
-61.140035
 21
-51.509372
  0
LINE
  8
ボルト／ビス
  6
CONTINUOUS
 62
    64
 10
-62.306703
 20
-53.409372
 11
-62.306703
 21
-51.342705
  0
LINE
  8
ボルト／ビス
  6
CONTINUOUS
 62
    64
 10
-61.306703
 20
-53.409372
 11
-61.306703
 21
-51.342705
  0
LINE
  8
ボルト／ビス
  6
CONTINUOUS
 62
    64
 10
-61.140035
 20
-53.409372
 11
-61.140035
 21
-51.509372
  0
LINE
  8
ボルト／ビス
  6
CONTINUOUS
 62
    64
 10
-62.473368
 20
-53.409372
 11
-62.473368
 21
-51.509372
  0
ENDBLK
  0
BLOCK
  2
*GRP_0031
 70
    65
 10
0.0
 20
0.0
  0
LINE
  8
ボルト／ビス
  6
CONTINUOUS
 62
    64
 10
87.15311
 20
-53.409372
 11
85.819778
 21
-53.409372
  0
LINE
  8
ボルト／ビス
  6
CONTINUOUS
 62
    64
 10
87.486442
 20
-54.009372
 11
87.15311
 21
-53.409372
  0
LINE
  8
ボルト／ビス
  6
CONTINUOUS
 62
    64
 10
87.486442
 20
-54.009372
 11
85.486442
 21
-54.009372
  0
LINE
  8
ボルト／ビス
  6
CONTINUOUS
 62
    64
 10
85.486442
 20
-54.009372
 11
85.819778
 21
-53.409372
  0
LINE
  8
ボルト／ビス
  6
CONTINUOUS
 62
    64
 10
86.486442
 20
-54.503882
 11
86.486442
 21
-51.049698
  0
LINE
  8
ボルト／ビス
  6
CONTINUOUS
 62
    64
 10
87.15311
 20
-51.509372
 11
86.986442
 21
-51.342705
  0
LINE
  8
ボルト／ビス
  6
CONTINUOUS
 62
    64
 10
85.819778
 20
-51.509372
 11
85.986442
 21
-51.342705
  0
LINE
  8
ボルト／ビス
  6
CONTINUOUS
 62
    64
 10
86.986442
 20
-51.342705
 11
85.986442
 21
-51.342705
  0
LINE
  8
ボルト／ビス
  6
CONTINUOUS
 62
    64
 10
87.15311
 20
-51.509372
 11
85.819778
 21
-51.509372
  0
LINE
  8
ボルト／ビス
  6
CONTINUOUS
 62
    64
 10
86.986442
 20
-53.409372
 11
86.986442
 21
-51.342705
  0
LINE
  8
ボルト／ビス
  6
CONTINUOUS
 62
    64
 10
85.986442
 20
-53.409372
 11
85.986442
 21
-51.342705
  0
LINE
  8
ボルト／ビス
  6
CONTINUOUS
 62
    64
 10
85.819778
 20
-53.409372
 11
85.819778
 21
-51.509372
  0
LINE
  8
ボルト／ビス
  6
CONTINUOUS
 62
    64
 10
87.15311
 20
-53.409372
 11
87.15311
 21
-51.509372
  0
ENDBLK
  0
BLOCK
  2
*GRP_0032
 70
    65
 10
0.0
 20
0.0
  0
LINE
  8
ボルト／ビス
  6
CONTINUOUS
 62
    64
 10
53.608907
 20
-53.409372
 11
52.275575
 21
-53.409372
  0
LINE
  8
ボルト／ビス
  6
CONTINUOUS
 62
    64
 10
53.942243
 20
-54.009372
 11
53.608907
 21
-53.409372
  0
LINE
  8
ボルト／ビス
  6
CONTINUOUS
 62
    64
 10
53.942243
 20
-54.009372
 11
51.942243
 21
-54.009372
  0
LINE
  8
ボルト／ビス
  6
CONTINUOUS
 62
    64
 10
51.942243
 20
-54.009372
 11
52.275575
 21
-53.409372
  0
LINE
  8
ボルト／ビス
  6
CONTINUOUS
 62
    64
 10
52.942243
 20
-54.503882
 11
52.942243
 21
-51.049698
  0
LINE
  8
ボルト／ビス
  6
CONTINUOUS
 62
    64
 10
53.608907
 20
-51.509372
 11
53.442243
 21
-51.342705
  0
LINE
  8
ボルト／ビス
  6
CONTINUOUS
 62
    64
 10
52.275575
 20
-51.509372
 11
52.442243
 21
-51.342705
  0
LINE
  8
ボルト／ビス
  6
CONTINUOUS
 62
    64
 10
53.442243
 20
-51.342705
 11
52.442243
 21
-51.342705
  0
LINE
  8
ボルト／ビス
  6
CONTINUOUS
 62
    64
 10
53.608907
 20
-51.509372
 11
52.275575
 21
-51.509372
  0
LINE
  8
ボルト／ビス
  6
CONTINUOUS
 62
    64
 10
53.442243
 20
-53.409372
 11
53.442243
 21
-51.342705
  0
LINE
  8
ボルト／ビス
  6
CONTINUOUS
 62
    64
 10
52.442243
 20
-53.409372
 11
52.442243
 21
-51.342705
  0
LINE
  8
ボルト／ビス
  6
CONTINUOUS
 62
    64
 10
52.275575
 20
-53.409372
 11
52.275575
 21
-51.509372
  0
LINE
  8
ボルト／ビス
  6
CONTINUOUS
 62
    64
 10
53.608907
 20
-53.409372
 11
53.608907
 21
-51.509372
  0
ENDBLK
  0
BLOCK
  2
*GRP_0033
 70
    65
 10
0.0
 20
0.0
  0
POLYLINE
  8
ボルト／ビス
  6
CONTINUOUS
 62
    64
 66
     1
  0
VERTEX
  8
ボルト／ビス
 10
55.985602
 20
-55.74266
  0
VERTEX
  8
ボルト／ビス
 10
55.981603
 20
-55.758985
  0
VERTEX
  8
ボルト／ビス
 10
55.969602
 20
-55.77516
  0
VERTEX
  8
ボルト／ビス
 10
55.949725
 20
-55.79104
  0
VERTEX
  8
ボルト／ビス
 10
55.922172
 20
-55.80644
  0
VERTEX
  8
ボルト／ビス
 10
55.887203
 20
-55.821213
  0
VERTEX
  8
ボルト／ビス
 10
55.845175
 20
-55.83524
  0
VERTEX
  8
ボルト／ビス
 10
55.796445
 20
-55.848385
  0
VERTEX
  8
ボルト／ビス
 10
55.741525
 20
-55.860513
  0
VERTEX
  8
ボルト／ビス
 10
55.680925
 20
-55.871485
  0
VERTEX
  8
ボルト／ビス
 10
55.615245
 20
-55.88124
  0
VERTEX
  8
ボルト／ビス
 10
55.545103
 20
-55.88964
  0
VERTEX
  8
ボルト／ビス
 10
55.471185
 20
-55.89664
  0
VERTEX
  8
ボルト／ビス
 10
55.394175
 20
-55.90214
  0
VERTEX
  8
ボルト／ビス
 10
55.314862
 20
-55.906113
  0
VERTEX
  8
ボルト／ビス
 10
55.233945
 20
-55.908512
  0
VERTEX
  8
ボルト／ビス
 10
55.152285
 20
-55.909313
  0
VERTEX
  8
ボルト／ビス
 10
55.070605
 20
-55.908512
  0
VERTEX
  8
ボルト／ビス
 10
54.989705
 20
-55.906113
  0
VERTEX
  8
ボルト／ビス
 10
54.910385
 20
-55.90214
  0
VERTEX
  8
ボルト／ビス
 10
54.833385
 20
-55.89664
  0
VERTEX
  8
ボルト／ビス
 10
54.759462
 20
-55.88964
  0
VERTEX
  8
ボルト／ビス
 10
54.689305
 20
-55.88124
  0
VERTEX
  8
ボルト／ビス
 10
54.623632
 20
-55.871485
  0
VERTEX
  8
ボルト／ビス
 10
54.563033
 20
-55.860513
  0
VERTEX
  8
ボルト／ビス
 10
54.508105
 20
-55.848385
  0
VERTEX
  8
ボルト／ビス
 10
54.459385
 20
-55.83524
  0
VERTEX
  8
ボルト／ビス
 10
54.417362
 20
-55.821213
  0
VERTEX
  8
ボルト／ビス
 10
54.382385
 20
-55.80644
  0
VERTEX
  8
ボルト／ビス
 10
54.354835
 20
-55.79104
  0
VERTEX
  8
ボルト／ビス
 10
54.334963
 20
-55.77516
  0
VERTEX
  8
ボルト／ビス
 10
54.322945
 20
-55.758985
  0
VERTEX
  8
ボルト／ビス
 10
54.318963
 20
-55.74266
  0
SEQEND
  0
LINE
  8
ボルト／ビス
  6
CONTINUOUS
 62
    64
 10
55.985602
 20
-55.74266
 11
56.152275
 21
-55.29992
  0
LINE
  8
ボルト／ビス
  6
CONTINUOUS
 62
    64
 10
54.322945
 20
-55.758985
 11
54.152285
 21
-55.29992
  0
LINE
  8
ボルト／ビス
  6
CONTINUOUS
 62
    64
 10
54.152285
 20
-55.075985
 11
54.152285
 21
-55.29992
  0
LINE
  8
ボルト／ビス
  6
CONTINUOUS
 62
    64
 10
56.152275
 20
-55.075985
 11
56.152275
 21
-55.29992
  0
ARC
  8
ボルト／ビス
  6
CONTINUOUS
 62
    64
 10
55.152279
 20
-55.632666
 40
0.033333
 50
9.840875
 51
170.159125
  0
LINE
  8
ボルト／ビス
  6
CONTINUOUS
 62
    64
 10
55.220472
 20
-55.83076
 11
55.545103
 21
-55.88964
  0
LINE
  8
ボルト／ビス
  6
CONTINUOUS
 62
    64
 10
55.084085
 20
-55.83076
 11
54.759462
 21
-55.88964
  0
LINE
  8
ボルト／ビス
  6
CONTINUOUS
 62
    64
 10
55.185132
 20
-55.62696
 11
55.220472
 21
-55.83076
  0
LINE
  8
ボルト／ビス
  6
CONTINUOUS
 62
    64
 10
55.119425
 20
-55.62696
 11
55.084085
 21
-55.83076
  0
LINE
  8
ボルト／ビス
  6
CONTINUOUS
 62
    64
 10
56.152275
 20
-55.075985
 11
54.152285
 21
-55.075985
  0
LINE
  8
ボルト／ビス
  6
CONTINUOUS
 62
    64
 10
55.818945
 20
-52.24268
 11
55.652275
 21
-52.076005
  0
LINE
  8
ボルト／ビス
  6
CONTINUOUS
 62
    64
 10
54.652285
 20
-52.076005
 11
54.485605
 21
-52.24268
  0
LINE
  8
ボルト／ビス
  6
CONTINUOUS
 62
    64
 10
54.652285
 20
-55.075985
 11
54.652285
 21
-52.076005
  0
LINE
  8
ボルト／ビス
  6
CONTINUOUS
 62
    64
 10
54.652285
 20
-52.076005
 11
55.652275
 21
-52.076005
  0
LINE
  8
ボルト／ビス
  6
CONTINUOUS
 62
    64
 10
55.652275
 20
-55.075985
 11
55.652275
 21
-52.076005
  0
LINE
  8
ボルト／ビス
  6
CONTINUOUS
 62
    64
 10
55.818945
 20
-55.075985
 11
55.818945
 21
-52.24268
  0
LINE
  8
ボルト／ビス
  6
CONTINUOUS
 62
    64
 10
55.818945
 20
-52.24268
 11
54.485605
 21
-52.24268
  0
LINE
  8
ボルト／ビス
  6
CONTINUOUS
 62
    64
 10
54.485605
 20
-55.075985
 11
54.485605
 21
-52.24268
  0
LINE
  8
ボルト／ビス
  6
CONTINUOUS
 62
    64
 10
55.152285
 20
-57.378905
 11
55.152285
 21
-51.490333
  0
ENDBLK
  0
BLOCK
  2
*GRP_0034
 70
    65
 10
0.0
 20
0.0
  0
LINE
  8
ボルト／ビス
  6
DOT
 62
    64
 10
-69.017468
 20
-37.076005
 11
-68.117468
 21
-36.34267
  0
LINE
  8
ボルト／ビス
  6
DOT
 62
    64
 10
-69.017468
 20
-34.276005
 11
-68.117468
 21
-35.009338
  0
LINE
  8
ボルト／ビス
  6
DOT
 62
    64
 10
-69.017468
 20
-34.276005
 11
-69.017468
 21
-37.076005
  0
LINE
  8
ボルト／ビス
  6
DOT
 62
    64
 10
-68.117468
 20
-35.009338
 11
-68.117468
 21
-36.34267
  0
LINE
  8
ボルト／ビス
  6
DOT
 62
    64
 10
-70.42349
 20
-35.676005
 11
-50.684657
 21
-35.676005
  0
LINE
  8
ボルト／ビス
  6
DOT
 62
    64
 10
-52.517468
 20
-35.009338
 11
-52.3508
 21
-35.176005
  0
LINE
  8
ボルト／ビス
  6
DOT
 62
    64
 10
-52.517468
 20
-36.34267
 11
-52.3508
 21
-36.176005
  0
LINE
  8
ボルト／ビス
  6
DOT
 62
    64
 10
-52.3508
 20
-36.176005
 11
-52.3508
 21
-35.176005
  0
LINE
  8
ボルト／ビス
  6
DOT
 62
    64
 10
-52.517468
 20
-36.34267
 11
-52.517468
 21
-35.009338
  0
LINE
  8
ボルト／ビス
  6
DOT
 62
    64
 10
-68.117468
 20
-35.176005
 11
-52.3508
 21
-35.176005
  0
LINE
  8
ボルト／ビス
  6
DOT
 62
    64
 10
-68.117468
 20
-36.176005
 11
-52.3508
 21
-36.176005
  0
LINE
  8
ボルト／ビス
  6
DOT
 62
    64
 10
-68.117468
 20
-35.009338
 11
-52.517468
 21
-35.009338
  0
LINE
  8
ボルト／ビス
  6
DOT
 62
    64
 10
-68.117468
 20
-36.34267
 11
-52.517468
 21
-36.34267
  0
ENDBLK
  0
BLOCK
  2
*GRP_0035
 70
    65
 10
0.0
 20
0.0
  0
LINE
  8
ボルト／ビス
  6
DOT
 62
    64
 10
60.153008
 20
-37.076005
 11
59.253008
 21
-36.34267
  0
LINE
  8
ボルト／ビス
  6
DOT
 62
    64
 10
60.153008
 20
-34.276005
 11
59.253008
 21
-35.009338
  0
LINE
  8
ボルト／ビス
  6
DOT
 62
    64
 10
60.153008
 20
-34.276005
 11
60.153008
 21
-37.076005
  0
LINE
  8
ボルト／ビス
  6
DOT
 62
    64
 10
59.253008
 20
-35.009338
 11
59.253008
 21
-36.34267
  0
LINE
  8
ボルト／ビス
  6
DOT
 62
    64
 10
61.55903
 20
-35.676005
 11
41.820197
 21
-35.676005
  0
LINE
  8
ボルト／ビス
  6
DOT
 62
    64
 10
43.653008
 20
-35.009338
 11
43.48634
 21
-35.176005
  0
LINE
  8
ボルト／ビス
  6
DOT
 62
    64
 10
43.653008
 20
-36.34267
 11
43.48634
 21
-36.176005
  0
LINE
  8
ボルト／ビス
  6
DOT
 62
    64
 10
43.48634
 20
-36.176005
 11
43.48634
 21
-35.176005
  0
LINE
  8
ボルト／ビス
  6
DOT
 62
    64
 10
43.653008
 20
-36.34267
 11
43.653008
 21
-35.009338
  0
LINE
  8
ボルト／ビス
  6
DOT
 62
    64
 10
59.253008
 20
-35.176005
 11
43.48634
 21
-35.176005
  0
LINE
  8
ボルト／ビス
  6
DOT
 62
    64
 10
59.253008
 20
-36.176005
 11
43.48634
 21
-36.176005
  0
LINE
  8
ボルト／ビス
  6
DOT
 62
    64
 10
59.253008
 20
-35.009338
 11
43.653008
 21
-35.009338
  0
LINE
  8
ボルト／ビス
  6
DOT
 62
    64
 10
59.253008
 20
-36.34267
 11
43.653008
 21
-36.34267
  0
ENDBLK
  0
BLOCK
  2
*GRP_0036
 70
    65
 10
0.0
 20
0.0
  0
POLYLINE
  8
ボルト／ビス
  6
CONTINUOUS
 62
    64
 66
     1
  0
VERTEX
  8
ボルト／ビス
 10
82.986335
 20
-55.74266
  0
VERTEX
  8
ボルト／ビス
 10
82.982332
 20
-55.758985
  0
VERTEX
  8
ボルト／ビス
 10
82.970333
 20
-55.77516
  0
VERTEX
  8
ボルト／ビス
 10
82.950462
 20
-55.79104
  0
VERTEX
  8
ボルト／ビス
 10
82.922905
 20
-55.80644
  0
VERTEX
  8
ボルト／ビス
 10
82.887935
 20
-55.821213
  0
VERTEX
  8
ボルト／ビス
 10
82.845905
 20
-55.83524
  0
VERTEX
  8
ボルト／ビス
 10
82.797183
 20
-55.848385
  0
VERTEX
  8
ボルト／ビス
 10
82.742262
 20
-55.860513
  0
VERTEX
  8
ボルト／ビス
 10
82.681662
 20
-55.871485
  0
VERTEX
  8
ボルト／ビス
 10
82.615983
 20
-55.88124
  0
VERTEX
  8
ボルト／ビス
 10
82.545832
 20
-55.88964
  0
VERTEX
  8
ボルト／ビス
 10
82.471923
 20
-55.89664
  0
VERTEX
  8
ボルト／ビス
 10
82.394905
 20
-55.90214
  0
VERTEX
  8
ボルト／ビス
 10
82.315592
 20
-55.906113
  0
VERTEX
  8
ボルト／ビス
 10
82.234683
 20
-55.908512
  0
VERTEX
  8
ボルト／ビス
 10
82.153023
 20
-55.909313
  0
VERTEX
  8
ボルト／ビス
 10
82.071342
 20
-55.908512
  0
VERTEX
  8
ボルト／ビス
 10
81.990443
 20
-55.906113
  0
VERTEX
  8
ボルト／ビス
 10
81.911123
 20
-55.90214
  0
VERTEX
  8
ボルト／ビス
 10
81.834123
 20
-55.89664
  0
VERTEX
  8
ボルト／ビス
 10
81.760193
 20
-55.88964
  0
VERTEX
  8
ボルト／ビス
 10
81.690042
 20
-55.88124
  0
VERTEX
  8
ボルト／ビス
 10
81.624365
 20
-55.871485
  0
VERTEX
  8
ボルト／ビス
 10
81.563765
 20
-55.860513
  0
VERTEX
  8
ボルト／ビス
 10
81.508842
 20
-55.848385
  0
VERTEX
  8
ボルト／ビス
 10
81.460123
 20
-55.83524
  0
VERTEX
  8
ボルト／ビス
 10
81.418095
 20
-55.821213
  0
VERTEX
  8
ボルト／ビス
 10
81.383122
 20
-55.80644
  0
VERTEX
  8
ボルト／ビス
 10
81.355565
 20
-55.79104
  0
VERTEX
  8
ボルト／ビス
 10
81.335693
 20
-55.77516
  0
VERTEX
  8
ボルト／ビス
 10
81.323682
 20
-55.758985
  0
VERTEX
  8
ボルト／ビス
 10
81.319695
 20
-55.74266
  0
SEQEND
  0
LINE
  8
ボルト／ビス
  6
CONTINUOUS
 62
    64
 10
82.986335
 20
-55.74266
 11
83.153005
 21
-55.29992
  0
LINE
  8
ボルト／ビス
  6
CONTINUOUS
 62
    64
 10
81.323682
 20
-55.758985
 11
81.153023
 21
-55.29992
  0
LINE
  8
ボルト／ビス
  6
CONTINUOUS
 62
    64
 10
81.153023
 20
-55.075985
 11
81.153023
 21
-55.29992
  0
LINE
  8
ボルト／ビス
  6
CONTINUOUS
 62
    64
 10
83.153005
 20
-55.075985
 11
83.153005
 21
-55.29992
  0
ARC
  8
ボルト／ビス
  6
CONTINUOUS
 62
    64
 10
82.153014
 20
-55.632666
 40
0.033333
 50
9.840875
 51
170.159125
  0
LINE
  8
ボルト／ビス
  6
CONTINUOUS
 62
    64
 10
82.221205
 20
-55.83076
 11
82.545832
 21
-55.88964
  0
LINE
  8
ボルト／ビス
  6
CONTINUOUS
 62
    64
 10
82.084822
 20
-55.83076
 11
81.760193
 21
-55.88964
  0
LINE
  8
ボルト／ビス
  6
CONTINUOUS
 62
    64
 10
82.185865
 20
-55.62696
 11
82.221205
 21
-55.83076
  0
LINE
  8
ボルト／ビス
  6
CONTINUOUS
 62
    64
 10
82.120162
 20
-55.62696
 11
82.084822
 21
-55.83076
  0
LINE
  8
ボルト／ビス
  6
CONTINUOUS
 62
    64
 10
83.153005
 20
-55.075985
 11
81.153023
 21
-55.075985
  0
LINE
  8
ボルト／ビス
  6
CONTINUOUS
 62
    64
 10
82.819683
 20
-52.24268
 11
82.653005
 21
-52.076005
  0
LINE
  8
ボルト／ビス
  6
CONTINUOUS
 62
    64
 10
81.653023
 20
-52.076005
 11
81.486342
 21
-52.24268
  0
LINE
  8
ボルト／ビス
  6
CONTINUOUS
 62
    64
 10
81.653023
 20
-55.075985
 11
81.653023
 21
-52.076005
  0
LINE
  8
ボルト／ビス
  6
CONTINUOUS
 62
    64
 10
81.653023
 20
-52.076005
 11
82.653005
 21
-52.076005
  0
LINE
  8
ボルト／ビス
  6
CONTINUOUS
 62
    64
 10
82.653005
 20
-55.075985
 11
82.653005
 21
-52.076005
  0
LINE
  8
ボルト／ビス
  6
CONTINUOUS
 62
    64
 10
82.819683
 20
-55.075985
 11
82.819683
 21
-52.24268
  0
LINE
  8
ボルト／ビス
  6
CONTINUOUS
 62
    64
 10
82.819683
 20
-52.24268
 11
81.486342
 21
-52.24268
  0
LINE
  8
ボルト／ビス
  6
CONTINUOUS
 62
    64
 10
81.486342
 20
-55.075985
 11
81.486342
 21
-52.24268
  0
LINE
  8
ボルト／ビス
  6
CONTINUOUS
 62
    64
 10
82.153023
 20
-57.378905
 11
82.153023
 21
-51.490333
  0
ENDBLK
  0
BLOCK
  2
*GRP_0037
 70
    65
 10
0.0
 20
0.0
  0
LINE
  8
ボルト／ビス
  6
CONTINUOUS
 62
    64
 10
74.870003
 20
-67.760875
 11
74.718235
 21
-68.17785
  0
ARC
  8
ボルト／ビス
  6
CONTINUOUS
 62
    64
 10
73.50528
 20
-67.552387
 40
1.364723
 50
0.0
 51
27.277966
  0
LINE
  8
ボルト／ビス
  6
CONTINUOUS
 62
    64
 10
74.870003
 20
-63.591122
 11
74.718235
 21
-63.174147
  0
ARC
  8
ボルト／ビス
  6
CONTINUOUS
 62
    64
 10
73.50528
 20
-63.799608
 40
1.364723
 50
332.722034
 51
360.0
  0
ARC
  8
ボルト／ビス
  6
CONTINUOUS
 62
    64
 10
69.638759
 20
-65.675997
 40
5.231244
 50
346.165046
 51
373.834954
  0
LINE
  8
ボルト／ビス
  6
CONTINUOUS
 62
    64
 10
73.153335
 20
-68.17785
 11
74.718235
 21
-68.17785
  0
LINE
  8
ボルト／ビス
  6
CONTINUOUS
 62
    64
 10
73.153335
 20
-63.174147
 11
74.718235
 21
-63.174147
  0
LINE
  8
ボルト／ビス
  6
CONTINUOUS
 62
    64
 10
74.870003
 20
-63.591122
 11
74.870003
 21
-67.760875
  0
LINE
  8
ボルト／ビス
  6
CONTINUOUS
 62
    64
 10
74.718235
 20
-64.425072
 11
73.153335
 21
-64.425072
  0
LINE
  8
ボルト／ビス
  6
CONTINUOUS
 62
    64
 10
74.718235
 20
-66.926925
 11
73.153335
 21
-66.926925
  0
LINE
  8
ボルト／ビス
  6
CONTINUOUS
 62
    64
 10
73.153335
 20
-63.174147
 11
73.153335
 21
-68.17785
  0
LINE
  8
ボルト／ビス
  6
CONTINUOUS
 62
    64
 10
72.553335
 20
-68.592665
 11
72.220003
 21
-68.592665
  0
LINE
  8
ボルト／ビス
  6
CONTINUOUS
 62
    64
 10
72.553335
 20
-62.759332
 11
72.220003
 21
-62.759332
  0
LINE
  8
ボルト／ビス
  6
CONTINUOUS
 62
    64
 10
72.553335
 20
-68.592665
 11
72.553335
 21
-62.759332
  0
LINE
  8
ボルト／ビス
  6
CONTINUOUS
 62
    64
 10
72.220003
 20
-68.592665
 11
72.220003
 21
-62.759332
  0
LINE
  8
ボルト／ビス
  6
CONTINUOUS
 62
    64
 10
73.153335
 20
-65.675997
 11
72.553335
 21
-65.675997
  0
LINE
  8
ボルト／ビス
  6
CONTINUOUS
 62
    64
 10
73.153335
 20
-63.042665
 11
72.553335
 21
-63.042665
  0
LINE
  8
ボルト／ビス
  6
CONTINUOUS
 62
    64
 10
73.153335
 20
-68.309332
 11
72.553335
 21
-68.309332
  0
LINE
  8
ボルト／ビス
  6
CONTINUOUS
 62
    64
 10
73.153335
 20
-63.042665
 11
73.153335
 21
-68.309332
  0
LINE
  8
ボルト／ビス
  6
CONTINUOUS
 62
    64
 10
76.536667
 20
-65.675997
 11
63.153335
 21
-65.675997
  0
LINE
  8
ボルト／ビス
  6
CONTINUOUS
 62
    64
 10
64.820003
 20
-64.609332
 11
64.820003
 21
-66.742665
  0
LINE
  8
ボルト／ビス
  6
CONTINUOUS
 62
    64
 10
65.220003
 20
-64.342665
 11
64.820003
 21
-64.609332
  0
LINE
  8
ボルト／ビス
  6
CONTINUOUS
 62
    64
 10
65.220003
 20
-67.009332
 11
64.820003
 21
-66.742665
  0
LINE
  8
ボルト／ビス
  6
CONTINUOUS
 62
    64
 10
64.820003
 20
-64.609332
 11
64.820003
 21
-66.742665
  0
LINE
  8
ボルト／ビス
  6
CONTINUOUS
 62
    64
 10
65.220003
 20
-64.342665
 11
65.220003
 21
-67.009332
  0
LINE
  8
ボルト／ビス
  6
CONTINUOUS
 62
    64
 10
72.220003
 20
-64.342665
 11
65.220003
 21
-64.342665
  0
LINE
  8
ボルト／ビス
  6
CONTINUOUS
 62
    64
 10
72.220003
 20
-67.009332
 11
65.220003
 21
-67.009332
  0
LINE
  8
ボルト／ビス
  6
CONTINUOUS
 62
    64
 10
72.220003
 20
-64.609332
 11
64.820003
 21
-64.609332
  0
LINE
  8
ボルト／ビス
  6
CONTINUOUS
 62
    64
 10
72.220003
 20
-66.742665
 11
64.820003
 21
-66.742665
  0
ENDBLK
  0
BLOCK
  2
*GRP_0038
 70
    65
 10
0.0
 20
0.0
  0
LINE
  8
ボルト／ビス
  6
CONTINUOUS
 62
    64
 10
67.436667
 20
-67.760873
 11
67.588433
 21
-68.177848
  0
ARC
  8
ボルト／ビス
  6
CONTINUOUS
 62
    64
 10
68.80139
 20
-67.552385
 40
1.364723
 50
152.722034
 51
180.0
  0
LINE
  8
ボルト／ビス
  6
CONTINUOUS
 62
    64
 10
67.436667
 20
-63.59112
 11
67.588433
 21
-63.174145
  0
ARC
  8
ボルト／ビス
  6
CONTINUOUS
 62
    64
 10
68.80139
 20
-63.799607
 40
1.364723
 50
180.0
 51
207.277966
  0
ARC
  8
ボルト／ビス
  6
CONTINUOUS
 62
    64
 10
72.667911
 20
-65.675996
 40
5.231244
 50
166.165046
 51
193.834954
  0
LINE
  8
ボルト／ビス
  6
CONTINUOUS
 62
    64
 10
69.153335
 20
-68.177848
 11
67.588433
 21
-68.177848
  0
LINE
  8
ボルト／ビス
  6
CONTINUOUS
 62
    64
 10
69.153335
 20
-63.174145
 11
67.588433
 21
-63.174145
  0
LINE
  8
ボルト／ビス
  6
CONTINUOUS
 62
    64
 10
67.436667
 20
-63.59112
 11
67.436667
 21
-67.760873
  0
LINE
  8
ボルト／ビス
  6
CONTINUOUS
 62
    64
 10
67.588433
 20
-64.42507
 11
69.153335
 21
-64.42507
  0
LINE
  8
ボルト／ビス
  6
CONTINUOUS
 62
    64
 10
67.588433
 20
-66.926923
 11
69.153335
 21
-66.926923
  0
LINE
  8
ボルト／ビス
  6
CONTINUOUS
 62
    64
 10
69.153335
 20
-63.174145
 11
69.153335
 21
-68.177848
  0
LINE
  8
ボルト／ビス
  6
CONTINUOUS
 62
    64
 10
69.753335
 20
-68.592663
 11
70.086667
 21
-68.592663
  0
LINE
  8
ボルト／ビス
  6
CONTINUOUS
 62
    64
 10
69.753335
 20
-62.75933
 11
70.086667
 21
-62.75933
  0
LINE
  8
ボルト／ビス
  6
CONTINUOUS
 62
    64
 10
69.753335
 20
-68.592663
 11
69.753335
 21
-62.75933
  0
LINE
  8
ボルト／ビス
  6
CONTINUOUS
 62
    64
 10
70.086667
 20
-68.592663
 11
70.086667
 21
-62.75933
  0
LINE
  8
ボルト／ビス
  6
CONTINUOUS
 62
    64
 10
69.153335
 20
-65.675995
 11
69.753335
 21
-65.675995
  0
LINE
  8
ボルト／ビス
  6
CONTINUOUS
 62
    64
 10
69.153335
 20
-63.042663
 11
69.753335
 21
-63.042663
  0
LINE
  8
ボルト／ビス
  6
CONTINUOUS
 62
    64
 10
69.153335
 20
-68.30933
 11
69.753335
 21
-68.30933
  0
LINE
  8
ボルト／ビス
  6
CONTINUOUS
 62
    64
 10
69.153335
 20
-63.042663
 11
69.153335
 21
-68.30933
  0
ENDBLK
  0
BLOCK
  2
*GRP_0039
 70
    65
 10
0.0
 20
0.0
  0
LINE
  8
ボルト／ビス
  6
CONTINUOUS
 10
-78.68367
 20
-25.342665
 11
-78.68367
 21
-24.675997
  0
LINE
  8
ボルト／ビス
  6
CONTINUOUS
 10
-78.68367
 20
-24.675997
 11
-71.350335
 21
-24.675997
  0
LINE
  8
ボルト／ビス
  6
CONTINUOUS
 10
-71.350335
 20
-24.675997
 11
-71.350335
 21
-25.342665
  0
LINE
  8
ボルト／ビス
  6
CONTINUOUS
 10
-78.68367
 20
-25.342665
 11
-71.350335
 21
-25.342665
  0
LINE
  8
ボルト／ビス
  6
CONTINUOUS
 10
-78.017003
 20
-24.342665
 11
-78.017003
 21
-24.675997
  0
LINE
  8
ボルト／ビス
  6
CONTINUOUS
 10
-78.017003
 20
-24.342665
 11
-72.017003
 21
-24.342665
  0
LINE
  8
ボルト／ビス
  6
CONTINUOUS
 10
-72.017003
 20
-24.342665
 11
-72.017003
 21
-24.675997
  0
LINE
  8
ボルト／ビス
  6
CONTINUOUS
 62
    64
 10
-76.620752
 20
-22.342665
 11
-76.941503
 21
-22.459407
  0
ARC
  8
ボルト／ビス
  6
CONTINUOUS
 62
    64
 10
-76.460377
 20
-23.392449
 40
1.049784
 50
62.721967
 51
90.0
  0
ARC
  8
ボルト／ビス
  6
CONTINUOUS
 62
    64
 10
-75.017001
 20
-26.366687
 40
4.024022
 50
76.165002
 51
103.834985
  0
LINE
  8
ボルト／ビス
  6
CONTINUOUS
 62
    64
 10
-73.413252
 20
-22.342665
 11
-73.092502
 21
-22.459407
  0
ARC
  8
ボルト／ビス
  6
CONTINUOUS
 62
    64
 10
-73.573626
 20
-23.392449
 40
1.049784
 50
90.0
 51
117.278033
  0
LINE
  8
ボルト／ビス
  6
CONTINUOUS
 62
    64
 10
-76.620752
 20
-22.342665
 11
-73.413252
 21
-22.342665
  0
LINE
  8
ボルト／ビス
  6
CONTINUOUS
 62
    64
 10
-73.092502
 20
-22.459407
 11
-73.092502
 21
-23.675997
  0
LINE
  8
ボルト／ビス
  6
CONTINUOUS
 62
    64
 10
-74.054752
 20
-22.459407
 11
-74.054752
 21
-23.675997
  0
LINE
  8
ボルト／ビス
  6
CONTINUOUS
 62
    64
 10
-76.941503
 20
-22.459407
 11
-76.941503
 21
-23.675997
  0
LINE
  8
ボルト／ビス
  6
CONTINUOUS
 62
    64
 10
-75.979252
 20
-22.459407
 11
-75.979252
 21
-23.675997
  0
LINE
  8
ボルト／ビス
  6
CONTINUOUS
 10
-76.941503
 20
-23.675997
 11
-73.092502
 21
-23.675997
  0
LINE
  8
ボルト／ビス
  6
CONTINUOUS
 10
-77.017003
 20
-23.675997
 11
-77.017003
 21
-24.342665
  0
LINE
  8
ボルト／ビス
  6
CONTINUOUS
 10
-77.017003
 20
-23.675997
 11
-73.017003
 21
-23.675997
  0
LINE
  8
ボルト／ビス
  6
CONTINUOUS
 10
-73.017003
 20
-23.675997
 11
-73.017003
 21
-24.342665
  0
LINE
  8
ボルト／ビス
  6
CONTINUOUS
 62
    64
 10
-75.78367
 20
-25.342665
 11
-75.78367
 21
-32.00933
  0
LINE
  8
ボルト／ビス
  6
CONTINUOUS
 62
    64
 10
-74.250335
 20
-25.342665
 11
-74.250335
 21
-32.00933
  0
LINE
  8
ボルト／ビス
  6
CONTINUOUS
 62
    64
 10
-75.78367
 20
-32.00933
 11
-74.250335
 21
-32.00933
  0
LINE
  8
ボルト／ビス
  6
CONTINUOUS
 62
    64
 10
-74.017003
 20
-31.675997
 11
-74.250335
 21
-32.00933
  0
LINE
  8
ボルト／ビス
  6
CONTINUOUS
 62
    64
 10
-76.017003
 20
-31.675997
 11
-75.78367
 21
-32.00933
  0
LINE
  8
ボルト／ビス
  6
CONTINUOUS
 62
    64
 10
-76.017003
 20
-31.675997
 11
-74.017003
 21
-31.675997
  0
LINE
  8
ボルト／ビス
  6
CONTINUOUS
 62
    64
 10
-75.78367
 20
-32.00933
 11
-74.250335
 21
-32.00933
  0
LINE
  8
ボルト／ビス
  6
CONTINUOUS
 62
    64
 10
-74.017003
 20
-25.342665
 11
-74.017003
 21
-31.675997
  0
LINE
  8
ボルト／ビス
  6
CONTINUOUS
 62
    64
 10
-76.017003
 20
-25.342665
 11
-76.017003
 21
-31.675997
  0
ENDBLK
  0
BLOCK
  2
*GRP_0040
 70
    65
 10
0.0
 20
0.0
  0
LINE
  8
ボルト／ビス
  6
CONTINUOUS
 10
69.81921
 20
-25.342665
 11
69.81921
 21
-24.675997
  0
LINE
  8
ボルト／ビス
  6
CONTINUOUS
 10
69.81921
 20
-24.675997
 11
62.485875
 21
-24.675997
  0
LINE
  8
ボルト／ビス
  6
CONTINUOUS
 10
62.485875
 20
-24.675997
 11
62.485875
 21
-25.342665
  0
LINE
  8
ボルト／ビス
  6
CONTINUOUS
 10
69.81921
 20
-25.342665
 11
62.485875
 21
-25.342665
  0
LINE
  8
ボルト／ビス
  6
CONTINUOUS
 10
69.152542
 20
-24.342665
 11
69.152542
 21
-24.675997
  0
LINE
  8
ボルト／ビス
  6
CONTINUOUS
 10
69.152542
 20
-24.342665
 11
63.152542
 21
-24.342665
  0
LINE
  8
ボルト／ビス
  6
CONTINUOUS
 10
63.152542
 20
-24.342665
 11
63.152542
 21
-24.675997
  0
LINE
  8
ボルト／ビス
  6
CONTINUOUS
 62
    64
 10
67.756293
 20
-22.342665
 11
68.077043
 21
-22.459407
  0
ARC
  8
ボルト／ビス
  6
CONTINUOUS
 62
    64
 10
67.595917
 20
-23.392449
 40
1.049784
 50
90.0
 51
117.278033
  0
ARC
  8
ボルト／ビス
  6
CONTINUOUS
 62
    64
 10
66.152541
 20
-26.366687
 40
4.024022
 50
76.165015
 51
103.834998
  0
LINE
  8
ボルト／ビス
  6
CONTINUOUS
 62
    64
 10
64.548792
 20
-22.342665
 11
64.228043
 21
-22.459407
  0
ARC
  8
ボルト／ビス
  6
CONTINUOUS
 62
    64
 10
64.709166
 20
-23.392449
 40
1.049784
 50
62.721967
 51
90.0
  0
LINE
  8
ボルト／ビス
  6
CONTINUOUS
 62
    64
 10
67.756293
 20
-22.342665
 11
64.548792
 21
-22.342665
  0
LINE
  8
ボルト／ビス
  6
CONTINUOUS
 62
    64
 10
64.228043
 20
-22.459407
 11
64.228043
 21
-23.675997
  0
LINE
  8
ボルト／ビス
  6
CONTINUOUS
 62
    64
 10
65.190293
 20
-22.459407
 11
65.190293
 21
-23.675997
  0
LINE
  8
ボルト／ビス
  6
CONTINUOUS
 62
    64
 10
68.077043
 20
-22.459407
 11
68.077043
 21
-23.675997
  0
LINE
  8
ボルト／ビス
  6
CONTINUOUS
 62
    64
 10
67.114792
 20
-22.459407
 11
67.114792
 21
-23.675997
  0
LINE
  8
ボルト／ビス
  6
CONTINUOUS
 10
68.077043
 20
-23.675997
 11
64.228043
 21
-23.675997
  0
LINE
  8
ボルト／ビス
  6
CONTINUOUS
 10
68.152542
 20
-23.675997
 11
68.152542
 21
-24.342665
  0
LINE
  8
ボルト／ビス
  6
CONTINUOUS
 10
68.152542
 20
-23.675997
 11
64.152542
 21
-23.675997
  0
LINE
  8
ボルト／ビス
  6
CONTINUOUS
 10
64.152542
 20
-23.675997
 11
64.152542
 21
-24.342665
  0
LINE
  8
ボルト／ビス
  6
CONTINUOUS
 62
    64
 10
66.91921
 20
-25.342665
 11
66.91921
 21
-32.00933
  0
LINE
  8
ボルト／ビス
  6
CONTINUOUS
 62
    64
 10
65.385875
 20
-25.342665
 11
65.385875
 21
-32.00933
  0
LINE
  8
ボルト／ビス
  6
CONTINUOUS
 62
    64
 10
66.91921
 20
-32.00933
 11
65.385875
 21
-32.00933
  0
LINE
  8
ボルト／ビス
  6
CONTINUOUS
 62
    64
 10
65.152542
 20
-31.675997
 11
65.385875
 21
-32.00933
  0
LINE
  8
ボルト／ビス
  6
CONTINUOUS
 62
    64
 10
67.152542
 20
-31.675997
 11
66.91921
 21
-32.00933
  0
LINE
  8
ボルト／ビス
  6
CONTINUOUS
 62
    64
 10
67.152542
 20
-31.675997
 11
65.152542
 21
-31.675997
  0
LINE
  8
ボルト／ビス
  6
CONTINUOUS
 62
    64
 10
66.91921
 20
-32.00933
 11
65.385875
 21
-32.00933
  0
LINE
  8
ボルト／ビス
  6
CONTINUOUS
 62
    64
 10
65.152542
 20
-25.342665
 11
65.152542
 21
-31.675997
  0
LINE
  8
ボルト／ビス
  6
CONTINUOUS
 62
    64
 10
67.152542
 20
-25.342665
 11
67.152542
 21
-31.675997
  0
ENDBLK
  0
BLOCK
  2
*GRP_0041
 70
    65
 10
0.0
 20
0.0
  0
INSERT
  2
*GRP_0087
  8
補助線
  6
DOT
 62
    64
 10
0.0
 20
0.0
  0
CIRCLE
  8
ボルト／ビス
  6
DOT
 62
    64
 10
-12.83223
 20
-35.67601
 40
1.166668
  0
LINE
  8
ボルト／ビス
  6
DOT
 62
    64
 10
-12.645562
 20
-35.302678
 11
-12.645562
 21
-35.036892
  0
LINE
  8
ボルト／ビス
  6
DOT
 62
    64
 10
-12.458897
 20
-35.489343
 11
-12.19313
 21
-35.489343
  0
ARC
  8
ボルト／ビス
  6
DOT
 62
    64
 10
-12.458897
 20
-35.302671
 40
0.186667
 50
180.0
 51
270.0
  0
LINE
  8
ボルト／ビス
  6
DOT
 62
    64
 10
-12.19313
 20
-35.489343
 11
-12.19313
 21
-35.67601
  0
LINE
  8
ボルト／ビス
  6
DOT
 62
    64
 10
-12.645562
 20
-35.036892
 11
-12.83223
 21
-35.036892
  0
LINE
  8
ボルト／ビス
  6
DOT
 62
    64
 10
-12.645562
 20
-36.049342
 11
-12.645562
 21
-36.31511
  0
LINE
  8
ボルト／ビス
  6
DOT
 62
    64
 10
-12.458897
 20
-35.862677
 11
-12.19313
 21
-35.862677
  0
ARC
  8
ボルト／ビス
  6
DOT
 62
    64
 10
-12.458897
 20
-36.049337
 40
0.186667
 50
90.0
 51
180.0
  0
LINE
  8
ボルト／ビス
  6
DOT
 62
    64
 10
-12.19313
 20
-35.862677
 11
-12.19313
 21
-35.67601
  0
LINE
  8
ボルト／ビス
  6
DOT
 62
    64
 10
-12.645562
 20
-36.31511
 11
-12.83223
 21
-36.31511
  0
LINE
  8
ボルト／ビス
  6
DOT
 62
    64
 10
-13.018898
 20
-36.049342
 11
-13.018898
 21
-36.31511
  0
LINE
  8
ボルト／ビス
  6
DOT
 62
    64
 10
-13.205562
 20
-35.862677
 11
-13.47133
 21
-35.862677
  0
ARC
  8
ボルト／ビス
  6
DOT
 62
    64
 10
-13.205564
 20
-36.049337
 40
0.186667
 50
0.0
 51
90.0
  0
LINE
  8
ボルト／ビス
  6
DOT
 62
    64
 10
-13.47133
 20
-35.862677
 11
-13.47133
 21
-35.67601
  0
LINE
  8
ボルト／ビス
  6
DOT
 62
    64
 10
-13.018898
 20
-36.31511
 11
-12.83223
 21
-36.31511
  0
LINE
  8
ボルト／ビス
  6
DOT
 62
    64
 10
-13.018898
 20
-35.302678
 11
-13.018898
 21
-35.036892
  0
LINE
  8
ボルト／ビス
  6
DOT
 62
    64
 10
-13.205562
 20
-35.489343
 11
-13.47133
 21
-35.489343
  0
ARC
  8
ボルト／ビス
  6
DOT
 62
    64
 10
-13.205564
 20
-35.302671
 40
0.186667
 50
270.0
 51
360.0
  0
LINE
  8
ボルト／ビス
  6
DOT
 62
    64
 10
-13.47133
 20
-35.489343
 11
-13.47133
 21
-35.67601
  0
LINE
  8
ボルト／ビス
  6
DOT
 62
    64
 10
-13.018898
 20
-35.036892
 11
-12.83223
 21
-35.036892
  0
ENDBLK
  0
BLOCK
  2
*GRP_0042
 70
    65
 10
0.0
 20
0.0
  0
INSERT
  2
*GRP_0088
  8
補助線
  6
DOT
 62
    64
 10
0.0
 20
0.0
  0
CIRCLE
  8
ボルト／ビス
  6
DOT
 62
    64
 10
3.96777
 20
-35.67601
 40
1.166668
  0
LINE
  8
ボルト／ビス
  6
DOT
 62
    64
 10
3.781103
 20
-35.302678
 11
3.781103
 21
-35.036892
  0
LINE
  8
ボルト／ビス
  6
DOT
 62
    64
 10
3.594437
 20
-35.489343
 11
3.32867
 21
-35.489343
  0
ARC
  8
ボルト／ビス
  6
DOT
 62
    64
 10
3.594439
 20
-35.302671
 40
0.186667
 50
270.0
 51
360.0
  0
LINE
  8
ボルト／ビス
  6
DOT
 62
    64
 10
3.32867
 20
-35.489343
 11
3.32867
 21
-35.67601
  0
LINE
  8
ボルト／ビス
  6
DOT
 62
    64
 10
3.781103
 20
-35.036892
 11
3.96777
 21
-35.036892
  0
LINE
  8
ボルト／ビス
  6
DOT
 62
    64
 10
3.781103
 20
-36.049342
 11
3.781103
 21
-36.31511
  0
LINE
  8
ボルト／ビス
  6
DOT
 62
    64
 10
3.594437
 20
-35.862677
 11
3.32867
 21
-35.862677
  0
ARC
  8
ボルト／ビス
  6
DOT
 62
    64
 10
3.594439
 20
-36.049337
 40
0.186667
 50
0.0
 51
90.0
  0
LINE
  8
ボルト／ビス
  6
DOT
 62
    64
 10
3.32867
 20
-35.862677
 11
3.32867
 21
-35.67601
  0
LINE
  8
ボルト／ビス
  6
DOT
 62
    64
 10
3.781103
 20
-36.31511
 11
3.96777
 21
-36.31511
  0
LINE
  8
ボルト／ビス
  6
DOT
 62
    64
 10
4.154437
 20
-36.049342
 11
4.154437
 21
-36.31511
  0
LINE
  8
ボルト／ビス
  6
DOT
 62
    64
 10
4.341102
 20
-35.862677
 11
4.60687
 21
-35.862677
  0
ARC
  8
ボルト／ビス
  6
DOT
 62
    64
 10
4.341106
 20
-36.049337
 40
0.186667
 50
90.0
 51
180.0
  0
LINE
  8
ボルト／ビス
  6
DOT
 62
    64
 10
4.60687
 20
-35.862677
 11
4.60687
 21
-35.67601
  0
LINE
  8
ボルト／ビス
  6
DOT
 62
    64
 10
4.154437
 20
-36.31511
 11
3.96777
 21
-36.31511
  0
LINE
  8
ボルト／ビス
  6
DOT
 62
    64
 10
4.154437
 20
-35.302678
 11
4.154437
 21
-35.036892
  0
LINE
  8
ボルト／ビス
  6
DOT
 62
    64
 10
4.341102
 20
-35.489343
 11
4.60687
 21
-35.489343
  0
ARC
  8
ボルト／ビス
  6
DOT
 62
    64
 10
4.341106
 20
-35.302671
 40
0.186667
 50
180.0
 51
270.0
  0
LINE
  8
ボルト／ビス
  6
DOT
 62
    64
 10
4.60687
 20
-35.489343
 11
4.60687
 21
-35.67601
  0
LINE
  8
ボルト／ビス
  6
DOT
 62
    64
 10
4.154437
 20
-35.036892
 11
3.96777
 21
-35.036892
  0
ENDBLK
  0
BLOCK
  2
*GRP_0043
 70
    65
 10
0.0
 20
0.0
  0
INSERT
  2
*GRP_0089
  8
補助線
  6
CONTINUOUS
 62
    64
 10
0.0
 20
0.0
  0
CIRCLE
  8
ボルト／ビス
  6
CONTINUOUS
 62
    64
 10
3.967772
 20
-35.67601
 40
1.166668
  0
LINE
  8
ボルト／ビス
  6
CONTINUOUS
 62
    64
 10
3.781105
 20
-35.302678
 11
3.781105
 21
-35.036905
  0
LINE
  8
ボルト／ビス
  6
CONTINUOUS
 62
    64
 10
3.59444
 20
-35.489343
 11
3.328667
 21
-35.489343
  0
ARC
  8
ボルト／ビス
  6
CONTINUOUS
 62
    64
 10
3.594441
 20
-35.302677
 40
0.186667
 50
270.0
 51
360.0
  0
LINE
  8
ボルト／ビス
  6
CONTINUOUS
 62
    64
 10
3.328667
 20
-35.489343
 11
3.328667
 21
-35.67601
  0
LINE
  8
ボルト／ビス
  6
CONTINUOUS
 62
    64
 10
3.781105
 20
-35.036905
 11
3.967772
 21
-35.036905
  0
LINE
  8
ボルト／ビス
  6
CONTINUOUS
 62
    64
 10
3.781105
 20
-36.049342
 11
3.781105
 21
-36.315115
  0
LINE
  8
ボルト／ビス
  6
CONTINUOUS
 62
    64
 10
3.59444
 20
-35.862677
 11
3.328667
 21
-35.862677
  0
ARC
  8
ボルト／ビス
  6
CONTINUOUS
 62
    64
 10
3.594441
 20
-36.049344
 40
0.186667
 50
0.0
 51
90.0
  0
LINE
  8
ボルト／ビス
  6
CONTINUOUS
 62
    64
 10
3.328667
 20
-35.862677
 11
3.328667
 21
-35.67601
  0
LINE
  8
ボルト／ビス
  6
CONTINUOUS
 62
    64
 10
3.781105
 20
-36.315115
 11
3.967772
 21
-36.315115
  0
LINE
  8
ボルト／ビス
  6
CONTINUOUS
 62
    64
 10
4.15444
 20
-36.049342
 11
4.15444
 21
-36.315115
  0
LINE
  8
ボルト／ビス
  6
CONTINUOUS
 62
    64
 10
4.341105
 20
-35.862677
 11
4.606877
 21
-35.862677
  0
ARC
  8
ボルト／ビス
  6
CONTINUOUS
 62
    64
 10
4.341108
 20
-36.049344
 40
0.186667
 50
90.0
 51
180.0
  0
LINE
  8
ボルト／ビス
  6
CONTINUOUS
 62
    64
 10
4.606877
 20
-35.862677
 11
4.606877
 21
-35.67601
  0
LINE
  8
ボルト／ビス
  6
CONTINUOUS
 62
    64
 10
4.15444
 20
-36.315115
 11
3.967772
 21
-36.315115
  0
LINE
  8
ボルト／ビス
  6
CONTINUOUS
 62
    64
 10
4.15444
 20
-35.302678
 11
4.15444
 21
-35.036905
  0
LINE
  8
ボルト／ビス
  6
CONTINUOUS
 62
    64
 10
4.341105
 20
-35.489343
 11
4.606877
 21
-35.489343
  0
ARC
  8
ボルト／ビス
  6
CONTINUOUS
 62
    64
 10
4.341108
 20
-35.302677
 40
0.186667
 50
180.0
 51
270.0
  0
LINE
  8
ボルト／ビス
  6
CONTINUOUS
 62
    64
 10
4.606877
 20
-35.489343
 11
4.606877
 21
-35.67601
  0
LINE
  8
ボルト／ビス
  6
CONTINUOUS
 62
    64
 10
4.15444
 20
-35.036905
 11
3.967772
 21
-35.036905
  0
ENDBLK
  0
BLOCK
  2
*GRP_0044
 70
    65
 10
0.0
 20
0.0
  0
INSERT
  2
*GRP_0090
  8
補助線
  6
CONTINUOUS
 62
    64
 10
0.0
 20
0.0
  0
CIRCLE
  8
ボルト／ビス
  6
CONTINUOUS
 62
    64
 10
-12.832233
 20
-35.67601
 40
1.166668
  0
LINE
  8
ボルト／ビス
  6
CONTINUOUS
 62
    64
 10
-13.0189
 20
-35.302678
 11
-13.0189
 21
-35.036905
  0
LINE
  8
ボルト／ビス
  6
CONTINUOUS
 62
    64
 10
-13.205565
 20
-35.489343
 11
-13.471338
 21
-35.489343
  0
ARC
  8
ボルト／ビス
  6
CONTINUOUS
 62
    64
 10
-13.205564
 20
-35.302677
 40
0.186667
 50
270.0
 51
360.0
  0
LINE
  8
ボルト／ビス
  6
CONTINUOUS
 62
    64
 10
-13.471338
 20
-35.489343
 11
-13.471338
 21
-35.67601
  0
LINE
  8
ボルト／ビス
  6
CONTINUOUS
 62
    64
 10
-13.0189
 20
-35.036905
 11
-12.832233
 21
-35.036905
  0
LINE
  8
ボルト／ビス
  6
CONTINUOUS
 62
    64
 10
-13.0189
 20
-36.049342
 11
-13.0189
 21
-36.315115
  0
LINE
  8
ボルト／ビス
  6
CONTINUOUS
 62
    64
 10
-13.205565
 20
-35.862677
 11
-13.471338
 21
-35.862677
  0
ARC
  8
ボルト／ビス
  6
CONTINUOUS
 62
    64
 10
-13.205564
 20
-36.049344
 40
0.186667
 50
0.0
 51
90.0
  0
LINE
  8
ボルト／ビス
  6
CONTINUOUS
 62
    64
 10
-13.471338
 20
-35.862677
 11
-13.471338
 21
-35.67601
  0
LINE
  8
ボルト／ビス
  6
CONTINUOUS
 62
    64
 10
-13.0189
 20
-36.315115
 11
-12.832233
 21
-36.315115
  0
LINE
  8
ボルト／ビス
  6
CONTINUOUS
 62
    64
 10
-12.645565
 20
-36.049342
 11
-12.645565
 21
-36.315115
  0
LINE
  8
ボルト／ビス
  6
CONTINUOUS
 62
    64
 10
-12.4589
 20
-35.862677
 11
-12.193127
 21
-35.862677
  0
ARC
  8
ボルト／ビス
  6
CONTINUOUS
 62
    64
 10
-12.458897
 20
-36.049344
 40
0.186667
 50
90.0
 51
180.0
  0
LINE
  8
ボルト／ビス
  6
CONTINUOUS
 62
    64
 10
-12.193127
 20
-35.862677
 11
-12.193127
 21
-35.67601
  0
LINE
  8
ボルト／ビス
  6
CONTINUOUS
 62
    64
 10
-12.645565
 20
-36.315115
 11
-12.832233
 21
-36.315115
  0
LINE
  8
ボルト／ビス
  6
CONTINUOUS
 62
    64
 10
-12.645565
 20
-35.302678
 11
-12.645565
 21
-35.036905
  0
LINE
  8
ボルト／ビス
  6
CONTINUOUS
 62
    64
 10
-12.4589
 20
-35.489343
 11
-12.193127
 21
-35.489343
  0
ARC
  8
ボルト／ビス
  6
CONTINUOUS
 62
    64
 10
-12.458897
 20
-35.302677
 40
0.186667
 50
180.0
 51
270.0
  0
LINE
  8
ボルト／ビス
  6
CONTINUOUS
 62
    64
 10
-12.193127
 20
-35.489343
 11
-12.193127
 21
-35.67601
  0
LINE
  8
ボルト／ビス
  6
CONTINUOUS
 62
    64
 10
-12.645565
 20
-35.036905
 11
-12.832233
 21
-35.036905
  0
ENDBLK
  0
BLOCK
  2
*GRP_0045
 70
    65
 10
0.0
 20
0.0
  0
INSERT
  2
*GRP_0091
  8
補助線
  6
CONTINUOUS
 62
    64
 10
0.0
 20
0.0
  0
CIRCLE
  8
ボルト／ビス
  6
CONTINUOUS
 62
    64
 10
-18.43223
 20
-35.67601
 40
1.166668
  0
LINE
  8
ボルト／ビス
  6
CONTINUOUS
 62
    64
 10
-18.245562
 20
-35.302678
 11
-18.245562
 21
-35.036905
  0
LINE
  8
ボルト／ビス
  6
CONTINUOUS
 62
    64
 10
-18.058897
 20
-35.489343
 11
-17.793125
 21
-35.489343
  0
ARC
  8
ボルト／ビス
  6
CONTINUOUS
 62
    64
 10
-18.058898
 20
-35.302675
 40
0.186667
 50
180.0
 51
270.0
  0
LINE
  8
ボルト／ビス
  6
CONTINUOUS
 62
    64
 10
-17.793125
 20
-35.489343
 11
-17.793125
 21
-35.67601
  0
LINE
  8
ボルト／ビス
  6
CONTINUOUS
 62
    64
 10
-18.245562
 20
-35.036905
 11
-18.43223
 21
-35.036905
  0
LINE
  8
ボルト／ビス
  6
CONTINUOUS
 62
    64
 10
-18.245562
 20
-36.049342
 11
-18.245562
 21
-36.315115
  0
LINE
  8
ボルト／ビス
  6
CONTINUOUS
 62
    64
 10
-18.058897
 20
-35.862677
 11
-17.793125
 21
-35.862677
  0
ARC
  8
ボルト／ビス
  6
CONTINUOUS
 62
    64
 10
-18.058898
 20
-36.049341
 40
0.186667
 50
90.0
 51
180.0
  0
LINE
  8
ボルト／ビス
  6
CONTINUOUS
 62
    64
 10
-17.793125
 20
-35.862677
 11
-17.793125
 21
-35.67601
  0
LINE
  8
ボルト／ビス
  6
CONTINUOUS
 62
    64
 10
-18.245562
 20
-36.315115
 11
-18.43223
 21
-36.315115
  0
LINE
  8
ボルト／ビス
  6
CONTINUOUS
 62
    64
 10
-18.618898
 20
-36.049342
 11
-18.618898
 21
-36.315115
  0
LINE
  8
ボルト／ビス
  6
CONTINUOUS
 62
    64
 10
-18.805562
 20
-35.862677
 11
-19.071335
 21
-35.862677
  0
ARC
  8
ボルト／ビス
  6
CONTINUOUS
 62
    64
 10
-18.805565
 20
-36.049341
 40
0.186667
 50
0.0
 51
90.0
  0
LINE
  8
ボルト／ビス
  6
CONTINUOUS
 62
    64
 10
-19.071335
 20
-35.862677
 11
-19.071335
 21
-35.67601
  0
LINE
  8
ボルト／ビス
  6
CONTINUOUS
 62
    64
 10
-18.618898
 20
-36.315115
 11
-18.43223
 21
-36.315115
  0
LINE
  8
ボルト／ビス
  6
CONTINUOUS
 62
    64
 10
-18.618898
 20
-35.302678
 11
-18.618898
 21
-35.036905
  0
LINE
  8
ボルト／ビス
  6
CONTINUOUS
 62
    64
 10
-18.805562
 20
-35.489343
 11
-19.071335
 21
-35.489343
  0
ARC
  8
ボルト／ビス
  6
CONTINUOUS
 62
    64
 10
-18.805565
 20
-35.302675
 40
0.186667
 50
270.0
 51
360.0
  0
LINE
  8
ボルト／ビス
  6
CONTINUOUS
 62
    64
 10
-19.071335
 20
-35.489343
 11
-19.071335
 21
-35.67601
  0
LINE
  8
ボルト／ビス
  6
CONTINUOUS
 62
    64
 10
-18.618898
 20
-35.036905
 11
-18.43223
 21
-35.036905
  0
ENDBLK
  0
BLOCK
  2
*GRP_0046
 70
    65
 10
0.0
 20
0.0
  0
INSERT
  2
*GRP_0092
  8
補助線
  6
CONTINUOUS
 62
    64
 10
0.0
 20
0.0
  0
CIRCLE
  8
ボルト／ビス
  6
CONTINUOUS
 62
    64
 10
9.56777
 20
-35.67601
 40
1.166668
  0
LINE
  8
ボルト／ビス
  6
CONTINUOUS
 62
    64
 10
9.381103
 20
-35.302678
 11
9.381103
 21
-35.036905
  0
LINE
  8
ボルト／ビス
  6
CONTINUOUS
 62
    64
 10
9.194437
 20
-35.489343
 11
8.928665
 21
-35.489343
  0
ARC
  8
ボルト／ビス
  6
CONTINUOUS
 62
    64
 10
9.194435
 20
-35.302675
 40
0.186667
 50
270.0
 51
360.0
  0
LINE
  8
ボルト／ビス
  6
CONTINUOUS
 62
    64
 10
8.928665
 20
-35.489343
 11
8.928665
 21
-35.67601
  0
LINE
  8
ボルト／ビス
  6
CONTINUOUS
 62
    64
 10
9.381103
 20
-35.036905
 11
9.56777
 21
-35.036905
  0
LINE
  8
ボルト／ビス
  6
CONTINUOUS
 62
    64
 10
9.381103
 20
-36.049342
 11
9.381103
 21
-36.315115
  0
LINE
  8
ボルト／ビス
  6
CONTINUOUS
 62
    64
 10
9.194437
 20
-35.862677
 11
8.928665
 21
-35.862677
  0
ARC
  8
ボルト／ビス
  6
CONTINUOUS
 62
    64
 10
9.194435
 20
-36.049341
 40
0.186667
 50
0.0
 51
90.0
  0
LINE
  8
ボルト／ビス
  6
CONTINUOUS
 62
    64
 10
8.928665
 20
-35.862677
 11
8.928665
 21
-35.67601
  0
LINE
  8
ボルト／ビス
  6
CONTINUOUS
 62
    64
 10
9.381103
 20
-36.315115
 11
9.56777
 21
-36.315115
  0
LINE
  8
ボルト／ビス
  6
CONTINUOUS
 62
    64
 10
9.754437
 20
-36.049342
 11
9.754437
 21
-36.315115
  0
LINE
  8
ボルト／ビス
  6
CONTINUOUS
 62
    64
 10
9.941102
 20
-35.862677
 11
10.206875
 21
-35.862677
  0
ARC
  8
ボルト／ビス
  6
CONTINUOUS
 62
    64
 10
9.941102
 20
-36.049341
 40
0.186667
 50
90.0
 51
180.0
  0
LINE
  8
ボルト／ビス
  6
CONTINUOUS
 62
    64
 10
10.206875
 20
-35.862677
 11
10.206875
 21
-35.67601
  0
LINE
  8
ボルト／ビス
  6
CONTINUOUS
 62
    64
 10
9.754437
 20
-36.315115
 11
9.56777
 21
-36.315115
  0
LINE
  8
ボルト／ビス
  6
CONTINUOUS
 62
    64
 10
9.754437
 20
-35.302678
 11
9.754437
 21
-35.036905
  0
LINE
  8
ボルト／ビス
  6
CONTINUOUS
 62
    64
 10
9.941102
 20
-35.489343
 11
10.206875
 21
-35.489343
  0
ARC
  8
ボルト／ビス
  6
CONTINUOUS
 62
    64
 10
9.941102
 20
-35.302675
 40
0.186667
 50
180.0
 51
270.0
  0
LINE
  8
ボルト／ビス
  6
CONTINUOUS
 62
    64
 10
10.206875
 20
-35.489343
 11
10.206875
 21
-35.67601
  0
LINE
  8
ボルト／ビス
  6
CONTINUOUS
 62
    64
 10
9.754437
 20
-35.036905
 11
9.56777
 21
-35.036905
  0
ENDBLK
  0
BLOCK
  2
*GRP_0047
 70
    65
 10
0.0
 20
0.0
  0
INSERT
  2
*GRP_0093
  8
補助線
  6
CONTINUOUS
 62
    64
 10
0.0
 20
0.0
  0
CIRCLE
  8
ボルト／ビス
  6
CONTINUOUS
 62
    64
 10
-12.832233
 20
-35.67601
 40
1.166668
  0
LINE
  8
ボルト／ビス
  6
CONTINUOUS
 62
    64
 10
-12.645565
 20
-35.302678
 11
-12.645565
 21
-35.036905
  0
LINE
  8
ボルト／ビス
  6
CONTINUOUS
 62
    64
 10
-12.4589
 20
-35.489343
 11
-12.193127
 21
-35.489343
  0
ARC
  8
ボルト／ビス
  6
CONTINUOUS
 62
    64
 10
-12.458901
 20
-35.302675
 40
0.186667
 50
180.0
 51
270.0
  0
LINE
  8
ボルト／ビス
  6
CONTINUOUS
 62
    64
 10
-12.193127
 20
-35.489343
 11
-12.193127
 21
-35.67601
  0
LINE
  8
ボルト／ビス
  6
CONTINUOUS
 62
    64
 10
-12.645565
 20
-35.036905
 11
-12.832233
 21
-35.036905
  0
LINE
  8
ボルト／ビス
  6
CONTINUOUS
 62
    64
 10
-12.645565
 20
-36.049342
 11
-12.645565
 21
-36.315115
  0
LINE
  8
ボルト／ビス
  6
CONTINUOUS
 62
    64
 10
-12.4589
 20
-35.862677
 11
-12.193127
 21
-35.862677
  0
ARC
  8
ボルト／ビス
  6
CONTINUOUS
 62
    64
 10
-12.458901
 20
-36.049341
 40
0.186667
 50
90.0
 51
180.0
  0
LINE
  8
ボルト／ビス
  6
CONTINUOUS
 62
    64
 10
-12.193127
 20
-35.862677
 11
-12.193127
 21
-35.67601
  0
LINE
  8
ボルト／ビス
  6
CONTINUOUS
 62
    64
 10
-12.645565
 20
-36.315115
 11
-12.832233
 21
-36.315115
  0
LINE
  8
ボルト／ビス
  6
CONTINUOUS
 62
    64
 10
-13.0189
 20
-36.049342
 11
-13.0189
 21
-36.315115
  0
LINE
  8
ボルト／ビス
  6
CONTINUOUS
 62
    64
 10
-13.205565
 20
-35.862677
 11
-13.471338
 21
-35.862677
  0
ARC
  8
ボルト／ビス
  6
CONTINUOUS
 62
    64
 10
-13.205568
 20
-36.049341
 40
0.186667
 50
0.0
 51
90.0
  0
LINE
  8
ボルト／ビス
  6
CONTINUOUS
 62
    64
 10
-13.471338
 20
-35.862677
 11
-13.471338
 21
-35.67601
  0
LINE
  8
ボルト／ビス
  6
CONTINUOUS
 62
    64
 10
-13.0189
 20
-36.315115
 11
-12.832233
 21
-36.315115
  0
LINE
  8
ボルト／ビス
  6
CONTINUOUS
 62
    64
 10
-13.0189
 20
-35.302678
 11
-13.0189
 21
-35.036905
  0
LINE
  8
ボルト／ビス
  6
CONTINUOUS
 62
    64
 10
-13.205565
 20
-35.489343
 11
-13.471338
 21
-35.489343
  0
ARC
  8
ボルト／ビス
  6
CONTINUOUS
 62
    64
 10
-13.205568
 20
-35.302675
 40
0.186667
 50
270.0
 51
360.0
  0
LINE
  8
ボルト／ビス
  6
CONTINUOUS
 62
    64
 10
-13.471338
 20
-35.489343
 11
-13.471338
 21
-35.67601
  0
LINE
  8
ボルト／ビス
  6
CONTINUOUS
 62
    64
 10
-13.0189
 20
-35.036905
 11
-12.832233
 21
-35.036905
  0
ENDBLK
  0
BLOCK
  2
*GRP_0048
 70
    65
 10
0.0
 20
0.0
  0
INSERT
  2
*GRP_0094
  8
補助線
  6
CONTINUOUS
 62
    64
 10
0.0
 20
0.0
  0
CIRCLE
  8
ボルト／ビス
  6
CONTINUOUS
 62
    64
 10
3.967772
 20
-35.67601
 40
1.166668
  0
LINE
  8
ボルト／ビス
  6
CONTINUOUS
 62
    64
 10
4.15444
 20
-35.302678
 11
4.15444
 21
-35.036905
  0
LINE
  8
ボルト／ビス
  6
CONTINUOUS
 62
    64
 10
4.341105
 20
-35.489343
 11
4.606877
 21
-35.489343
  0
ARC
  8
ボルト／ビス
  6
CONTINUOUS
 62
    64
 10
4.341104
 20
-35.302675
 40
0.186667
 50
180.0
 51
270.0
  0
LINE
  8
ボルト／ビス
  6
CONTINUOUS
 62
    64
 10
4.606877
 20
-35.489343
 11
4.606877
 21
-35.67601
  0
LINE
  8
ボルト／ビス
  6
CONTINUOUS
 62
    64
 10
4.15444
 20
-35.036905
 11
3.967772
 21
-35.036905
  0
LINE
  8
ボルト／ビス
  6
CONTINUOUS
 62
    64
 10
4.15444
 20
-36.049342
 11
4.15444
 21
-36.315115
  0
LINE
  8
ボルト／ビス
  6
CONTINUOUS
 62
    64
 10
4.341105
 20
-35.862677
 11
4.606877
 21
-35.862677
  0
ARC
  8
ボルト／ビス
  6
CONTINUOUS
 62
    64
 10
4.341104
 20
-36.049341
 40
0.186667
 50
90.0
 51
180.0
  0
LINE
  8
ボルト／ビス
  6
CONTINUOUS
 62
    64
 10
4.606877
 20
-35.862677
 11
4.606877
 21
-35.67601
  0
LINE
  8
ボルト／ビス
  6
CONTINUOUS
 62
    64
 10
4.15444
 20
-36.315115
 11
3.967772
 21
-36.315115
  0
LINE
  8
ボルト／ビス
  6
CONTINUOUS
 62
    64
 10
3.781105
 20
-36.049342
 11
3.781105
 21
-36.315115
  0
LINE
  8
ボルト／ビス
  6
CONTINUOUS
 62
    64
 10
3.59444
 20
-35.862677
 11
3.328667
 21
-35.862677
  0
ARC
  8
ボルト／ビス
  6
CONTINUOUS
 62
    64
 10
3.594437
 20
-36.049341
 40
0.186667
 50
0.0
 51
90.0
  0
LINE
  8
ボルト／ビス
  6
CONTINUOUS
 62
    64
 10
3.328667
 20
-35.862677
 11
3.328667
 21
-35.67601
  0
LINE
  8
ボルト／ビス
  6
CONTINUOUS
 62
    64
 10
3.781105
 20
-36.315115
 11
3.967772
 21
-36.315115
  0
LINE
  8
ボルト／ビス
  6
CONTINUOUS
 62
    64
 10
3.781105
 20
-35.302678
 11
3.781105
 21
-35.036905
  0
LINE
  8
ボルト／ビス
  6
CONTINUOUS
 62
    64
 10
3.59444
 20
-35.489343
 11
3.328667
 21
-35.489343
  0
ARC
  8
ボルト／ビス
  6
CONTINUOUS
 62
    64
 10
3.594437
 20
-35.302675
 40
0.186667
 50
270.0
 51
360.0
  0
LINE
  8
ボルト／ビス
  6
CONTINUOUS
 62
    64
 10
3.328667
 20
-35.489343
 11
3.328667
 21
-35.67601
  0
LINE
  8
ボルト／ビス
  6
CONTINUOUS
 62
    64
 10
3.781105
 20
-35.036905
 11
3.967772
 21
-35.036905
  0
ENDBLK
  0
BLOCK
  2
*DIM_0049
 70
    65
 10
0.0
 20
0.0
  0
LINE
  8
寸法
  6
BYBLOCK
 62
     0
 10
59.486855
 20
4.789038
 11
59.486855
 21
72.240558
  0
LINE
  8
寸法
  6
BYBLOCK
 62
     0
 10
-68.350335
 20
72.240558
 11
59.486855
 21
72.240558
  0
POINT
  8
寸法
 62
     0
 10
59.486855
 20
72.240558
  0
TEXT
  7
TextStyle03
  8
寸法
  6
CONTINUOUS
 62
     0
 10
-19.95
 20
72.625
  1
ドーム呼称寸法
 40
4.0
 72
     5
 11
11.05
 21
72.625
  0
ENDBLK
  0
BLOCK
  2
*DIM_0050
 70
    65
 10
0.0
 20
0.0
  0
LINE
  8
寸法
  6
BYBLOCK
 62
     0
 10
-68.350335
 20
4.789038
 11
-68.350335
 21
72.240558
  0
LINE
  8
寸法
  6
BYBLOCK
 62
     0
 10
-98.350782
 20
-48.009353
 11
-98.350782
 21
72.240558
  0
LINE
  8
寸法
  6
BYBLOCK
 62
     0
 10
-68.350335
 20
72.240558
 11
-98.350782
 21
72.240558
  0
POINT
  8
寸法
 62
     0
 10
-68.350335
 20
72.240558
  0
POINT
  8
寸法
 62
     0
 10
-98.350782
 20
72.240558
  0
TEXT
  7
TextStyle03
  8
寸法
  6
CONTINUOUS
 62
     0
 10
-85.5
 20
72.625
  1
90
 40
4.0
 72
     5
 11
-81.25
 21
72.625
  0
ENDBLK
  0
BLOCK
  2
*DIM_0051
 70
    65
 10
0.0
 20
0.0
  0
LINE
  8
寸法
  6
BYBLOCK
 62
     0
 10
-85.017
 20
57.079248
 11
-98.350782
 21
57.079248
  0
POINT
  8
寸法
 62
     0
 10
-85.017
 20
57.079248
  0
POINT
  8
寸法
 62
     0
 10
-98.350782
 20
57.079248
  0
TEXT
  7
TextStyle03
  8
寸法
  6
CONTINUOUS
 62
     0
 10
-93.825
 20
57.45
  1
40
 40
4.0
 72
     5
 11
-89.575
 21
57.45
  0
ENDBLK
  0
BLOCK
  2
*DIM_0052
 70
    65
 10
0.0
 20
0.0
  0
LINE
  8
寸法
  6
BYBLOCK
 62
     0
 10
89.486322
 20
-48.009353
 11
89.486322
 21
72.240558
  0
LINE
  8
寸法
  6
BYBLOCK
 62
     0
 10
59.486855
 20
72.240558
 11
89.486322
 21
72.240558
  0
POINT
  8
寸法
 62
     0
 10
59.486855
 20
72.240558
  0
POINT
  8
寸法
 62
     0
 10
89.486322
 20
72.240558
  0
TEXT
  7
TextStyle03
  8
寸法
  6
CONTINUOUS
 62
     0
 10
72.35
 20
72.625
  1
90
 40
4.0
 72
     5
 11
76.6
 21
72.625
  0
ENDBLK
  0
BLOCK
  2
*DIM_0053
 70
    65
 10
0.0
 20
0.0
  0
LINE
  8
寸法
  6
BYBLOCK
 62
     0
 10
76.15352
 20
57.079248
 11
89.486322
 21
57.079248
  0
POINT
  8
寸法
 62
     0
 10
76.15352
 20
57.079248
  0
POINT
  8
寸法
 62
     0
 10
89.486322
 20
57.079248
  0
TEXT
  7
TextStyle03
  8
寸法
  6
CONTINUOUS
 62
     0
 10
80.675
 20
57.45
  1
40
 40
4.0
 72
     5
 11
84.925
 21
57.45
  0
ENDBLK
  0
BLOCK
  2
*DIM_0054
 70
    65
 10
0.0
 20
0.0
  0
LINE
  8
寸法
  6
BYBLOCK
 62
     0
 10
-98.350782
 20
64.307933
 11
-98.350782
 21
64.909073
  0
LINE
  8
寸法
  6
BYBLOCK
 62
     0
 10
-58.350845
 20
-39.676015
 11
-58.350845
 21
64.909073
  0
LINE
  8
寸法
  6
BYBLOCK
 62
     0
 10
-98.350782
 20
64.909073
 11
-58.350845
 21
64.909073
  0
POINT
  8
寸法
 62
     0
 10
-98.350782
 20
64.909073
  0
POINT
  8
寸法
 62
     0
 10
-58.350845
 20
64.909073
  0
TEXT
  7
TextStyle03
  8
寸法
  6
CONTINUOUS
 62
     0
 10
-81.625
 20
65.3
  1
120
 40
4.0
 72
     5
 11
-75.125
 21
65.3
  0
ENDBLK
  0
BLOCK
  2
*DIM_0055
 70
    65
 10
0.0
 20
0.0
  0
LINE
  8
寸法
  6
BYBLOCK
 62
     0
 10
49.486385
 20
-39.676015
 11
49.486385
 21
64.909073
  0
LINE
  8
寸法
  6
BYBLOCK
 62
     0
 10
-58.350845
 20
64.909073
 11
49.486385
 21
64.909073
  0
POINT
  8
寸法
 62
     0
 10
49.486385
 20
64.909073
  0
TEXT
  7
TextStyle03
  8
寸法
  6
CONTINUOUS
 62
     0
 10
-13.2
 20
65.3
  1
有効開口
 40
4.0
 72
     5
 11
4.3
 21
65.3
  0
ENDBLK
  0
BLOCK
  2
*DIM_0056
 70
    65
 10
0.0
 20
0.0
  0
LINE
  8
寸法
  6
BYBLOCK
 62
     0
 10
89.486322
 20
-39.676015
 11
89.486322
 21
64.909073
  0
LINE
  8
寸法
  6
BYBLOCK
 62
     0
 10
49.486385
 20
64.909073
 11
89.486322
 21
64.909073
  0
POINT
  8
寸法
 62
     0
 10
89.486322
 20
64.909073
  0
TEXT
  7
TextStyle03
  8
寸法
  6
CONTINUOUS
 62
     0
 10
66.225
 20
65.3
  1
120
 40
4.0
 72
     5
 11
72.725
 21
65.3
  0
ENDBLK
  0
BLOCK
  2
*DIM_0057
 70
    65
 10
0.0
 20
0.0
  0
LINE
  8
寸法
  6
BYBLOCK
 62
     0
 10
-68.350335
 20
57.079248
 11
-58.350845
 21
57.079248
  0
POINT
  8
寸法
 62
     0
 10
-68.350335
 20
57.079248
  0
POINT
  8
寸法
 62
     0
 10
-58.350845
 20
57.079248
  0
TEXT
  7
TextStyle03
  8
寸法
  6
CONTINUOUS
 62
     0
 10
-65.5
 20
57.45
  1
30
 40
4.0
 72
     5
 11
-61.25
 21
57.45
  0
ENDBLK
  0
BLOCK
  2
*DIM_0058
 70
    65
 10
0.0
 20
0.0
  0
LINE
  8
寸法
  6
BYBLOCK
 62
     0
 10
59.485875
 20
57.079248
 11
49.486385
 21
57.079248
  0
POINT
  8
寸法
 62
     0
 10
59.485875
 20
57.079248
  0
POINT
  8
寸法
 62
     0
 10
49.486385
 20
57.079248
  0
TEXT
  7
TextStyle03
  8
寸法
  6
CONTINUOUS
 62
     0
 10
52.35
 20
57.45
  1
30
 40
4.0
 72
     5
 11
56.6
 21
57.45
  0
ENDBLK
  0
BLOCK
  2
*DIM_0059
 70
    65
 10
0.0
 20
0.0
  0
LINE
  8
寸法
  6
BYBLOCK
 62
     0
 10
90.486322
 20
-54.00933
 11
155.715907
 21
-54.00933
  0
LINE
  8
寸法
  6
BYBLOCK
 62
     0
 10
155.715907
 20
-49.009353
 11
155.715907
 21
-54.00933
  0
POINT
  8
寸法
 62
     0
 10
155.715907
 20
-54.00933
  0
TEXT
  7
TextStyle03
  8
寸法
  6
CONTINUOUS
 62
     0
 10
155.325
 20
-53.625
  1
15
 40
4.0
 50
90.0
 72
     5
 11
155.325
 21
-49.375
  0
ENDBLK
  0
BLOCK
  2
*DIM_0060
 70
    65
 10
0.0
 20
0.0
  0
LINE
  8
寸法
  6
BYBLOCK
 62
     0
 10
91.48633
 20
-59.00933
 11
155.715907
 21
-59.00933
  0
LINE
  8
寸法
  6
BYBLOCK
 62
     0
 10
155.715907
 20
-54.00933
 11
155.715907
 21
-59.00933
  0
POINT
  8
寸法
 62
     0
 10
155.715907
 20
-59.00933
  0
TEXT
  7
TextStyle03
  8
寸法
  6
CONTINUOUS
 62
     0
 10
155.325
 20
-58.625
  1
15
 40
4.0
 50
90.0
 72
     5
 11
155.325
 21
-54.375
  0
ENDBLK
  0
BLOCK
  2
*DIM_0061
 70
    65
 10
0.0
 20
0.0
  0
LINE
  8
寸法
  6
BYBLOCK
 62
     0
 10
92.48633
 20
-59.00933
 11
162.690165
 21
-59.00933
  0
LINE
  8
寸法
  6
BYBLOCK
 62
     0
 10
77.15254
 20
-25.342665
 11
162.690165
 21
-25.342665
  0
LINE
  8
寸法
  6
BYBLOCK
 62
     0
 10
162.690165
 20
-59.00933
 11
162.690165
 21
-25.342665
  0
POINT
  8
寸法
 62
     0
 10
162.690165
 20
-59.00933
  0
POINT
  8
寸法
 62
     0
 10
162.690165
 20
-25.342665
  0
TEXT
  7
TextStyle03
  8
寸法
  6
CONTINUOUS
 62
     0
 10
162.3
 20
-45.425
  1
101
 40
4.0
 50
90.0
 72
     5
 11
162.3
 21
-38.925
  0
ENDBLK
  0
BLOCK
  2
*DIM_0062
 70
    65
 10
0.0
 20
0.0
  0
LINE
  8
寸法
  6
BYBLOCK
 62
     0
 10
90.486322
 20
-49.009353
 11
155.715907
 21
-49.009353
  0
LINE
  8
寸法
  6
BYBLOCK
 62
     0
 10
78.15254
 20
-25.342665
 11
155.715907
 21
-25.342665
  0
LINE
  8
寸法
  6
BYBLOCK
 62
     0
 10
155.715907
 20
-49.009353
 11
155.715907
 21
-25.342665
  0
POINT
  8
寸法
 62
     0
 10
155.715907
 20
-49.009353
  0
POINT
  8
寸法
 62
     0
 10
155.715907
 20
-25.342665
  0
TEXT
  7
TextStyle03
  8
寸法
  6
CONTINUOUS
 62
     0
 10
155.325
 20
-39.3
  1
71
 40
4.0
 50
90.0
 72
     5
 11
155.325
 21
-35.05
  0
ENDBLK
  0
BLOCK
  2
*GRP_0063
 70
    65
 10
0.0
 20
0.0
  0
POLYLINE
  8
寸法
  6
BYBLOCK
 62
     0
 66
     1
  0
VERTEX
  8
寸法
 10
-107.834213
 20
-58.446108
  0
VERTEX
  8
寸法
 10
-105.236135
 20
-59.946108
  0
VERTEX
  8
寸法
 10
-106.736135
 20
-57.34803
  0
SEQEND
  0
POLYLINE
  8
寸法
  6
BYBLOCK
 62
     0
 66
     1
  0
VERTEX
  8
寸法
 10
-105.236135
 20
-59.946108
  0
VERTEX
  8
寸法
 10
-114.274377
 20
-50.907865
  0
VERTEX
  8
寸法
 10
-117.19589
 20
-50.907865
  0
SEQEND
  0
ENDBLK
  0
BLOCK
  2
*DIM_0064
 70
    65
 10
0.0
 20
0.0
  0
LINE
  8
寸法
  6
BYBLOCK
 62
     0
 10
-75.017003
 20
-20.059232
 11
-75.017003
 21
57.079248
  0
LINE
  8
寸法
  6
BYBLOCK
 62
     0
 10
-68.350335
 20
57.079248
 11
-75.017003
 21
57.079248
  0
POINT
  8
寸法
 62
     0
 10
-68.350335
 20
57.079248
  0
POINT
  8
寸法
 62
     0
 10
-75.017003
 20
57.079248
  0
TEXT
  7
TextStyle03
  8
寸法
  6
CONTINUOUS
 62
     0
 10
-73.29375
 20
57.45
  1
20
 40
3.0
 72
     5
 11
-70.10625
 21
57.45
  0
ENDBLK
  0
BLOCK
  2
*DIM_0065
 70
    65
 10
0.0
 20
0.0
  0
LINE
  8
寸法
  6
BYBLOCK
 62
     0
 10
-85.017
 20
-24.342665
 11
-85.017
 21
57.079248
  0
LINE
  8
寸法
  6
BYBLOCK
 62
     0
 10
-75.017003
 20
57.079248
 11
-85.017
 21
57.079248
  0
POINT
  8
寸法
 62
     0
 10
-85.017
 20
57.079248
  0
TEXT
  7
TextStyle03
  8
寸法
  6
CONTINUOUS
 62
     0
 10
-81.61875
 20
57.45
  1
30
 40
3.0
 72
     5
 11
-78.43125
 21
57.45
  0
ENDBLK
  0
BLOCK
  2
*DIM_0066
 70
    65
 10
0.0
 20
0.0
  0
LINE
  8
寸法
  6
BYBLOCK
 62
     0
 10
66.152542
 20
-20.059232
 11
66.152542
 21
57.079248
  0
LINE
  8
寸法
  6
BYBLOCK
 62
     0
 10
59.485875
 20
57.079248
 11
66.152542
 21
57.079248
  0
POINT
  8
寸法
 62
     0
 10
59.485875
 20
57.079248
  0
POINT
  8
寸法
 62
     0
 10
66.152542
 20
57.079248
  0
TEXT
  7
TextStyle03
  8
寸法
  6
CONTINUOUS
 62
     0
 10
61.20625
 20
57.45
  1
20
 40
3.0
 50
360.0
 72
     5
 11
64.39375
 21
57.45
  0
ENDBLK
  0
BLOCK
  2
*DIM_0067
 70
    65
 10
0.0
 20
0.0
  0
LINE
  8
寸法
  6
BYBLOCK
 62
     0
 10
66.152542
 20
-20.059232
 11
66.152542
 21
57.079248
  0
LINE
  8
寸法
  6
BYBLOCK
 62
     0
 10
76.15254
 20
-24.342665
 11
76.15254
 21
57.079248
  0
LINE
  8
寸法
  6
BYBLOCK
 62
     0
 10
66.152542
 20
57.079248
 11
76.15254
 21
57.079248
  0
POINT
  8
寸法
 62
     0
 10
76.15254
 20
57.079248
  0
TEXT
  7
TextStyle03
  8
寸法
  6
CONTINUOUS
 62
     0
 10
69.55625
 20
57.45
  1
30
 40
3.0
 50
360.0
 72
     5
 11
72.74375
 21
57.45
  0
ENDBLK
  0
BLOCK
  2
*DIM_0068
 70
    65
 10
0.0
 20
0.0
  0
LINE
  8
寸法
  6
BYBLOCK
 62
     0
 10
-58.350845
 20
-55.00933
 11
-58.350845
 21
-106.710697
  0
LINE
  8
寸法
  6
BYBLOCK
 62
     0
 10
-60.017665
 20
-93.083155
 11
-60.017665
 21
-106.710697
  0
LINE
  8
寸法
  6
BYBLOCK
 62
     0
 10
-58.350845
 20
-106.710697
 11
-60.017665
 21
-106.710697
  0
POINT
  8
寸法
 62
     0
 10
-58.350845
 20
-106.710697
  0
POINT
  8
寸法
 62
     0
 10
-60.017665
 20
-106.710697
  0
TEXT
  7
TextStyle03
  8
寸法
  6
CONTINUOUS
 62
     0
 10
-61.625
 20
-106.325
  1
5
 40
3.0
 72
     5
 11
-60.125
 21
-106.325
  0
ENDBLK
  0
BLOCK
  2
*DIM_0069
 70
    65
 10
0.0
 20
0.0
  0
LINE
  8
寸法
  6
BYBLOCK
 62
     0
 10
-60.017665
 20
-93.083155
 11
-60.017665
 21
-106.710697
  0
LINE
  8
寸法
  6
BYBLOCK
 62
     0
 10
-71.68433
 20
-93.083155
 11
-71.68433
 21
-106.710697
  0
LINE
  8
寸法
  6
BYBLOCK
 62
     0
 10
-60.017665
 20
-106.710697
 11
-71.68433
 21
-106.710697
  0
POINT
  8
寸法
 62
     0
 10
-71.68433
 20
-106.710697
  0
TEXT
  7
TextStyle03
  8
寸法
  6
CONTINUOUS
 62
     0
 10
-67.46875
 20
-106.325
  1
35
 40
3.0
 72
     5
 11
-64.28125
 21
-106.325
  0
ENDBLK
  0
BLOCK
  2
*DIM_0070
 70
    65
 10
0.0
 20
0.0
  0
LINE
  8
寸法
  6
BYBLOCK
 62
     0
 10
-71.68433
 20
-93.083155
 11
-71.68433
 21
-106.710697
  0
LINE
  8
寸法
  6
BYBLOCK
 62
     0
 10
-121.68437
 20
-93.083155
 11
-121.68437
 21
-106.710697
  0
LINE
  8
寸法
  6
BYBLOCK
 62
     0
 10
-71.68433
 20
-106.710697
 11
-121.68437
 21
-106.710697
  0
POINT
  8
寸法
 62
     0
 10
-121.68437
 20
-106.710697
  0
TEXT
  7
TextStyle03
  8
寸法
  6
CONTINUOUS
 62
     0
 10
-99.1375
 20
-106.325
  1
150
 40
3.0
 72
     5
 11
-94.2625
 21
-106.325
  0
ENDBLK
  0
BLOCK
  2
*DIM_0071
 70
    65
 10
0.0
 20
0.0
  0
LINE
  8
寸法
  6
BYBLOCK
 62
     0
 10
-121.68437
 20
-93.083155
 11
-121.68437
 21
-106.710697
  0
LINE
  8
寸法
  6
BYBLOCK
 62
     0
 10
-125.0177
 20
-93.083155
 11
-125.0177
 21
-106.710697
  0
LINE
  8
寸法
  6
BYBLOCK
 62
     0
 10
-121.68437
 20
-106.710697
 11
-125.0177
 21
-106.710697
  0
POINT
  8
寸法
 62
     0
 10
-125.0177
 20
-106.710697
  0
TEXT
  7
TextStyle03
  8
寸法
  6
CONTINUOUS
 62
     0
 10
-124.96875
 20
-109.7
  1
10
 40
3.0
 72
     5
 11
-121.78125
 21
-109.7
  0
ENDBLK
  0
BLOCK
  2
*DIM_0072
 70
    65
 10
0.0
 20
0.0
  0
LINE
  8
寸法
  6
BYBLOCK
 62
     0
 10
-125.0177
 20
-93.083155
 11
-125.0177
 21
-106.710697
  0
LINE
  8
寸法
  6
BYBLOCK
 62
     0
 10
-131.68425
 20
-84.544485
 11
-131.68425
 21
-106.710697
  0
LINE
  8
寸法
  6
BYBLOCK
 62
     0
 10
-125.0177
 20
-106.710697
 11
-131.68425
 21
-106.710697
  0
POINT
  8
寸法
 62
     0
 10
-131.68425
 20
-106.710697
  0
TEXT
  7
TextStyle03
  8
寸法
  6
CONTINUOUS
 62
     0
 10
-129.96875
 20
-106.325
  1
20
 40
3.0
 72
     5
 11
-126.78125
 21
-106.325
  0
ENDBLK
  0
BLOCK
  2
*DIM_0073
 70
    65
 10
0.0
 20
0.0
  0
LINE
  8
寸法
  6
BYBLOCK
 62
     0
 10
49.486385
 20
-58.342663
 11
49.486385
 21
-110.04403
  0
LINE
  8
寸法
  6
BYBLOCK
 62
     0
 10
51.153205
 20
-96.416488
 11
51.153205
 21
-110.04403
  0
LINE
  8
寸法
  6
BYBLOCK
 62
     0
 10
49.486385
 20
-110.04403
 11
51.153205
 21
-110.04403
  0
POINT
  8
寸法
 62
     0
 10
49.486385
 20
-110.04403
  0
POINT
  8
寸法
 62
     0
 10
51.153205
 20
-110.04403
  0
TEXT
  7
TextStyle03
  8
寸法
  6
CONTINUOUS
 62
     0
 10
47.875
 20
-109.65
  1
5
 40
3.0
 72
     5
 11
49.375
 21
-109.65
  0
ENDBLK
  0
BLOCK
  2
*DIM_0074
 70
    65
 10
0.0
 20
0.0
  0
LINE
  8
寸法
  6
BYBLOCK
 62
     0
 10
62.81987
 20
-96.416488
 11
62.81987
 21
-110.04403
  0
LINE
  8
寸法
  6
BYBLOCK
 62
     0
 10
51.153205
 20
-110.04403
 11
62.81987
 21
-110.04403
  0
POINT
  8
寸法
 62
     0
 10
62.81987
 20
-110.04403
  0
TEXT
  7
TextStyle03
  8
寸法
  6
CONTINUOUS
 62
     0
 10
55.38125
 20
-109.65
  1
35
 40
3.0
 72
     5
 11
58.56875
 21
-109.65
  0
ENDBLK
  0
BLOCK
  2
*DIM_0075
 70
    65
 10
0.0
 20
0.0
  0
LINE
  8
寸法
  6
BYBLOCK
 62
     0
 10
112.81991
 20
-96.416488
 11
112.81991
 21
-110.04403
  0
LINE
  8
寸法
  6
BYBLOCK
 62
     0
 10
62.81987
 20
-110.04403
 11
112.81991
 21
-110.04403
  0
POINT
  8
寸法
 62
     0
 10
112.81991
 20
-110.04403
  0
TEXT
  7
TextStyle03
  8
寸法
  6
CONTINUOUS
 62
     0
 10
85.3625
 20
-109.65
  1
150
 40
3.0
 72
     5
 11
90.2375
 21
-109.65
  0
ENDBLK
  0
BLOCK
  2
*DIM_0076
 70
    65
 10
0.0
 20
0.0
  0
LINE
  8
寸法
  6
BYBLOCK
 62
     0
 10
116.15324
 20
-96.416488
 11
116.15324
 21
-110.04403
  0
LINE
  8
寸法
  6
BYBLOCK
 62
     0
 10
112.81991
 20
-110.04403
 11
116.15324
 21
-110.04403
  0
POINT
  8
寸法
 62
     0
 10
116.15324
 20
-110.04403
  0
TEXT
  7
TextStyle03
  8
寸法
  6
CONTINUOUS
 62
     0
 10
112.88125
 20
-113.025
  1
10
 40
3.0
 72
     5
 11
116.06875
 21
-113.025
  0
ENDBLK
  0
BLOCK
  2
*DIM_0077
 70
    65
 10
0.0
 20
0.0
  0
LINE
  8
寸法
  6
BYBLOCK
 62
     0
 10
122.81979
 20
-87.877818
 11
122.81979
 21
-110.04403
  0
LINE
  8
寸法
  6
BYBLOCK
 62
     0
 10
116.15324
 20
-110.04403
 11
122.81979
 21
-110.04403
  0
POINT
  8
寸法
 62
     0
 10
122.81979
 20
-110.04403
  0
TEXT
  7
TextStyle03
  8
寸法
  6
CONTINUOUS
 62
     0
 10
117.88125
 20
-109.65
  1
20
 40
3.0
 72
     5
 11
121.06875
 21
-109.65
  0
ENDBLK
  0
BLOCK
  2
*DIM_0078
 70
    65
 10
0.0
 20
0.0
  0
LINE
  8
寸法
  6
BYBLOCK
 62
     0
 10
-70.68433
 20
-67.342658
 11
-44.885527
 21
-67.342658
  0
LINE
  8
寸法
  6
BYBLOCK
 62
     0
 10
-57.350845
 20
-54.00933
 11
-44.885527
 21
-54.00933
  0
LINE
  8
寸法
  6
BYBLOCK
 62
     0
 10
-44.885527
 20
-67.342658
 11
-44.885527
 21
-54.00933
  0
POINT
  8
寸法
 62
     0
 10
-44.885527
 20
-67.342658
  0
POINT
  8
寸法
 62
     0
 10
-44.885527
 20
-54.00933
  0
TEXT
  7
TextStyle03
  8
寸法
  6
CONTINUOUS
 62
     0
 10
-45.275
 20
-62.26875
  1
40
 40
3.0
 50
90.0
 72
     5
 11
-45.275
 21
-59.08125
  0
ENDBLK
  0
BLOCK
  2
*DIM_0079
 70
    65
 10
0.0
 20
0.0
  0
LINE
  8
寸法
  6
BYBLOCK
 62
     0
 10
48.486385
 20
-54.00933
 11
38.788157
 21
-54.00933
  0
LINE
  8
寸法
  6
BYBLOCK
 62
     0
 10
61.81987
 20
-74.00933
 11
38.788157
 21
-74.00933
  0
LINE
  8
寸法
  6
BYBLOCK
 62
     0
 10
38.788157
 20
-54.00933
 11
38.788157
 21
-74.00933
  0
POINT
  8
寸法
 62
     0
 10
38.788157
 20
-54.00933
  0
POINT
  8
寸法
 62
     0
 10
38.788157
 20
-74.00933
  0
TEXT
  7
TextStyle03
  8
寸法
  6
CONTINUOUS
 62
     0
 10
38.4
 20
-65.59375
  1
60
 40
3.0
 50
90.0
 72
     5
 11
38.4
 21
-62.40625
  0
ENDBLK
  0
BLOCK
  2
*GRP_0080
 70
    65
 10
0.0
 20
0.0
  0
POLYLINE
  8
寸法
  6
CONTINUOUS
 66
     1
  0
VERTEX
  8
寸法
 10
119.230142
 20
-77.72127
  0
VERTEX
  8
寸法
 10
127.878655
 20
-69.07276
  0
VERTEX
  8
寸法
 10
133.481285
 20
-69.07276
  0
SEQEND
  0
ENDBLK
  0
BLOCK
  2
*GRP_0081
 70
    65
 10
0.0
 20
0.0
  0
LINE
  8
別途部材
  6
CONTINUOUS
 62
    96
 10
-91.684225
 20
-54.542655
 11
-91.684225
 21
-54.00933
  0
LINE
  8
別途部材
  6
CONTINUOUS
 62
    96
 10
-91.684225
 20
-52.809263
 11
-91.684225
 21
-53.342675
  0
LINE
  8
別途部材
  6
CONTINUOUS
 62
    96
 10
-88.571763
 20
-53.342675
 11
-91.684225
 21
-53.342675
  0
LINE
  8
別途部材
  6
CONTINUOUS
 62
    96
 10
-91.684225
 20
-52.809263
 11
-88.350828
 21
-52.809263
  0
LINE
  8
別途部材
  6
CONTINUOUS
 62
    96
 10
-88.350828
 20
-52.809263
 11
-86.617522
 21
-54.542655
  0
LINE
  8
別途部材
  6
CONTINUOUS
 62
    96
 10
-87.905108
 20
-54.00933
 11
-88.571763
 21
-53.342675
  0
LINE
  8
別途部材
  6
CONTINUOUS
 62
    96
 10
-63.35094
 20
-54.542655
 11
-63.35094
 21
-54.00933
  0
LINE
  8
別途部材
  6
CONTINUOUS
 62
    96
 10
-63.35094
 20
-52.809263
 11
-63.35094
 21
-53.342675
  0
LINE
  8
別途部材
  6
CONTINUOUS
 62
    96
 10
-66.4634
 20
-53.342675
 11
-63.35094
 21
-53.342675
  0
LINE
  8
別途部材
  6
CONTINUOUS
 62
    96
 10
-63.35094
 20
-52.809263
 11
-66.684338
 21
-52.809263
  0
LINE
  8
別途部材
  6
CONTINUOUS
 62
    96
 10
-66.684338
 20
-52.809263
 11
-68.417642
 21
-54.542655
  0
LINE
  8
別途部材
  6
CONTINUOUS
 62
    96
 10
-67.130058
 20
-54.00933
 11
-66.4634
 21
-53.342675
  0
LINE
  8
別途部材
  6
CONTINUOUS
 62
    96
 10
-91.684225
 20
-54.542655
 11
-63.35094
 21
-54.542655
  0
LINE
  8
別途部材
  6
CONTINUOUS
 62
    96
 10
-64.884307
 20
-54.00933
 11
-90.150857
 21
-54.00933
  0
LINE
  8
別途部材
  6
CONTINUOUS
 62
    96
 10
-85.13204
 20
-59.00928
 11
-78.465365
 21
-59.00928
  0
LINE
  8
別途部材
  6
CONTINUOUS
 62
    96
 10
-78.465365
 20
-59.00928
 11
-78.465365
 21
-54.542655
  0
LINE
  8
別途部材
  6
CONTINUOUS
 62
    96
 10
-85.13204
 20
-59.00928
 11
-85.13204
 21
-54.542655
  0
ENDBLK
  0
BLOCK
  2
*GRP_0082
 70
    65
 10
0.0
 20
0.0
  0
LINE
  8
ボルト／ビス
  6
CONTINUOUS
 62
    64
 10
84.486667
 20
-66.87549
 11
84.486667
 21
-90.12239
  0
LINE
  8
ボルト／ビス
  6
CONTINUOUS
 62
    64
 10
83.32005
 20
-69.511715
 11
83.555725
 21
-69.275875
  0
LINE
  8
ボルト／ビス
  6
CONTINUOUS
 62
    64
 10
83.32005
 20
-69.511715
 11
83.32005
 21
-71.6092
  0
LINE
  8
ボルト／ビス
  6
CONTINUOUS
 62
    64
 10
83.32005
 20
-69.511715
 11
83.084375
 21
-69.275875
  0
LINE
  8
ボルト／ビス
  6
CONTINUOUS
 62
    64
 10
83.389085
 20
-67.609282
 11
83.389085
 21
-69.275875
  0
LINE
  8
ボルト／ビス
  6
CONTINUOUS
 62
    64
 10
81.820035
 20
-71.6092
 11
81.820035
 21
-72.442575
  0
LINE
  8
ボルト／ビス
  6
CONTINUOUS
 62
    64
 10
83.15331
 20
-79.275915
 11
83.389085
 21
-79.04024
  0
LINE
  8
ボルト／ビス
  6
CONTINUOUS
 62
    64
 10
83.389085
 20
-72.942665
 11
83.389085
 21
-79.04024
  0
LINE
  8
ボルト／ビス
  6
CONTINUOUS
 62
    64
 10
83.15331
 20
-82.409015
 11
81.859243
 21
-87.238682
  0
LINE
  8
ボルト／ビス
  6
CONTINUOUS
 62
    64
 10
83.15331
 20
-72.942665
 11
83.15331
 21
-82.409015
  0
LINE
  8
ボルト／ビス
  6
CONTINUOUS
 62
    64
 10
83.32005
 20
-69.511715
 11
83.555725
 21
-69.275875
  0
LINE
  8
ボルト／ビス
  6
CONTINUOUS
 62
    64
 10
85.633135
 20
-69.511715
 11
85.86881
 21
-69.275875
  0
LINE
  8
ボルト／ビス
  6
CONTINUOUS
 62
    64
 10
85.633135
 20
-69.511715
 11
85.633135
 21
-71.6092
  0
LINE
  8
ボルト／ビス
  6
CONTINUOUS
 62
    64
 10
85.633135
 20
-69.511715
 11
85.39746
 21
-69.275875
  0
LINE
  8
ボルト／ビス
  6
CONTINUOUS
 62
    64
 10
85.58431
 20
-67.609282
 11
85.58431
 21
-69.275875
  0
LINE
  8
ボルト／ビス
  6
CONTINUOUS
 62
    64
 10
87.1534
 20
-71.6092
 11
87.1534
 21
-72.442575
  0
LINE
  8
ボルト／ビス
  6
CONTINUOUS
 62
    64
 10
85.819993
 20
-79.275915
 11
85.58431
 21
-79.04024
  0
LINE
  8
ボルト／ビス
  6
CONTINUOUS
 62
    64
 10
85.58431
 20
-72.942665
 11
85.58431
 21
-79.04024
  0
LINE
  8
ボルト／ビス
  6
CONTINUOUS
 62
    64
 10
85.819993
 20
-82.409015
 11
87.114092
 21
-87.238682
  0
LINE
  8
ボルト／ビス
  6
CONTINUOUS
 62
    64
 10
85.819993
 20
-72.942665
 11
85.819993
 21
-82.409015
  0
LINE
  8
ボルト／ビス
  6
CONTINUOUS
 62
    64
 10
85.819993
 20
-67.844957
 11
85.58431
 21
-67.609282
  0
LINE
  8
ボルト／ビス
  6
CONTINUOUS
 62
    64
 10
85.819993
 20
-69.275875
 11
85.819993
 21
-67.844957
  0
LINE
  8
ボルト／ビス
  6
CONTINUOUS
 62
    64
 10
85.58431
 20
-67.609282
 11
83.389085
 21
-67.609282
  0
LINE
  8
ボルト／ビス
  6
CONTINUOUS
 62
    64
 10
83.389085
 20
-67.609282
 11
83.15331
 21
-67.844957
  0
LINE
  8
ボルト／ビス
  6
CONTINUOUS
 62
    64
 10
85.819993
 20
-67.844957
 11
83.15331
 21
-67.844957
  0
LINE
  8
ボルト／ビス
  6
CONTINUOUS
 62
    64
 10
83.15331
 20
-69.275875
 11
83.15331
 21
-67.844957
  0
LINE
  8
ボルト／ビス
  6
CONTINUOUS
 62
    64
 10
81.553375
 20
-69.511715
 11
81.78905
 21
-69.275875
  0
LINE
  8
ボルト／ビス
  6
CONTINUOUS
 62
    64
 10
81.553375
 20
-69.511715
 11
81.553375
 21
-71.6092
  0
LINE
  8
ボルト／ビス
  6
CONTINUOUS
 62
    64
 10
81.78905
 20
-69.275875
 11
87.184285
 21
-69.275875
  0
LINE
  8
ボルト／ビス
  6
CONTINUOUS
 62
    64
 10
87.41996
 20
-69.511715
 11
87.184285
 21
-69.275875
  0
LINE
  8
ボルト／ビス
  6
CONTINUOUS
 62
    64
 10
87.41996
 20
-69.511715
 11
87.41996
 21
-71.6092
  0
LINE
  8
ボルト／ビス
  6
CONTINUOUS
 62
    64
 10
81.553375
 20
-71.6092
 11
87.41996
 21
-71.6092
  0
LINE
  8
ボルト／ビス
  6
CONTINUOUS
 62
    64
 10
87.736725
 20
-72.442575
 11
87.736725
 21
-72.942665
  0
LINE
  8
ボルト／ビス
  6
CONTINUOUS
 62
    64
 10
87.736725
 20
-72.442575
 11
81.236667
 21
-72.442575
  0
LINE
  8
ボルト／ビス
  6
CONTINUOUS
 62
    64
 10
81.236667
 20
-72.442575
 11
81.236667
 21
-72.942665
  0
LINE
  8
ボルト／ビス
  6
CONTINUOUS
 62
    64
 10
87.736725
 20
-72.942665
 11
81.236667
 21
-72.942665
  0
LINE
  8
ボルト／ビス
  6
CONTINUOUS
 62
    64
 10
84.486667
 20
-82.628507
 11
85.81531
 21
-87.586733
  0
LINE
  8
ボルト／ビス
  6
CONTINUOUS
 62
    64
 10
87.114092
 20
-87.238682
 11
85.81531
 21
-87.586733
  0
LINE
  8
ボルト／ビス
  6
CONTINUOUS
 62
    64
 10
84.486667
 20
-82.628507
 11
83.158117
 21
-87.586733
  0
LINE
  8
ボルト／ビス
  6
CONTINUOUS
 62
    64
 10
81.859243
 20
-87.238682
 11
83.158117
 21
-87.586733
  0
LINE
  8
ボルト／ビス
  6
CONTINUOUS
 62
    64
 10
83.15331
 20
-88.275865
 11
83.58331
 21
-85.837165
  0
LINE
  8
ボルト／ビス
  6
CONTINUOUS
 62
    64
 10
85.819993
 20
-88.275865
 11
85.390025
 21
-85.837165
  0
LINE
  8
ボルト／ビス
  6
CONTINUOUS
 62
    64
 10
83.15331
 20
-88.275865
 11
85.819993
 21
-88.275865
  0
LINE
  8
ボルト／ビス
  6
CONTINUOUS
 62
    64
 10
83.58331
 20
-85.837165
 11
85.390025
 21
-85.837165
  0
ENDBLK
  0
BLOCK
  2
*GRP_0083
 70
    65
 10
0.0
 20
0.0
  0
ARC
  8
ゴム等
  6
CONTINUOUS
 62
   127
 10
-70.510248
 20
-26.842653
 40
0.5
 50
270.0
 51
360.0
  0
LINE
  8
ゴム等
  6
CONTINUOUS
 62
   127
 10
-70.010247
 20
-26.842652
 11
-70.010247
 21
-26.842652
  0
ARC
  8
ゴム等
  6
CONTINUOUS
 62
   127
 10
-70.510248
 20
-26.842653
 40
0.5
 50
0.0
 51
90.0
  0
LINE
  8
ゴム等
  6
CONTINUOUS
 62
   127
 10
-79.510247
 20
-27.342652
 11
-70.510247
 21
-27.342652
  0
ARC
  8
ゴム等
  6
CONTINUOUS
 62
   127
 10
-79.510248
 20
-26.842653
 40
0.5
 50
180.0
 51
270.0
  0
LINE
  8
ゴム等
  6
CONTINUOUS
 62
   127
 10
-80.010247
 20
-26.842652
 11
-80.010247
 21
-26.842652
  0
LINE
  8
ゴム等
  6
CONTINUOUS
 62
   127
 10
-79.510247
 20
-26.342652
 11
-70.510247
 21
-26.342652
  0
ARC
  8
ゴム等
  6
CONTINUOUS
 62
   127
 10
-79.510248
 20
-26.842653
 40
0.5
 50
90.0
 51
180.0
  0
ENDBLK
  0
BLOCK
  2
*GRP_0084
 70
    65
 10
0.0
 20
0.0
  0
ARC
  8
ゴム等
  6
CONTINUOUS
 62
   127
 10
61.645788
 20
-26.842653
 40
0.5
 50
180.0
 51
270.0
  0
LINE
  8
ゴム等
  6
CONTINUOUS
 62
   127
 10
61.145788
 20
-26.842652
 11
61.145788
 21
-26.842652
  0
ARC
  8
ゴム等
  6
CONTINUOUS
 62
   127
 10
61.645788
 20
-26.842653
 40
0.5
 50
90.0
 51
180.0
  0
LINE
  8
ゴム等
  6
CONTINUOUS
 62
   127
 10
70.645788
 20
-27.342652
 11
61.645788
 21
-27.342652
  0
ARC
  8
ゴム等
  6
CONTINUOUS
 62
   127
 10
70.645788
 20
-26.842653
 40
0.5
 50
-90.0
 51
0.0
  0
LINE
  8
ゴム等
  6
CONTINUOUS
 62
   127
 10
71.145788
 20
-26.842652
 11
71.145788
 21
-26.842652
  0
LINE
  8
ゴム等
  6
CONTINUOUS
 62
   127
 10
70.645788
 20
-26.342652
 11
61.645788
 21
-26.342652
  0
ARC
  8
ゴム等
  6
CONTINUOUS
 62
   127
 10
70.645788
 20
-26.842653
 40
0.5
 50
0.0
 51
90.0
  0
ENDBLK
  0
BLOCK
  2
*GRP_0085
 70
    65
 10
0.0
 20
0.0
  0
ARC
  8
St
  6
CONTINUOUS
 62
   127
 10
70.086668
 20
-55.075995
 40
1.066667
 50
360.0
 51
450.0
  0
LINE
  8
St
  6
CONTINUOUS
 62
   127
 10
83.81969
 20
-54.00933
 11
53.819982
 21
-54.00933
  0
LINE
  8
St
  6
CONTINUOUS
 62
   127
 10
83.81969
 20
-55.075995
 11
53.819982
 21
-55.075995
  0
LINE
  8
St
  6
CONTINUOUS
 62
   127
 10
53.819982
 20
-54.00933
 11
53.819982
 21
-55.075995
  0
LINE
  8
St
  6
CONTINUOUS
 10
56.421912
 20
-54.00933
 11
57.488578
 21
-55.075995
  0
LINE
  8
St
  6
CONTINUOUS
 10
56.18621
 20
-54.00933
 11
57.252875
 21
-55.075995
  0
LINE
  8
St
  6
CONTINUOUS
 10
77.497703
 20
-54.00933
 11
78.564367
 21
-55.075995
  0
LINE
  8
St
  6
CONTINUOUS
 10
77.262
 20
-54.00933
 11
78.328665
 21
-55.075995
  0
LINE
  8
St
  6
CONTINUOUS
 62
   127
 10
71.153335
 20
-70.675995
 11
70.08667
 21
-70.675995
  0
LINE
  8
St
  6
CONTINUOUS
 62
   127
 10
70.08667
 20
-55.075995
 11
70.08667
 21
-70.675995
  0
LINE
  8
St
  6
CONTINUOUS
 62
   127
 10
71.153335
 20
-55.075995
 11
71.153335
 21
-70.675995
  0
LINE
  8
St
  6
CONTINUOUS
 10
83.81969
 20
-54.00933
 11
83.81969
 21
-55.075995
  0
LINE
  8
St
  6
CONTINUOUS
 10
55.902422
 20
-54.009317
 11
55.902422
 21
-55.075985
  0
LINE
  8
St
  6
CONTINUOUS
 10
54.402422
 20
-54.009317
 11
54.402422
 21
-55.075985
  0
LINE
  8
St
  6
CONTINUOUS
 10
54.402422
 20
-54.275985
 11
55.902422
 21
-54.275985
  0
LINE
  8
St
  6
CONTINUOUS
 10
54.402422
 20
-54.54265
 11
55.902422
 21
-54.54265
  0
LINE
  8
St
  6
CONTINUOUS
 10
54.402422
 20
-54.809317
 11
55.902422
 21
-54.809317
  0
LINE
  8
St
  6
CONTINUOUS
 10
55.152422
 20
-56.092943
 11
55.152422
 21
-52.935398
  0
LINE
  8
St
  6
CONTINUOUS
 10
82.903023
 20
-54.009317
 11
82.903023
 21
-55.075985
  0
LINE
  8
St
  6
CONTINUOUS
 10
81.403023
 20
-54.009317
 11
81.403023
 21
-55.075985
  0
LINE
  8
St
  6
CONTINUOUS
 10
81.403023
 20
-54.275985
 11
82.903023
 21
-54.275985
  0
LINE
  8
St
  6
CONTINUOUS
 10
81.403023
 20
-54.54265
 11
82.903023
 21
-54.54265
  0
LINE
  8
St
  6
CONTINUOUS
 10
81.403023
 20
-54.809317
 11
82.903023
 21
-54.809317
  0
LINE
  8
St
  6
CONTINUOUS
 10
82.153023
 20
-56.092943
 11
82.153023
 21
-52.935398
  0
LINE
  8
St
  6
CONTINUOUS
 10
70.08667
 20
-67.342665
 11
71.153335
 21
-67.342665
  0
LINE
  8
St
  6
CONTINUOUS
 10
70.08667
 20
-64.00933
 11
71.153335
 21
-64.00933
  0
LINE
  8
St
  6
CONTINUOUS
 10
70.353338
 20
-64.00933
 11
70.353338
 21
-67.342665
  0
LINE
  8
St
  6
CONTINUOUS
 10
70.620003
 20
-64.00933
 11
70.620003
 21
-67.342665
  0
LINE
  8
St
  6
CONTINUOUS
 10
70.88667
 20
-64.00933
 11
70.88667
 21
-67.342665
  0
LINE
  8
St
  6
CONTINUOUS
 10
69.109245
 20
-65.675997
 11
72.089072
 21
-65.675997
  0
ENDBLK
  0
BLOCK
  2
*GRP_0086
 70
    65
 10
0.0
 20
0.0
  0
ARC
  8
St
  6
CONTINUOUS
 62
   127
 10
72.220006
 20
-72.942661
 40
1.066667
 50
180.0
 51
270.0
  0
LINE
  8
St
  6
CONTINUOUS
 10
100.367205
 20
-72.942663
 11
101.43387
 21
-74.00933
  0
LINE
  8
St
  6
CONTINUOUS
 10
100.60291
 20
-72.942663
 11
101.669575
 21
-74.00933
  0
LINE
  8
St
  6
CONTINUOUS
 62
   127
 10
72.220003
 20
-72.942663
 11
104.486667
 21
-72.942663
  0
LINE
  8
St
  6
CONTINUOUS
 10
104.486667
 20
-72.942663
 11
104.486667
 21
-74.00933
  0
LINE
  8
St
  6
CONTINUOUS
 62
   127
 10
72.220003
 20
-74.00933
 11
104.486667
 21
-74.00933
  0
LINE
  8
St
  6
CONTINUOUS
 10
79.285013
 20
-74.00933
 11
78.218347
 21
-72.942663
  0
LINE
  8
St
  6
CONTINUOUS
 10
79.520717
 20
-74.00933
 11
78.454053
 21
-72.942663
  0
LINE
  8
St
  6
CONTINUOUS
 10
72.220003
 20
-62.593222
 11
71.153335
 21
-61.526552
  0
LINE
  8
St
  6
CONTINUOUS
 10
72.220003
 20
-62.357517
 11
71.153335
 21
-61.290848
  0
LINE
  8
St
  6
CONTINUOUS
 10
72.220003
 20
-60.675995
 11
71.153335
 21
-60.675995
  0
LINE
  8
St
  6
CONTINUOUS
 62
   127
 10
71.153335
 20
-72.942663
 11
71.153335
 21
-60.675995
  0
LINE
  8
St
  6
CONTINUOUS
 62
   127
 10
72.220003
 20
-72.942663
 11
72.220003
 21
-60.675995
  0
LINE
  8
St
  6
DOT
 10
69.537628
 20
-65.675995
 11
73.753875
 21
-65.675995
  0
LINE
  8
St
  6
DOT
 62
   127
 10
88.4084
 20
-74.874457
 11
88.4084
 21
-74.874455
  0
LINE
  8
St
  6
DOT
 10
81.153335
 20
-72.942663
 11
81.153335
 21
-74.00933
  0
LINE
  8
St
  6
DOT
 10
87.82
 20
-72.942663
 11
87.82
 21
-74.00933
  0
LINE
  8
St
  6
DOT
 10
92.82
 20
-72.942663
 11
92.82
 21
-74.00933
  0
LINE
  8
St
  6
DOT
 10
96.153335
 20
-72.942663
 11
96.153335
 21
-74.00933
  0
LINE
  8
St
  6
DOT
 10
84.486667
 20
-71.588018
 11
84.486667
 21
-75.414217
  0
LINE
  8
St
  6
DOT
 62
   127
 10
87.82
 20
-73.20933
 11
81.153335
 21
-73.20933
  0
LINE
  8
St
  6
DOT
 62
   127
 10
87.82
 20
-73.475995
 11
81.153335
 21
-73.475995
  0
LINE
  8
St
  6
DOT
 62
   127
 10
87.82
 20
-73.742663
 11
81.153335
 21
-73.742663
  0
LINE
  8
St
  6
DOT
 10
92.82
 20
-73.20933
 11
96.153335
 21
-73.20933
  0
LINE
  8
St
  6
DOT
 10
92.82
 20
-73.475995
 11
96.153335
 21
-73.475995
  0
LINE
  8
St
  6
DOT
 10
92.82
 20
-73.742663
 11
96.153335
 21
-73.742663
  0
LINE
  8
St
  6
DOT
 10
94.486667
 20
-71.588018
 11
94.486667
 21
-75.414217
  0
LINE
  8
St
  6
DOT
 10
71.153335
 20
-72.942663
 11
72.220003
 21
-72.942663
  0
LINE
  8
St
  6
DOT
 10
71.153335
 20
-62.34266
 11
72.220003
 21
-62.34266
  0
LINE
  8
St
  6
DOT
 10
72.220003
 20
-66.675995
 11
71.153335
 21
-66.675995
  0
LINE
  8
St
  6
DOT
 10
72.220003
 20
-64.675995
 11
71.153335
 21
-64.675995
  0
LINE
  8
St
  6
DOT
 62
   127
 10
71.953335
 20
-72.942663
 11
71.953335
 21
-62.34266
  0
LINE
  8
St
  6
DOT
 62
   127
 10
71.68667
 20
-72.942663
 11
71.68667
 21
-62.34266
  0
LINE
  8
St
  6
DOT
 62
   127
 10
71.420003
 20
-72.942663
 11
71.420003
 21
-62.34266
  0
ENDBLK
  0
BLOCK
  2
*GRP_0087
 70
    65
 10
0.0
 20
0.0
  0
LINE
  8
補助線
  6
DOT
 62
    64
 10
-11.098898
 20
-35.67601
 11
-14.565563
 21
-35.67601
  0
LINE
  8
補助線
  6
DOT
 62
    64
 10
-12.83223
 20
-33.942677
 11
-12.83223
 21
-37.409343
  0
ENDBLK
  0
BLOCK
  2
*GRP_0088
 70
    65
 10
0.0
 20
0.0
  0
LINE
  8
補助線
  6
DOT
 62
    64
 10
2.234438
 20
-35.67601
 11
5.701102
 21
-35.67601
  0
LINE
  8
補助線
  6
DOT
 62
    64
 10
3.96777
 20
-33.942677
 11
3.96777
 21
-37.409343
  0
ENDBLK
  0
BLOCK
  2
*GRP_0089
 70
    65
 10
0.0
 20
0.0
  0
LINE
  8
補助線
  6
BYBLOCK
 62
    64
 10
2.23444
 20
-35.67601
 11
5.701105
 21
-35.67601
  0
LINE
  8
補助線
  6
BYBLOCK
 62
    64
 10
3.967772
 20
-33.942677
 11
3.967772
 21
-37.409343
  0
ENDBLK
  0
BLOCK
  2
*GRP_0090
 70
    65
 10
0.0
 20
0.0
  0
LINE
  8
補助線
  6
BYBLOCK
 62
    64
 10
-14.565565
 20
-35.67601
 11
-11.0989
 21
-35.67601
  0
LINE
  8
補助線
  6
BYBLOCK
 62
    64
 10
-12.832233
 20
-33.942677
 11
-12.832233
 21
-37.409343
  0
ENDBLK
  0
BLOCK
  2
*GRP_0091
 70
    65
 10
0.0
 20
0.0
  0
LINE
  8
補助線
  6
BYBLOCK
 62
    64
 10
-16.698898
 20
-35.67601
 11
-20.165563
 21
-35.67601
  0
LINE
  8
補助線
  6
BYBLOCK
 62
    64
 10
-18.43223
 20
-33.942677
 11
-18.43223
 21
-37.409343
  0
ENDBLK
  0
BLOCK
  2
*GRP_0092
 70
    65
 10
0.0
 20
0.0
  0
LINE
  8
補助線
  6
BYBLOCK
 62
    64
 10
7.834438
 20
-35.67601
 11
11.301102
 21
-35.67601
  0
LINE
  8
補助線
  6
BYBLOCK
 62
    64
 10
9.56777
 20
-33.942677
 11
9.56777
 21
-37.409343
  0
ENDBLK
  0
BLOCK
  2
*GRP_0093
 70
    65
 10
0.0
 20
0.0
  0
LINE
  8
補助線
  6
BYBLOCK
 62
    64
 10
-11.0989
 20
-35.67601
 11
-14.565565
 21
-35.67601
  0
LINE
  8
補助線
  6
BYBLOCK
 62
    64
 10
-12.832233
 20
-33.942677
 11
-12.832233
 21
-37.409343
  0
ENDBLK
  0
BLOCK
  2
*GRP_0094
 70
    65
 10
0.0
 20
0.0
  0
LINE
  8
補助線
  6
BYBLOCK
 62
    64
 10
5.701105
 20
-35.67601
 11
2.23444
 21
-35.67601
  0
LINE
  8
補助線
  6
BYBLOCK
 62
    64
 10
3.967772
 20
-33.942677
 11
3.967772
 21
-37.409343
  0
ENDBLK
  0
BLOCK
  2
*DIM_0095
 70
    65
 10
0.0
 20
0.0
  0
LINE
  8
寸法
  6
CONTINUOUS
 10
-172.327408
 20
118.183128
 11
-175.31788
 21
118.183128
  0
LINE
  8
寸法
  6
CONTINUOUS
 10
-172.327408
 20
102.183128
 11
-175.31788
 21
102.183128
  0
LINE
  8
寸法
  6
CONTINUOUS
 10
-175.31788
 20
118.183128
 11
-175.31788
 21
102.183128
  0
POINT
  8
寸法
 10
-175.31788
 20
118.183128
  0
POINT
  8
寸法
 10
-175.31788
 20
102.183128
  0
TEXT
  7
TextStyle03
  8
寸法
  6
CONTINUOUS
 10
-175.7
 20
105.20625
  1
□1600
 40
3.0
 50
90.0
 72
     5
 11
-175.7
 21
115.14375
  0
ENDBLK
  0
BLOCK
  2
*GRP_0096
 70
    65
 10
0.0
 20
0.0
  0
POLYLINE
  8
寸法
  6
CONTINUOUS
 66
     1
  0
VERTEX
  8
寸法
 10
-162.28218
 20
109.269028
  0
VERTEX
  8
寸法
 10
-159.327408
 20
108.750067
  0
VERTEX
  8
寸法
 10
-161.626835
 20
110.676885
  0
SEQEND
  0
LINE
  8
寸法
  6
CONTINUOUS
 10
-159.327408
 20
108.750067
 11
-164.17187
 21
111.005115
  0
ENDBLK
  0
BLOCK
  2
*DIM_0097
 70
    65
 10
0.0
 20
0.0
  0
LINE
  8
寸法
  6
CONTINUOUS
 10
-132.317065
 20
102.183128
 11
-137.43148
 21
102.183128
  0
LINE
  8
寸法
  6
CONTINUOUS
 10
-132.317065
 20
120.183128
 11
-137.43148
 21
120.183128
  0
LINE
  8
寸法
  6
CONTINUOUS
 10
-137.43148
 20
102.183128
 11
-137.43148
 21
120.183128
  0
POINT
  8
寸法
 10
-137.43148
 20
102.183128
  0
POINT
  8
寸法
 10
-137.43148
 20
120.183128
  0
TEXT
  7
TextStyle03
  8
寸法
  6
CONTINUOUS
 10
-137.8
 20
106.23125
  1
□1800
 40
3.0
 50
90.0
 72
     5
 11
-137.8
 21
116.16875
  0
ENDBLK
  0
BLOCK
  2
*GRP_0098
 70
    65
 10
0.0
 20
0.0
  0
POLYLINE
  8
寸法
  6
CONTINUOUS
 66
     1
  0
VERTEX
  8
寸法
 10
-121.271838
 20
114.435395
  0
VERTEX
  8
寸法
 10
-118.317065
 20
113.916435
  0
VERTEX
  8
寸法
 10
-120.616493
 20
115.843253
  0
SEQEND
  0
LINE
  8
寸法
  6
CONTINUOUS
 10
-118.317065
 20
113.916435
 11
-123.161528
 21
116.171482
  0
ENDBLK
  0
BLOCK
  2
*GRP_0099
 70
    65
 10
0.0
 20
0.0
  0
POLYLINE
  8
寸法
  6
CONTINUOUS
 66
     1
  0
VERTEX
  8
寸法
 10
-113.109453
 20
109.095785
  0
VERTEX
  8
寸法
 10
-115.264215
 20
111.183128
  0
VERTEX
  8
寸法
 10
-114.441805
 20
108.298055
  0
SEQEND
  0
LINE
  8
寸法
  6
CONTINUOUS
 10
-115.264215
 20
111.183128
 11
-112.738158
 21
106.964155
  0
ENDBLK
  0
BLOCK
  2
*GRP_0100
 70
    65
 10
0.0
 20
0.0
  0
POLYLINE
  8
寸法
  6
CONTINUOUS
 66
     1
  0
VERTEX
  8
寸法
 10
-122.879078
 20
109.095785
  0
VERTEX
  8
寸法
 10
-125.03384
 20
111.183128
  0
VERTEX
  8
寸法
 10
-124.21143
 20
108.298055
  0
SEQEND
  0
LINE
  8
寸法
  6
CONTINUOUS
 10
-125.03384
 20
111.183128
 11
-122.507783
 21
106.964155
  0
ENDBLK
  0
BLOCK
  2
*DIM_0101
 70
    65
 10
0.0
 20
0.0
  0
LINE
  8
寸法
  6
CONTINUOUS
 10
-91.75998
 20
102.183128
 11
-95.654767
 21
102.183128
  0
LINE
  8
寸法
  6
CONTINUOUS
 10
-91.75998
 20
122.183128
 11
-95.654767
 21
122.183128
  0
LINE
  8
寸法
  6
CONTINUOUS
 10
-95.654767
 20
102.183128
 11
-95.654767
 21
122.183128
  0
POINT
  8
寸法
 10
-95.654767
 20
102.183128
  0
POINT
  8
寸法
 10
-95.654767
 20
122.183128
  0
TEXT
  7
TextStyle03
  8
寸法
  6
CONTINUOUS
 10
-96.05
 20
107.20625
  1
□2000
 40
3.0
 50
90.0
 72
     5
 11
-96.05
 21
117.14375
  0
ENDBLK
  0
BLOCK
  2
*GRP_0102
 70
    65
 10
0.0
 20
0.0
  0
POLYLINE
  8
寸法
  6
CONTINUOUS
 66
     1
  0
VERTEX
  8
寸法
 10
-71.503155
 20
110.095785
  0
VERTEX
  8
寸法
 10
-73.657917
 20
112.183128
  0
VERTEX
  8
寸法
 10
-72.835508
 20
109.298055
  0
SEQEND
  0
LINE
  8
寸法
  6
CONTINUOUS
 10
-73.657917
 20
112.183128
 11
-71.13186
 21
107.964155
  0
ENDBLK
  0
BLOCK
  2
*GRP_0103
 70
    65
 10
0.0
 20
0.0
  0
POLYLINE
  8
寸法
  6
CONTINUOUS
 66
     1
  0
VERTEX
  8
寸法
 10
-81.512275
 20
110.095785
  0
VERTEX
  8
寸法
 10
-83.667037
 20
112.183128
  0
VERTEX
  8
寸法
 10
-82.844628
 20
109.298055
  0
SEQEND
  0
LINE
  8
寸法
  6
CONTINUOUS
 10
-83.667037
 20
112.183128
 11
-81.14098
 21
107.964155
  0
ENDBLK
  0
BLOCK
  2
*GRP_0104
 70
    65
 10
0.0
 20
0.0
  0
POLYLINE
  8
寸法
  6
CONTINUOUS
 66
     1
  0
VERTEX
  8
寸法
 10
-79.714753
 20
116.187838
  0
VERTEX
  8
寸法
 10
-76.75998
 20
115.668878
  0
VERTEX
  8
寸法
 10
-79.059407
 20
117.595695
  0
SEQEND
  0
LINE
  8
寸法
  6
CONTINUOUS
 10
-76.75998
 20
115.668878
 11
-81.604443
 21
117.923925
  0
ENDBLK
  0
BLOCK
  2
*DIM_0105
 70
    65
 10
0.0
 20
0.0
  0
LINE
  8
寸法
  6
CONTINUOUS
 10
-172.540907
 20
79.135852
 11
-175.31713
 21
79.135852
  0
LINE
  8
寸法
  6
CONTINUOUS
 10
-172.540907
 20
73.135852
 11
-175.31713
 21
73.135852
  0
LINE
  8
寸法
  6
CONTINUOUS
 10
-175.31713
 20
79.135852
 11
-175.31713
 21
73.135852
  0
POINT
  8
寸法
 10
-175.31713
 20
79.135852
  0
POINT
  8
寸法
 10
-175.31713
 20
73.135852
  0
TEXT
  7
TextStyle03
  8
寸法
  6
CONTINUOUS
 10
-175.675
 20
73.6625
  1
600
 40
3.0
 50
90.0
 72
     5
 11
-175.675
 21
78.5375
  0
ENDBLK
  0
BLOCK
  2
*DIM_0106
 70
    65
 10
0.0
 20
0.0
  0
LINE
  8
寸法
  6
CONTINUOUS
 10
-172.540907
 20
57.52999
 11
-175.31713
 21
57.52999
  0
LINE
  8
寸法
  6
CONTINUOUS
 10
-172.540907
 20
48.52999
 11
-175.31713
 21
48.52999
  0
LINE
  8
寸法
  6
CONTINUOUS
 10
-175.31713
 20
57.52999
 11
-175.31713
 21
48.52999
  0
POINT
  8
寸法
 10
-175.31713
 20
57.52999
  0
POINT
  8
寸法
 10
-175.31713
 20
48.52999
  0
TEXT
  7
TextStyle03
  8
寸法
  6
CONTINUOUS
 10
-175.675
 20
50.5625
  1
900
 40
3.0
 50
90.0
 72
     5
 11
-175.675
 21
55.4375
  0
ENDBLK
  0
BLOCK
  2
*DIM_0107
 70
    65
 10
0.0
 20
0.0
  0
LINE
  8
寸法
  6
CONTINUOUS
 10
-172.540907
 20
31.731942
 11
-175.31713
 21
31.731942
  0
LINE
  8
寸法
  6
CONTINUOUS
 10
-172.540907
 20
18.731942
 11
-175.31713
 21
18.731942
  0
LINE
  8
寸法
  6
CONTINUOUS
 10
-175.31713
 20
31.731942
 11
-175.31713
 21
18.731942
  0
POINT
  8
寸法
 10
-175.31713
 20
31.731942
  0
POINT
  8
寸法
 10
-175.31713
 20
18.731942
  0
TEXT
  7
TextStyle03
  8
寸法
  6
CONTINUOUS
 10
-175.675
 20
21.94375
  1
1300
 40
3.0
 50
90.0
 72
     5
 11
-175.675
 21
28.50625
  0
ENDBLK
  0
BLOCK
  2
*DIM_0108
 70
    65
 10
0.0
 20
0.0
  0
LINE
  8
寸法
  6
CONTINUOUS
 10
-172.540907
 20
2.064187
 11
-175.31713
 21
2.064187
  0
LINE
  8
寸法
  6
CONTINUOUS
 10
-172.540907
 20
-17.935812
 11
-175.31713
 21
-17.935812
  0
LINE
  8
寸法
  6
CONTINUOUS
 10
-175.31713
 20
2.064187
 11
-175.31713
 21
-17.935812
  0
POINT
  8
寸法
 10
-175.31713
 20
2.064187
  0
POINT
  8
寸法
 10
-175.31713
 20
-17.935812
  0
TEXT
  7
TextStyle03
  8
寸法
  6
CONTINUOUS
 10
-175.675
 20
-11.20625
  1
2000
 40
3.0
 50
90.0
 72
     5
 11
-175.675
 21
-4.64375
  0
ENDBLK
  0
BLOCK
  2
*GRP_0109
 70
    65
 10
0.0
 20
0.0
  0
POLYLINE
  8
寸法
  6
CONTINUOUS
 66
     1
  0
VERTEX
  8
寸法
 10
-160.49568
 20
74.884293
  0
VERTEX
  8
寸法
 10
-157.540907
 20
74.365332
  0
VERTEX
  8
寸法
 10
-159.840335
 20
76.29215
  0
SEQEND
  0
LINE
  8
寸法
  6
CONTINUOUS
 10
-157.540907
 20
74.365332
 11
-162.38537
 21
76.62038
  0
ENDBLK
  0
BLOCK
  2
*GRP_0110
 70
    65
 10
0.0
 20
0.0
  0
POLYLINE
  8
寸法
  6
CONTINUOUS
 66
     1
  0
VERTEX
  8
寸法
 10
-150.49568
 20
74.884293
  0
VERTEX
  8
寸法
 10
-147.540907
 20
74.365332
  0
VERTEX
  8
寸法
 10
-149.840335
 20
76.29215
  0
SEQEND
  0
LINE
  8
寸法
  6
CONTINUOUS
 10
-147.540907
 20
74.365332
 11
-152.38537
 21
76.62038
  0
ENDBLK
  0
BLOCK
  2
*GRP_0111
 70
    65
 10
0.0
 20
0.0
  0
POLYLINE
  8
寸法
  6
CONTINUOUS
 66
     1
  0
VERTEX
  8
寸法
 10
-140.49568
 20
74.884293
  0
VERTEX
  8
寸法
 10
-137.540907
 20
74.365332
  0
VERTEX
  8
寸法
 10
-139.840335
 20
76.29215
  0
SEQEND
  0
LINE
  8
寸法
  6
CONTINUOUS
 10
-137.540907
 20
74.365332
 11
-142.38537
 21
76.62038
  0
ENDBLK
  0
BLOCK
  2
*GRP_0112
 70
    65
 10
0.0
 20
0.0
  0
POLYLINE
  8
寸法
  6
CONTINUOUS
 66
     1
  0
VERTEX
  8
寸法
 10
-160.49568
 20
52.47224
  0
VERTEX
  8
寸法
 10
-157.540907
 20
51.95328
  0
VERTEX
  8
寸法
 10
-159.840335
 20
53.880098
  0
SEQEND
  0
LINE
  8
寸法
  6
CONTINUOUS
 10
-157.540907
 20
51.95328
 11
-162.38537
 21
54.208328
  0
ENDBLK
  0
BLOCK
  2
*GRP_0113
 70
    65
 10
0.0
 20
0.0
  0
POLYLINE
  8
寸法
  6
CONTINUOUS
 66
     1
  0
VERTEX
  8
寸法
 10
-150.49568
 20
52.47224
  0
VERTEX
  8
寸法
 10
-147.540907
 20
51.95328
  0
VERTEX
  8
寸法
 10
-149.840335
 20
53.880098
  0
SEQEND
  0
LINE
  8
寸法
  6
CONTINUOUS
 10
-147.540907
 20
51.95328
 11
-152.38537
 21
54.208328
  0
ENDBLK
  0
BLOCK
  2
*GRP_0114
 70
    65
 10
0.0
 20
0.0
  0
POLYLINE
  8
寸法
  6
CONTINUOUS
 66
     1
  0
VERTEX
  8
寸法
 10
-140.49568
 20
52.47224
  0
VERTEX
  8
寸法
 10
-137.540907
 20
51.95328
  0
VERTEX
  8
寸法
 10
-139.840335
 20
53.880098
  0
SEQEND
  0
LINE
  8
寸法
  6
CONTINUOUS
 10
-137.540907
 20
51.95328
 11
-142.38537
 21
54.208328
  0
ENDBLK
  0
BLOCK
  2
*GRP_0115
 70
    65
 10
0.0
 20
0.0
  0
POLYLINE
  8
寸法
  6
CONTINUOUS
 66
     1
  0
VERTEX
  8
寸法
 10
-160.49568
 20
23.933152
  0
VERTEX
  8
寸法
 10
-157.540907
 20
23.414192
  0
VERTEX
  8
寸法
 10
-159.840335
 20
25.34101
  0
SEQEND
  0
LINE
  8
寸法
  6
CONTINUOUS
 10
-157.540907
 20
23.414192
 11
-162.38537
 21
25.66924
  0
ENDBLK
  0
BLOCK
  2
*GRP_0116
 70
    65
 10
0.0
 20
0.0
  0
POLYLINE
  8
寸法
  6
CONTINUOUS
 66
     1
  0
VERTEX
  8
寸法
 10
-150.49568
 20
23.933152
  0
VERTEX
  8
寸法
 10
-147.540907
 20
23.414192
  0
VERTEX
  8
寸法
 10
-149.840335
 20
25.34101
  0
SEQEND
  0
LINE
  8
寸法
  6
CONTINUOUS
 10
-147.540907
 20
23.414192
 11
-152.38537
 21
25.66924
  0
ENDBLK
  0
BLOCK
  2
*GRP_0117
 70
    65
 10
0.0
 20
0.0
  0
POLYLINE
  8
寸法
  6
CONTINUOUS
 66
     1
  0
VERTEX
  8
寸法
 10
-140.49568
 20
23.933152
  0
VERTEX
  8
寸法
 10
-137.540907
 20
23.414192
  0
VERTEX
  8
寸法
 10
-139.840335
 20
25.34101
  0
SEQEND
  0
LINE
  8
寸法
  6
CONTINUOUS
 10
-137.540907
 20
23.414192
 11
-142.38537
 21
25.66924
  0
ENDBLK
  0
BLOCK
  2
*GRP_0118
 70
    65
 10
0.0
 20
0.0
  0
POLYLINE
  8
寸法
  6
CONTINUOUS
 66
     1
  0
VERTEX
  8
寸法
 10
-160.49568
 20
-3.960985
  0
VERTEX
  8
寸法
 10
-157.540907
 20
-4.479945
  0
VERTEX
  8
寸法
 10
-159.840335
 20
-2.553128
  0
SEQEND
  0
LINE
  8
寸法
  6
CONTINUOUS
 10
-157.540907
 20
-4.479945
 11
-162.38537
 21
-2.224898
  0
ENDBLK
  0
BLOCK
  2
*GRP_0119
 70
    65
 10
0.0
 20
0.0
  0
POLYLINE
  8
寸法
  6
CONTINUOUS
 66
     1
  0
VERTEX
  8
寸法
 10
-150.49568
 20
-3.960985
  0
VERTEX
  8
寸法
 10
-147.540907
 20
-4.479945
  0
VERTEX
  8
寸法
 10
-149.840335
 20
-2.553128
  0
SEQEND
  0
LINE
  8
寸法
  6
CONTINUOUS
 10
-147.540907
 20
-4.479945
 11
-152.38537
 21
-2.224898
  0
ENDBLK
  0
BLOCK
  2
*GRP_0120
 70
    65
 10
0.0
 20
0.0
  0
POLYLINE
  8
寸法
  6
CONTINUOUS
 66
     1
  0
VERTEX
  8
寸法
 10
-140.49568
 20
-3.960985
  0
VERTEX
  8
寸法
 10
-137.540907
 20
-4.479945
  0
VERTEX
  8
寸法
 10
-139.840335
 20
-2.553128
  0
SEQEND
  0
LINE
  8
寸法
  6
CONTINUOUS
 10
-137.540907
 20
-4.479945
 11
-142.38537
 21
-2.224898
  0
ENDBLK
  0
BLOCK
  2
*GRP_0121
 70
    65
 10
0.0
 20
0.0
  0
POLYLINE
  8
寸法
  6
CONTINUOUS
 66
     1
  0
VERTEX
  8
寸法
 10
-162.384027
 20
-10.023155
  0
VERTEX
  8
寸法
 10
-164.53879
 20
-7.935812
  0
VERTEX
  8
寸法
 10
-163.71638
 20
-10.820885
  0
SEQEND
  0
LINE
  8
寸法
  6
CONTINUOUS
 10
-164.53879
 20
-7.935812
 11
-162.012733
 21
-12.154785
  0
ENDBLK
  0
BLOCK
  2
*GRP_0122
 70
    65
 10
0.0
 20
0.0
  0
POLYLINE
  8
寸法
  6
CONTINUOUS
 66
     1
  0
VERTEX
  8
寸法
 10
-152.924745
 20
-10.023155
  0
VERTEX
  8
寸法
 10
-155.079508
 20
-7.935812
  0
VERTEX
  8
寸法
 10
-154.257097
 20
-10.820885
  0
SEQEND
  0
LINE
  8
寸法
  6
CONTINUOUS
 10
-155.079508
 20
-7.935812
 11
-152.55345
 21
-12.154785
  0
ENDBLK
  0
BLOCK
  2
*GRP_0123
 70
    65
 10
0.0
 20
0.0
  0
POLYLINE
  8
寸法
  6
CONTINUOUS
 66
     1
  0
VERTEX
  8
寸法
 10
-143.079305
 20
-10.023155
  0
VERTEX
  8
寸法
 10
-145.234068
 20
-7.935812
  0
VERTEX
  8
寸法
 10
-144.411657
 20
-10.820885
  0
SEQEND
  0
LINE
  8
寸法
  6
CONTINUOUS
 10
-145.234068
 20
-7.935812
 11
-142.70801
 21
-12.154785
  0
ENDBLK
  0
BLOCK
  2
*GRP_0124
 70
    65
 10
0.0
 20
0.0
  0
POLYLINE
  8
寸法
  6
CONTINUOUS
 66
     1
  0
VERTEX
  8
寸法
 10
-132.65862
 20
-10.023155
  0
VERTEX
  8
寸法
 10
-134.813382
 20
-7.935812
  0
VERTEX
  8
寸法
 10
-133.990973
 20
-10.820885
  0
SEQEND
  0
LINE
  8
寸法
  6
CONTINUOUS
 10
-134.813382
 20
-7.935812
 11
-132.287325
 21
-12.154785
  0
ENDBLK
  0
BLOCK
  2
*DIM_0125
 70
    65
 10
0.0
 20
0.0
  0
LINE
  8
寸法
  6
CONTINUOUS
 10
8.06777
 20
-44.342677
 11
8.06777
 21
-61.35171
  0
LINE
  8
寸法
  6
CONTINUOUS
 10
5.134438
 20
-59.009345
 11
5.134438
 21
-61.35171
  0
LINE
  8
寸法
  6
CONTINUOUS
 10
8.06777
 20
-61.35171
 11
5.134438
 21
-61.35171
  0
POINT
  8
寸法
 10
8.06777
 20
-61.35171
  0
POINT
  8
寸法
 10
5.134438
 20
-61.35171
  0
TEXT
  7
TextStyle03
  8
寸法
  6
CONTINUOUS
 10
9.1875
 20
-61.0
  1
8.8
 40
3.0
 72
     5
 11
14.0625
 21
-61.0
  0
ENDBLK
  0
BLOCK
  2
*DIM_0126
 70
    65
 10
0.0
 20
0.0
  0
LINE
  8
寸法
  6
CONTINUOUS
 10
-13.998905
 20
-59.009345
 11
-13.998905
 21
-61.35171
  0
LINE
  8
寸法
  6
CONTINUOUS
 10
5.134438
 20
-61.35171
 11
-13.998905
 21
-61.35171
  0
POINT
  8
寸法
 10
-13.998905
 20
-61.35171
  0
TEXT
  7
TextStyle03
  8
寸法
  6
CONTINUOUS
 10
-7.73125
 20
-61.0
  1
57.4
 40
3.0
 72
     5
 11
-1.16875
 21
-61.0
  0
ENDBLK
  0
BLOCK
  2
*DIM_0127
 70
    65
 10
0.0
 20
0.0
  0
LINE
  8
寸法
  6
CONTINUOUS
 10
-16.93223
 20
-44.342677
 11
-16.93223
 21
-61.35171
  0
LINE
  8
寸法
  6
CONTINUOUS
 10
-13.998905
 20
-61.35171
 11
-16.93223
 21
-61.35171
  0
POINT
  8
寸法
 10
-16.93223
 20
-61.35171
  0
TEXT
  7
TextStyle03
  8
寸法
  6
CONTINUOUS
 10
-22.9625
 20
-61.0
  1
8.8
 40
3.0
 72
     5
 11
-18.0875
 21
-61.0
  0
ENDBLK
  0
BLOCK
  2
*DIM_0128
 70
    65
 10
0.0
 20
0.0
  0
LINE
  8
寸法
  6
CONTINUOUS
 10
8.06777
 20
-44.342677
 11
8.06777
 21
-67.303155
  0
LINE
  8
寸法
  6
CONTINUOUS
 10
-16.93223
 20
-44.342677
 11
-16.93223
 21
-67.303155
  0
LINE
  8
寸法
  6
CONTINUOUS
 10
8.06777
 20
-67.303155
 11
-16.93223
 21
-67.303155
  0
POINT
  8
寸法
 10
8.06777
 20
-67.303155
  0
POINT
  8
寸法
 10
-16.93223
 20
-67.303155
  0
TEXT
  7
TextStyle03
  8
寸法
  6
CONTINUOUS
 10
-6.01875
 20
-66.95
  1
75
 40
3.0
 72
     5
 11
-2.83125
 21
-66.95
  0
ENDBLK
  0
BLOCK
  2
*GRP_0129
 70
    65
 10
0.0
 20
0.0
  0
LINE
  8
型材断面
  6
CONTINUOUS
 10
-1.0311
 20
-83.980165
 11
-1.0311
 21
-89.3135
  0
LINE
  8
型材断面
  6
CONTINUOUS
 10
6.835565
 20
-83.980165
 11
-1.0311
 21
-83.980165
  0
ARC
  8
型材断面
  6
CONTINUOUS
 10
7.135568
 20
-83.413494
 40
0.1
 50
0.0
 51
90.0
  0
LINE
  8
型材断面
  6
CONTINUOUS
 10
6.835565
 20
-83.980165
 11
6.835565
 21
-84.2135
  0
ARC
  8
型材断面
  6
CONTINUOUS
 10
6.935568
 20
-84.213494
 40
0.1
 50
180.0
 51
270.0
  0
LINE
  8
型材断面
  6
CONTINUOUS
 10
7.135565
 20
-84.3135
 11
6.935565
 21
-84.3135
  0
LINE
  8
型材断面
  6
CONTINUOUS
 10
7.235565
 20
-84.2135
 11
7.235565
 21
-83.4135
  0
ARC
  8
型材断面
  6
CONTINUOUS
 10
7.135568
 20
-84.213494
 40
0.1
 50
270.0
 51
360.0
  0
LINE
  8
型材断面
  6
CONTINUOUS
 10
7.135565
 20
-83.3135
 11
-1.597768
 21
-83.3135
  0
LINE
  8
型材断面
  6
CONTINUOUS
 10
-1.697768
 20
-83.4135
 11
-1.697768
 21
-84.8135
  0
ARC
  8
型材断面
  6
CONTINUOUS
 10
-1.597766
 20
-83.413494
 40
0.1
 50
90.0
 51
180.0
  0
LINE
  8
型材断面
  6
CONTINUOUS
 10
-1.697768
 20
-85.3135
 11
-1.697768
 21
-89.880165
  0
ARC
  8
型材断面
  6
CONTINUOUS
 10
-1.597766
 20
-89.880161
 40
0.1
 50
180.0
 51
270.0
  0
LINE
  8
型材断面
  6
CONTINUOUS
 10
-0.2311
 20
-89.980165
 11
-1.597768
 21
-89.980165
  0
ARC
  8
型材断面
  6
CONTINUOUS
 10
-0.231099
 20
-89.880161
 40
0.1
 50
270.0
 51
360.0
  0
LINE
  8
型材断面
  6
CONTINUOUS
 10
-0.1311
 20
-89.4135
 11
-0.1311
 21
-89.880165
  0
LINE
  8
型材断面
  6
CONTINUOUS
 10
-0.2311
 20
-89.3135
 11
-1.0311
 21
-89.3135
  0
ARC
  8
型材断面
  6
CONTINUOUS
 10
-0.231099
 20
-89.413494
 40
0.1
 50
0.0
 51
90.0
  0
LINE
  8
型材断面
  6
CONTINUOUS
 10
-2.197768
 20
-84.8135
 11
-1.697768
 21
-84.8135
  0
ARC
  8
型材断面
  6
CONTINUOUS
 10
-2.197766
 20
-84.913494
 40
0.1
 50
90.0
 51
180.0
  0
LINE
  8
型材断面
  6
CONTINUOUS
 10
-2.297768
 20
-84.9135
 11
-2.297768
 21
-85.2135
  0
LINE
  8
型材断面
  6
CONTINUOUS
 10
-2.197768
 20
-85.3135
 11
-1.697768
 21
-85.3135
  0
ARC
  8
型材断面
  6
CONTINUOUS
 10
-2.197766
 20
-85.213494
 40
0.1
 50
180.0
 51
270.0
  0
ENDBLK
  0
BLOCK
  2
*GRP_0130
 70
    65
 10
0.0
 20
0.0
  0
LINE
  8
型材断面
  6
CONTINUOUS
 10
-7.833345
 20
-83.980165
 11
-7.833345
 21
-89.3135
  0
LINE
  8
型材断面
  6
CONTINUOUS
 10
-15.70001
 20
-83.980165
 11
-7.833345
 21
-83.980165
  0
ARC
  8
型材断面
  6
CONTINUOUS
 10
-16.000015
 20
-83.413494
 40
0.1
 50
90.0
 51
180.0
  0
LINE
  8
型材断面
  6
CONTINUOUS
 10
-15.70001
 20
-83.980165
 11
-15.70001
 21
-84.2135
  0
ARC
  8
型材断面
  6
CONTINUOUS
 10
-15.800015
 20
-84.213494
 40
0.1
 50
270.0
 51
360.0
  0
LINE
  8
型材断面
  6
CONTINUOUS
 10
-16.00001
 20
-84.3135
 11
-15.80001
 21
-84.3135
  0
LINE
  8
型材断面
  6
CONTINUOUS
 10
-16.10001
 20
-84.2135
 11
-16.10001
 21
-83.4135
  0
ARC
  8
型材断面
  6
CONTINUOUS
 10
-16.000015
 20
-84.213494
 40
0.1
 50
180.0
 51
270.0
  0
LINE
  8
型材断面
  6
CONTINUOUS
 10
-16.00001
 20
-83.3135
 11
-7.266677
 21
-83.3135
  0
LINE
  8
型材断面
  6
CONTINUOUS
 10
-7.166677
 20
-83.4135
 11
-7.166677
 21
-84.8135
  0
ARC
  8
型材断面
  6
CONTINUOUS
 10
-7.266682
 20
-83.413494
 40
0.1
 50
0.0
 51
90.0
  0
LINE
  8
型材断面
  6
CONTINUOUS
 10
-7.166677
 20
-85.3135
 11
-7.166677
 21
-89.880165
  0
ARC
  8
型材断面
  6
CONTINUOUS
 10
-7.266682
 20
-89.880161
 40
0.1
 50
270.0
 51
360.0
  0
LINE
  8
型材断面
  6
CONTINUOUS
 10
-8.633345
 20
-89.980165
 11
-7.266677
 21
-89.980165
  0
ARC
  8
型材断面
  6
CONTINUOUS
 10
-8.633349
 20
-89.880161
 40
0.1
 50
180.0
 51
270.0
  0
LINE
  8
型材断面
  6
CONTINUOUS
 10
-8.733345
 20
-89.4135
 11
-8.733345
 21
-89.880165
  0
LINE
  8
型材断面
  6
CONTINUOUS
 10
-8.633345
 20
-89.3135
 11
-7.833345
 21
-89.3135
  0
ARC
  8
型材断面
  6
CONTINUOUS
 10
-8.633349
 20
-89.413494
 40
0.1
 50
90.0
 51
180.0
  0
LINE
  8
型材断面
  6
CONTINUOUS
 10
-6.666677
 20
-84.8135
 11
-7.166677
 21
-84.8135
  0
ARC
  8
型材断面
  6
CONTINUOUS
 10
-6.666682
 20
-84.913494
 40
0.1
 50
0.0
 51
90.0
  0
LINE
  8
型材断面
  6
CONTINUOUS
 10
-6.566677
 20
-84.9135
 11
-6.566677
 21
-85.2135
  0
LINE
  8
型材断面
  6
CONTINUOUS
 10
-6.666677
 20
-85.3135
 11
-7.166677
 21
-85.3135
  0
ARC
  8
型材断面
  6
CONTINUOUS
 10
-6.666682
 20
-85.213494
 40
0.1
 50
270.0
 51
360.0
  0
ENDBLK
  0
BLOCK
  2
*GRP_0131
 70
    65
 10
0.0
 20
0.0
  0
LINE
  8
型材断面
  6
CONTINUOUS
 10
7.734445
 20
-93.313495
 11
7.40111
 21
-94.980163
  0
LINE
  8
型材断面
  6
CONTINUOUS
 62
    47
 10
-8.832222
 20
-89.980165
 11
-8.832222
 21
-89.213497
  0
ARC
  8
型材断面
  6
CONTINUOUS
 62
    47
 10
-7.065557
 20
-84.080158
 40
0.1
 50
90.0
 51
180.0
  0
LINE
  8
型材断面
  6
CONTINUOUS
 62
    47
 10
-7.165555
 20
-84.54683
 11
-7.165555
 21
-84.080165
  0
ARC
  8
型材断面
  6
CONTINUOUS
 62
    47
 10
-7.065557
 20
-84.546825
 40
0.1
 50
180.0
 51
270.0
  0
ARC
  8
型材断面
  6
CONTINUOUS
 62
    47
 10
-8.098891
 20
-88.813491
 40
0.1
 50
0.0
 51
90.0
  0
LINE
  8
型材断面
  6
CONTINUOUS
 62
    47
 10
-7.99889
 20
-89.113497
 11
-7.99889
 21
-88.813497
  0
LINE
  8
型材断面
  6
CONTINUOUS
 62
    47
 10
-8.09889
 20
-89.213497
 11
-8.832222
 21
-89.213497
  0
ARC
  8
型材断面
  6
CONTINUOUS
 62
    47
 10
-8.098891
 20
-89.113491
 40
0.1
 50
270.0
 51
360.0
  0
LINE
  8
型材断面
  6
CONTINUOUS
 62
    47
 10
-8.09889
 20
-88.713497
 11
-9.232222
 21
-88.713497
  0
LINE
  8
型材断面
  6
CONTINUOUS
 62
    47
 10
-9.332222
 20
-89.980165
 11
-9.332222
 21
-88.813497
  0
ARC
  8
型材断面
  6
CONTINUOUS
 62
    47
 10
-9.232224
 20
-88.813491
 40
0.1
 50
90.0
 51
180.0
  0
LINE
  8
型材断面
  6
CONTINUOUS
 62
    47
 10
-8.832222
 20
-89.980165
 11
-6.432222
 21
-89.980165
  0
LINE
  8
型材断面
  6
CONTINUOUS
 62
    47
 10
-13.59889
 20
-89.980165
 11
-13.59889
 21
-89.413497
  0
ARC
  8
型材断面
  6
CONTINUOUS
 62
    47
 10
-13.698891
 20
-89.413491
 40
0.1
 50
0.0
 51
90.0
  0
LINE
  8
型材断面
  6
CONTINUOUS
 62
    47
 10
-13.69889
 20
-89.313497
 11
-13.89889
 21
-89.313497
  0
ARC
  8
型材断面
  6
CONTINUOUS
 62
    47
 10
-13.898891
 20
-89.413491
 40
0.1
 50
90.0
 51
180.0
  0
LINE
  8
型材断面
  6
CONTINUOUS
 62
    47
 10
-13.99889
 20
-89.413497
 11
-13.99889
 21
-94.980163
  0
LINE
  8
型材断面
  6
CONTINUOUS
 62
    47
 10
-13.748892
 20
-91.980163
 11
-11.91556
 21
-91.980163
  0
ARC
  8
型材断面
  6
CONTINUOUS
 62
    47
 10
-12.268778
 20
-92.594139
 40
0.25
 50
312.542364
 51
492.542397
  0
ARC
  8
型材断面
  6
CONTINUOUS
 62
    47
 10
-12.832224
 20
-91.980158
 40
0.583333
 50
47.457615
 51
312.542407
  0
ARC
  8
型材断面
  6
CONTINUOUS
 62
    47
 10
-12.268778
 20
-91.366177
 40
0.25
 50
227.457576
 51
407.457618
  0
ARC
  8
型材断面
  6
CONTINUOUS
 62
    47
 10
-12.832224
 20
-91.980158
 40
1.083333
 50
47.457611
 51
90.000044
  0
LINE
  8
型材断面
  6
CONTINUOUS
 10
-16.932222
 20
-95.64683
 11
-16.932222
 21
-93.313495
  0
LINE
  8
型材断面
  6
CONTINUOUS
 10
-13.99889
 20
-94.980163
 11
-16.265555
 21
-94.980163
  0
LINE
  8
型材断面
  6
CONTINUOUS
 62
    47
 10
-4.432222
 20
-95.64683
 11
-16.932222
 21
-95.64683
  0
LINE
  8
型材断面
  6
CONTINUOUS
 62
    47
 10
-12.832225
 20
-91.063497
 11
-12.832225
 21
-93.063495
  0
LINE
  8
型材断面
  6
CONTINUOUS
 10
-4.432222
 20
-94.813497
 11
-13.165557
 21
-94.813497
  0
LINE
  8
型材断面
  6
CONTINUOUS
 10
-13.165557
 20
-94.813497
 11
-13.165557
 21
-93.01094
  0
LINE
  8
型材断面
  6
CONTINUOUS
 10
-12.832225
 20
-90.89683
 11
-12.832225
 21
-90.813497
  0
ARC
  8
型材断面
  6
CONTINUOUS
 62
    47
 10
-12.832224
 20
-91.980158
 40
1.083333
 50
252.079718
 51
312.542389
  0
LINE
  8
型材断面
  6
CONTINUOUS
 10
-12.832225
 20
-90.813497
 11
-5.59889
 21
-90.813497
  0
LINE
  8
型材断面
  6
CONTINUOUS
 62
    47
 10
-9.332222
 20
-89.980165
 11
-13.59889
 21
-89.980165
  0
LINE
  8
型材断面
  6
CONTINUOUS
 62
    47
 10
-7.065555
 20
-83.980165
 11
-4.432222
 21
-83.980165
  0
LINE
  8
型材断面
  6
CONTINUOUS
 10
-5.59889
 20
-90.813497
 11
-5.59889
 21
-84.64683
  0
LINE
  8
型材断面
  6
CONTINUOUS
 62
    47
 10
-6.432222
 20
-89.980165
 11
-6.432222
 21
-84.64683
  0
LINE
  8
型材断面
  6
CONTINUOUS
 62
    47
 10
-7.065555
 20
-84.64683
 11
-6.432222
 21
-84.64683
  0
LINE
  8
型材断面
  6
CONTINUOUS
 62
    47
 10
-5.59889
 20
-84.64683
 11
-4.432222
 21
-84.64683
  0
LINE
  8
型材断面
  6
CONTINUOUS
 62
    47
 10
-0.032222
 20
-89.980165
 11
-0.032222
 21
-89.213497
  0
ARC
  8
型材断面
  6
CONTINUOUS
 62
    47
 10
-1.798891
 20
-84.080158
 40
0.1
 50
0.0
 51
90.0
  0
LINE
  8
型材断面
  6
CONTINUOUS
 62
    47
 10
-1.69889
 20
-84.54683
 11
-1.69889
 21
-84.080165
  0
ARC
  8
型材断面
  6
CONTINUOUS
 62
    47
 10
-1.798891
 20
-84.546825
 40
0.1
 50
270.0
 51
360.0
  0
ARC
  8
型材断面
  6
CONTINUOUS
 62
    47
 10
-0.765558
 20
-88.813491
 40
0.1
 50
90.0
 51
180.0
  0
LINE
  8
型材断面
  6
CONTINUOUS
 62
    47
 10
-0.865555
 20
-89.113497
 11
-0.865555
 21
-88.813497
  0
LINE
  8
型材断面
  6
CONTINUOUS
 62
    47
 10
-0.765555
 20
-89.213497
 11
-0.032222
 21
-89.213497
  0
ARC
  8
型材断面
  6
CONTINUOUS
 62
    47
 10
-0.765558
 20
-89.113491
 40
0.1
 50
180.0
 51
270.0
  0
LINE
  8
型材断面
  6
CONTINUOUS
 62
    47
 10
-0.765555
 20
-88.713497
 11
0.367778
 21
-88.713497
  0
LINE
  8
型材断面
  6
CONTINUOUS
 62
    47
 10
0.467778
 20
-89.980165
 11
0.467778
 21
-88.813497
  0
ARC
  8
型材断面
  6
CONTINUOUS
 62
    47
 10
0.367776
 20
-88.813491
 40
0.1
 50
0.0
 51
90.0
  0
LINE
  8
型材断面
  6
CONTINUOUS
 62
    47
 10
-0.032222
 20
-89.980165
 11
-2.432222
 21
-89.980165
  0
LINE
  8
型材断面
  6
CONTINUOUS
 62
    47
 10
4.734445
 20
-89.980165
 11
4.734445
 21
-89.413497
  0
ARC
  8
型材断面
  6
CONTINUOUS
 62
    47
 10
4.834442
 20
-89.413491
 40
0.1
 50
90.0
 51
180.0
  0
LINE
  8
型材断面
  6
CONTINUOUS
 62
    47
 10
4.834445
 20
-89.313497
 11
5.034445
 21
-89.313497
  0
ARC
  8
型材断面
  6
CONTINUOUS
 62
    47
 10
5.034442
 20
-89.413491
 40
0.1
 50
0.0
 51
90.0
  0
LINE
  8
型材断面
  6
CONTINUOUS
 62
    47
 10
5.134445
 20
-89.413497
 11
5.134445
 21
-94.980163
  0
LINE
  8
型材断面
  6
CONTINUOUS
 62
    47
 10
4.884447
 20
-91.980163
 11
3.051115
 21
-91.980163
  0
ARC
  8
型材断面
  6
CONTINUOUS
 62
    47
 10
3.40433
 20
-92.594139
 40
0.25
 50
47.457603
 51
227.457636
  0
ARC
  8
型材断面
  6
CONTINUOUS
 62
    47
 10
3.967776
 20
-91.980158
 40
0.583333
 50
227.457593
 51
492.542385
  0
ARC
  8
型材断面
  6
CONTINUOUS
 62
    47
 10
3.40433
 20
-91.366177
 40
0.25
 50
132.542382
 51
312.542424
  0
ARC
  8
型材断面
  6
CONTINUOUS
 62
    47
 10
3.967776
 20
-91.980158
 40
1.083333
 50
89.999956
 51
132.542389
  0
LINE
  8
型材断面
  6
CONTINUOUS
 10
8.067778
 20
-95.64683
 11
8.067778
 21
-93.313495
  0
LINE
  8
型材断面
  6
CONTINUOUS
 10
5.134445
 20
-94.980163
 11
7.40111
 21
-94.980163
  0
LINE
  8
型材断面
  6
CONTINUOUS
 62
    47
 10
-4.432222
 20
-95.64683
 11
8.067778
 21
-95.64683
  0
LINE
  8
型材断面
  6
CONTINUOUS
 62
    47
 10
3.96778
 20
-91.063497
 11
3.96778
 21
-93.063495
  0
LINE
  8
型材断面
  6
CONTINUOUS
 10
-4.432222
 20
-94.813497
 11
4.301113
 21
-94.813497
  0
LINE
  8
型材断面
  6
CONTINUOUS
 10
4.301113
 20
-94.813497
 11
4.301113
 21
-93.01094
  0
LINE
  8
型材断面
  6
CONTINUOUS
 10
3.96778
 20
-90.89683
 11
3.96778
 21
-90.813497
  0
ARC
  8
型材断面
  6
CONTINUOUS
 62
    47
 10
3.967776
 20
-91.980158
 40
1.083333
 50
227.457611
 51
287.920282
  0
LINE
  8
型材断面
  6
CONTINUOUS
 10
3.96778
 20
-90.813497
 11
-3.265555
 21
-90.813497
  0
LINE
  8
型材断面
  6
CONTINUOUS
 62
    47
 10
0.467778
 20
-89.980165
 11
4.734445
 21
-89.980165
  0
LINE
  8
型材断面
  6
CONTINUOUS
 62
    47
 10
-1.79889
 20
-83.980165
 11
-4.432222
 21
-83.980165
  0
LINE
  8
型材断面
  6
CONTINUOUS
 10
-3.265555
 20
-90.813497
 11
-3.265555
 21
-84.64683
  0
LINE
  8
型材断面
  6
CONTINUOUS
 62
    47
 10
-2.432222
 20
-89.980165
 11
-2.432222
 21
-84.64683
  0
LINE
  8
型材断面
  6
CONTINUOUS
 62
    47
 10
-1.79889
 20
-84.64683
 11
-2.432222
 21
-84.64683
  0
LINE
  8
型材断面
  6
CONTINUOUS
 62
    47
 10
-3.265555
 20
-84.64683
 11
-4.432222
 21
-84.64683
  0
LINE
  8
型材断面
  6
CONTINUOUS
 10
8.067778
 20
-93.313495
 11
7.734445
 21
-93.313495
  0
LINE
  8
型材断面
  6
CONTINUOUS
 10
-16.59889
 20
-93.313495
 11
-16.265555
 21
-94.980163
  0
LINE
  8
型材断面
  6
CONTINUOUS
 10
-16.932222
 20
-93.313495
 11
-16.59889
 21
-93.313495
  0
ENDBLK
  0
BLOCK
  2
*GRP_0132
 70
    65
 10
0.0
 20
0.0
  0
LINE
  8
ゴム等
  6
CONTINUOUS
 10
1.401113
 20
-88.3135
 11
4.734445
 21
-88.3135
  0
LINE
  8
ゴム等
  6
CONTINUOUS
 10
4.734445
 20
-88.3135
 11
4.734445
 21
-89.980167
  0
LINE
  8
ゴム等
  6
CONTINUOUS
 10
4.734445
 20
-89.980167
 11
1.401113
 21
-89.980167
  0
LINE
  8
ゴム等
  6
CONTINUOUS
 10
1.401113
 20
-88.3135
 11
1.401113
 21
-89.980167
  0
INSERT
  2
*HAT_0008
  8
ゴム等
 10
0.0
 20
0.0
  0
ENDBLK
  0
BLOCK
  2
*GRP_0133
 70
    65
 10
0.0
 20
0.0
  0
LINE
  8
ゴム等
  6
CONTINUOUS
 10
6.835565
 20
-83.980167
 11
6.835565
 21
-86.046835
  0
LINE
  8
ゴム等
  6
CONTINUOUS
 10
6.835565
 20
-86.046835
 11
3.502232
 21
-86.046835
  0
LINE
  8
ゴム等
  6
CONTINUOUS
 10
3.502232
 20
-86.046835
 11
3.502232
 21
-83.980167
  0
LINE
  8
ゴム等
  6
CONTINUOUS
 10
6.835565
 20
-83.980167
 11
3.502232
 21
-83.980167
  0
INSERT
  2
*HAT_0009
  8
ゴム等
 10
0.0
 20
0.0
  0
ENDBLK
  0
BLOCK
  2
*GRP_0134
 70
    65
 10
0.0
 20
0.0
  0
LINE
  8
ゴム等
  6
CONTINUOUS
 10
-10.265557
 20
-88.3135
 11
-13.59889
 21
-88.3135
  0
LINE
  8
ゴム等
  6
CONTINUOUS
 10
-13.59889
 20
-88.3135
 11
-13.59889
 21
-89.980167
  0
LINE
  8
ゴム等
  6
CONTINUOUS
 10
-13.59889
 20
-89.980167
 11
-10.265557
 21
-89.980167
  0
LINE
  8
ゴム等
  6
CONTINUOUS
 10
-10.265557
 20
-88.3135
 11
-10.265557
 21
-89.980167
  0
INSERT
  2
*HAT_0010
  8
ゴム等
 10
0.0
 20
0.0
  0
ENDBLK
  0
BLOCK
  2
*GRP_0135
 70
    65
 10
0.0
 20
0.0
  0
LINE
  8
ゴム等
  6
CONTINUOUS
 10
-15.70001
 20
-83.980167
 11
-15.70001
 21
-86.046835
  0
LINE
  8
ゴム等
  6
CONTINUOUS
 10
-15.70001
 20
-86.046835
 11
-12.366677
 21
-86.046835
  0
LINE
  8
ゴム等
  6
CONTINUOUS
 10
-12.366677
 20
-86.046835
 11
-12.366677
 21
-83.980167
  0
LINE
  8
ゴム等
  6
CONTINUOUS
 10
-15.70001
 20
-83.980167
 11
-12.366677
 21
-83.980167
  0
INSERT
  2
*HAT_0011
  8
ゴム等
 10
0.0
 20
0.0
  0
ENDBLK
  0
BLOCK
  2
*GRP_0136
 70
    65
 10
0.0
 20
0.0
  0
INSERT
  2
*GRP_0140
  8
補助線
  6
CONTINUOUS
 62
    64
 10
0.0
 20
0.0
  0
CIRCLE
  8
ボルト／ビス
  6
CONTINUOUS
 62
    64
 10
-18.432222
 20
-91.980163
 40
1.166668
  0
LINE
  8
ボルト／ビス
  6
CONTINUOUS
 62
    64
 10
-18.245555
 20
-91.60683
 11
-18.245555
 21
-91.341057
  0
LINE
  8
ボルト／ビス
  6
CONTINUOUS
 62
    64
 10
-18.05889
 20
-91.793495
 11
-17.793117
 21
-91.793495
  0
ARC
  8
ボルト／ビス
  6
CONTINUOUS
 62
    64
 10
-18.058891
 20
-91.606827
 40
0.186667
 50
180.0
 51
270.0
  0
LINE
  8
ボルト／ビス
  6
CONTINUOUS
 62
    64
 10
-17.793117
 20
-91.793495
 11
-17.793117
 21
-91.980163
  0
LINE
  8
ボルト／ビス
  6
CONTINUOUS
 62
    64
 10
-18.245555
 20
-91.341057
 11
-18.432222
 21
-91.341057
  0
LINE
  8
ボルト／ビス
  6
CONTINUOUS
 62
    64
 10
-18.245555
 20
-92.353495
 11
-18.245555
 21
-92.619268
  0
LINE
  8
ボルト／ビス
  6
CONTINUOUS
 62
    64
 10
-18.05889
 20
-92.16683
 11
-17.793117
 21
-92.16683
  0
ARC
  8
ボルト／ビス
  6
CONTINUOUS
 62
    64
 10
-18.058891
 20
-92.353493
 40
0.186667
 50
90.0
 51
180.0
  0
LINE
  8
ボルト／ビス
  6
CONTINUOUS
 62
    64
 10
-17.793117
 20
-92.16683
 11
-17.793117
 21
-91.980163
  0
LINE
  8
ボルト／ビス
  6
CONTINUOUS
 62
    64
 10
-18.245555
 20
-92.619268
 11
-18.432222
 21
-92.619268
  0
LINE
  8
ボルト／ビス
  6
CONTINUOUS
 62
    64
 10
-18.61889
 20
-92.353495
 11
-18.61889
 21
-92.619268
  0
LINE
  8
ボルト／ビス
  6
CONTINUOUS
 62
    64
 10
-18.805555
 20
-92.16683
 11
-19.071328
 21
-92.16683
  0
ARC
  8
ボルト／ビス
  6
CONTINUOUS
 62
    64
 10
-18.805558
 20
-92.353493
 40
0.186667
 50
0.0
 51
90.0
  0
LINE
  8
ボルト／ビス
  6
CONTINUOUS
 62
    64
 10
-19.071328
 20
-92.16683
 11
-19.071328
 21
-91.980163
  0
LINE
  8
ボルト／ビス
  6
CONTINUOUS
 62
    64
 10
-18.61889
 20
-92.619268
 11
-18.432222
 21
-92.619268
  0
LINE
  8
ボルト／ビス
  6
CONTINUOUS
 62
    64
 10
-18.61889
 20
-91.60683
 11
-18.61889
 21
-91.341057
  0
LINE
  8
ボルト／ビス
  6
CONTINUOUS
 62
    64
 10
-18.805555
 20
-91.793495
 11
-19.071328
 21
-91.793495
  0
ARC
  8
ボルト／ビス
  6
CONTINUOUS
 62
    64
 10
-18.805558
 20
-91.606827
 40
0.186667
 50
270.0
 51
360.0
  0
LINE
  8
ボルト／ビス
  6
CONTINUOUS
 62
    64
 10
-19.071328
 20
-91.793495
 11
-19.071328
 21
-91.980163
  0
LINE
  8
ボルト／ビス
  6
CONTINUOUS
 62
    64
 10
-18.61889
 20
-91.341057
 11
-18.432222
 21
-91.341057
  0
ENDBLK
  0
BLOCK
  2
*GRP_0137
 70
    65
 10
0.0
 20
0.0
  0
INSERT
  2
*GRP_0141
  8
補助線
  6
CONTINUOUS
 62
    64
 10
0.0
 20
0.0
  0
CIRCLE
  8
ボルト／ビス
  6
CONTINUOUS
 62
    64
 10
9.567778
 20
-91.980163
 40
1.166668
  0
LINE
  8
ボルト／ビス
  6
CONTINUOUS
 62
    64
 10
9.38111
 20
-91.60683
 11
9.38111
 21
-91.341057
  0
LINE
  8
ボルト／ビス
  6
CONTINUOUS
 62
    64
 10
9.194445
 20
-91.793495
 11
8.928672
 21
-91.793495
  0
ARC
  8
ボルト／ビス
  6
CONTINUOUS
 62
    64
 10
9.194443
 20
-91.606827
 40
0.186667
 50
270.0
 51
360.0
  0
LINE
  8
ボルト／ビス
  6
CONTINUOUS
 62
    64
 10
8.928672
 20
-91.793495
 11
8.928672
 21
-91.980163
  0
LINE
  8
ボルト／ビス
  6
CONTINUOUS
 62
    64
 10
9.38111
 20
-91.341057
 11
9.567778
 21
-91.341057
  0
LINE
  8
ボルト／ビス
  6
CONTINUOUS
 62
    64
 10
9.38111
 20
-92.353495
 11
9.38111
 21
-92.619268
  0
LINE
  8
ボルト／ビス
  6
CONTINUOUS
 62
    64
 10
9.194445
 20
-92.16683
 11
8.928672
 21
-92.16683
  0
ARC
  8
ボルト／ビス
  6
CONTINUOUS
 62
    64
 10
9.194443
 20
-92.353493
 40
0.186667
 50
0.0
 51
90.0
  0
LINE
  8
ボルト／ビス
  6
CONTINUOUS
 62
    64
 10
8.928672
 20
-92.16683
 11
8.928672
 21
-91.980163
  0
LINE
  8
ボルト／ビス
  6
CONTINUOUS
 62
    64
 10
9.38111
 20
-92.619268
 11
9.567778
 21
-92.619268
  0
LINE
  8
ボルト／ビス
  6
CONTINUOUS
 62
    64
 10
9.754445
 20
-92.353495
 11
9.754445
 21
-92.619268
  0
LINE
  8
ボルト／ビス
  6
CONTINUOUS
 62
    64
 10
9.94111
 20
-92.16683
 11
10.206883
 21
-92.16683
  0
ARC
  8
ボルト／ビス
  6
CONTINUOUS
 62
    64
 10
9.941109
 20
-92.353493
 40
0.186667
 50
90.0
 51
180.0
  0
LINE
  8
ボルト／ビス
  6
CONTINUOUS
 62
    64
 10
10.206883
 20
-92.16683
 11
10.206883
 21
-91.980163
  0
LINE
  8
ボルト／ビス
  6
CONTINUOUS
 62
    64
 10
9.754445
 20
-92.619268
 11
9.567778
 21
-92.619268
  0
LINE
  8
ボルト／ビス
  6
CONTINUOUS
 62
    64
 10
9.754445
 20
-91.60683
 11
9.754445
 21
-91.341057
  0
LINE
  8
ボルト／ビス
  6
CONTINUOUS
 62
    64
 10
9.94111
 20
-91.793495
 11
10.206883
 21
-91.793495
  0
ARC
  8
ボルト／ビス
  6
CONTINUOUS
 62
    64
 10
9.941109
 20
-91.606827
 40
0.186667
 50
180.0
 51
270.0
  0
LINE
  8
ボルト／ビス
  6
CONTINUOUS
 62
    64
 10
10.206883
 20
-91.793495
 11
10.206883
 21
-91.980163
  0
LINE
  8
ボルト／ビス
  6
CONTINUOUS
 62
    64
 10
9.754445
 20
-91.341057
 11
9.567778
 21
-91.341057
  0
ENDBLK
  0
BLOCK
  2
*GRP_0138
 70
    65
 10
0.0
 20
0.0
  0
INSERT
  2
*GRP_0142
  8
補助線
  6
CONTINUOUS
 62
    64
 10
0.0
 20
0.0
  0
CIRCLE
  8
ボルト／ビス
  6
CONTINUOUS
 62
    64
 10
-12.832225
 20
-91.980163
 40
1.166668
  0
LINE
  8
ボルト／ビス
  6
CONTINUOUS
 62
    64
 10
-12.645557
 20
-91.60683
 11
-12.645557
 21
-91.341057
  0
LINE
  8
ボルト／ビス
  6
CONTINUOUS
 62
    64
 10
-12.458893
 20
-91.793495
 11
-12.19312
 21
-91.793495
  0
ARC
  8
ボルト／ビス
  6
CONTINUOUS
 62
    64
 10
-12.458893
 20
-91.606827
 40
0.186667
 50
180.0
 51
270.0
  0
LINE
  8
ボルト／ビス
  6
CONTINUOUS
 62
    64
 10
-12.19312
 20
-91.793495
 11
-12.19312
 21
-91.980163
  0
LINE
  8
ボルト／ビス
  6
CONTINUOUS
 62
    64
 10
-12.645557
 20
-91.341057
 11
-12.832225
 21
-91.341057
  0
LINE
  8
ボルト／ビス
  6
CONTINUOUS
 62
    64
 10
-12.645557
 20
-92.353495
 11
-12.645557
 21
-92.619268
  0
LINE
  8
ボルト／ビス
  6
CONTINUOUS
 62
    64
 10
-12.458893
 20
-92.16683
 11
-12.19312
 21
-92.16683
  0
ARC
  8
ボルト／ビス
  6
CONTINUOUS
 62
    64
 10
-12.458893
 20
-92.353493
 40
0.186667
 50
90.0
 51
180.0
  0
LINE
  8
ボルト／ビス
  6
CONTINUOUS
 62
    64
 10
-12.19312
 20
-92.16683
 11
-12.19312
 21
-91.980163
  0
LINE
  8
ボルト／ビス
  6
CONTINUOUS
 62
    64
 10
-12.645557
 20
-92.619268
 11
-12.832225
 21
-92.619268
  0
LINE
  8
ボルト／ビス
  6
CONTINUOUS
 62
    64
 10
-13.018893
 20
-92.353495
 11
-13.018893
 21
-92.619268
  0
LINE
  8
ボルト／ビス
  6
CONTINUOUS
 62
    64
 10
-13.205558
 20
-92.16683
 11
-13.47133
 21
-92.16683
  0
ARC
  8
ボルト／ビス
  6
CONTINUOUS
 62
    64
 10
-13.20556
 20
-92.353493
 40
0.186667
 50
0.0
 51
90.0
  0
LINE
  8
ボルト／ビス
  6
CONTINUOUS
 62
    64
 10
-13.47133
 20
-92.16683
 11
-13.47133
 21
-91.980163
  0
LINE
  8
ボルト／ビス
  6
CONTINUOUS
 62
    64
 10
-13.018893
 20
-92.619268
 11
-12.832225
 21
-92.619268
  0
LINE
  8
ボルト／ビス
  6
CONTINUOUS
 62
    64
 10
-13.018893
 20
-91.60683
 11
-13.018893
 21
-91.341057
  0
LINE
  8
ボルト／ビス
  6
CONTINUOUS
 62
    64
 10
-13.205558
 20
-91.793495
 11
-13.47133
 21
-91.793495
  0
ARC
  8
ボルト／ビス
  6
CONTINUOUS
 62
    64
 10
-13.20556
 20
-91.606827
 40
0.186667
 50
270.0
 51
360.0
  0
LINE
  8
ボルト／ビス
  6
CONTINUOUS
 62
    64
 10
-13.47133
 20
-91.793495
 11
-13.47133
 21
-91.980163
  0
LINE
  8
ボルト／ビス
  6
CONTINUOUS
 62
    64
 10
-13.018893
 20
-91.341057
 11
-12.832225
 21
-91.341057
  0
ENDBLK
  0
BLOCK
  2
*GRP_0139
 70
    65
 10
0.0
 20
0.0
  0
INSERT
  2
*GRP_0143
  8
補助線
  6
CONTINUOUS
 62
    64
 10
0.0
 20
0.0
  0
CIRCLE
  8
ボルト／ビス
  6
CONTINUOUS
 62
    64
 10
3.96778
 20
-91.980163
 40
1.166668
  0
LINE
  8
ボルト／ビス
  6
CONTINUOUS
 62
    64
 10
4.154448
 20
-91.60683
 11
4.154448
 21
-91.341057
  0
LINE
  8
ボルト／ビス
  6
CONTINUOUS
 62
    64
 10
4.341113
 20
-91.793495
 11
4.606885
 21
-91.793495
  0
ARC
  8
ボルト／ビス
  6
CONTINUOUS
 62
    64
 10
4.341112
 20
-91.606827
 40
0.186667
 50
180.0
 51
270.0
  0
LINE
  8
ボルト／ビス
  6
CONTINUOUS
 62
    64
 10
4.606885
 20
-91.793495
 11
4.606885
 21
-91.980163
  0
LINE
  8
ボルト／ビス
  6
CONTINUOUS
 62
    64
 10
4.154448
 20
-91.341057
 11
3.96778
 21
-91.341057
  0
LINE
  8
ボルト／ビス
  6
CONTINUOUS
 62
    64
 10
4.154448
 20
-92.353495
 11
4.154448
 21
-92.619268
  0
LINE
  8
ボルト／ビス
  6
CONTINUOUS
 62
    64
 10
4.341113
 20
-92.16683
 11
4.606885
 21
-92.16683
  0
ARC
  8
ボルト／ビス
  6
CONTINUOUS
 62
    64
 10
4.341112
 20
-92.353493
 40
0.186667
 50
90.0
 51
180.0
  0
LINE
  8
ボルト／ビス
  6
CONTINUOUS
 62
    64
 10
4.606885
 20
-92.16683
 11
4.606885
 21
-91.980163
  0
LINE
  8
ボルト／ビス
  6
CONTINUOUS
 62
    64
 10
4.154448
 20
-92.619268
 11
3.96778
 21
-92.619268
  0
LINE
  8
ボルト／ビス
  6
CONTINUOUS
 62
    64
 10
3.781113
 20
-92.353495
 11
3.781113
 21
-92.619268
  0
LINE
  8
ボルト／ビス
  6
CONTINUOUS
 62
    64
 10
3.594448
 20
-92.16683
 11
3.328675
 21
-92.16683
  0
ARC
  8
ボルト／ビス
  6
CONTINUOUS
 62
    64
 10
3.594445
 20
-92.353493
 40
0.186667
 50
0.0
 51
90.0
  0
LINE
  8
ボルト／ビス
  6
CONTINUOUS
 62
    64
 10
3.328675
 20
-92.16683
 11
3.328675
 21
-91.980163
  0
LINE
  8
ボルト／ビス
  6
CONTINUOUS
 62
    64
 10
3.781113
 20
-92.619268
 11
3.96778
 21
-92.619268
  0
LINE
  8
ボルト／ビス
  6
CONTINUOUS
 62
    64
 10
3.781113
 20
-91.60683
 11
3.781113
 21
-91.341057
  0
LINE
  8
ボルト／ビス
  6
CONTINUOUS
 62
    64
 10
3.594448
 20
-91.793495
 11
3.328675
 21
-91.793495
  0
ARC
  8
ボルト／ビス
  6
CONTINUOUS
 62
    64
 10
3.594445
 20
-91.606827
 40
0.186667
 50
270.0
 51
360.0
  0
LINE
  8
ボルト／ビス
  6
CONTINUOUS
 62
    64
 10
3.328675
 20
-91.793495
 11
3.328675
 21
-91.980163
  0
LINE
  8
ボルト／ビス
  6
CONTINUOUS
 62
    64
 10
3.781113
 20
-91.341057
 11
3.96778
 21
-91.341057
  0
ENDBLK
  0
BLOCK
  2
*GRP_0140
 70
    65
 10
0.0
 20
0.0
  0
LINE
  8
補助線
  6
BYBLOCK
 62
    64
 10
-16.69889
 20
-91.980163
 11
-20.165555
 21
-91.980163
  0
LINE
  8
補助線
  6
BYBLOCK
 62
    64
 10
-18.432222
 20
-90.24683
 11
-18.432222
 21
-93.713495
  0
ENDBLK
  0
BLOCK
  2
*GRP_0141
 70
    65
 10
0.0
 20
0.0
  0
LINE
  8
補助線
  6
BYBLOCK
 62
    64
 10
7.834445
 20
-91.980163
 11
11.30111
 21
-91.980163
  0
LINE
  8
補助線
  6
BYBLOCK
 62
    64
 10
9.567778
 20
-90.24683
 11
9.567778
 21
-93.713495
  0
ENDBLK
  0
BLOCK
  2
*GRP_0142
 70
    65
 10
0.0
 20
0.0
  0
LINE
  8
補助線
  6
BYBLOCK
 62
    64
 10
-11.098892
 20
-91.980163
 11
-14.565557
 21
-91.980163
  0
LINE
  8
補助線
  6
BYBLOCK
 62
    64
 10
-12.832225
 20
-90.24683
 11
-12.832225
 21
-93.713495
  0
ENDBLK
  0
BLOCK
  2
*GRP_0143
 70
    65
 10
0.0
 20
0.0
  0
LINE
  8
補助線
  6
BYBLOCK
 62
    64
 10
5.701113
 20
-91.980163
 11
2.234447
 21
-91.980163
  0
LINE
  8
補助線
  6
BYBLOCK
 62
    64
 10
3.96778
 20
-90.24683
 11
3.96778
 21
-93.713495
  0
ENDBLK
  0
BLOCK
  2
*DIM_0144
 70
    65
 10
0.0
 20
0.0
  0
LINE
  8
寸法
  6
CONTINUOUS
 10
8.067778
 20
-100.64683
 11
8.067778
 21
-103.700487
  0
LINE
  8
寸法
  6
CONTINUOUS
 10
-16.932222
 20
-100.64683
 11
-16.932222
 21
-103.700487
  0
LINE
  8
寸法
  6
CONTINUOUS
 10
8.067778
 20
-103.700487
 11
-16.932222
 21
-103.700487
  0
POINT
  8
寸法
 10
8.067778
 20
-103.700487
  0
POINT
  8
寸法
 10
-16.932222
 20
-103.700487
  0
TEXT
  7
TextStyle03
  8
寸法
  6
CONTINUOUS
 10
-6.01875
 20
-103.35
  1
75
 40
3.0
 72
     5
 11
-2.83125
 21
-103.35
  0
ENDBLK
  0
BLOCK
  2
*GRP_0145
 70
    65
 10
0.0
 20
0.0
  0
POLYLINE
  8
寸法
  6
CONTINUOUS
 66
     1
  0
VERTEX
  8
寸法
 10
11.646738
 20
-92.60039
  0
VERTEX
  8
寸法
 10
15.015665
 20
-101.043408
  0
VERTEX
  8
寸法
 10
16.918082
 20
-101.043408
  0
SEQEND
  0
ENDBLK
  0
BLOCK
  2
*GRP_0146
 70
    65
 10
0.0
 20
0.0
  0
LINE
  8
型材断面
  6
CONTINUOUS
 62
    47
 10
129.095578
 20
4.115515
 11
129.095578
 21
14.43938
  0
LINE
  8
型材断面
  6
CONTINUOUS
 62
    47
 10
167.762313
 20
7.885685
 11
129.095578
 21
14.43938
  0
LINE
  8
型材断面
  6
CONTINUOUS
 62
    47
 10
167.762313
 20
7.885685
 11
167.762313
 21
4.115515
  0
LINE
  8
型材断面
  6
CONTINUOUS
 62
    47
 10
163.42894
 20
3.44889
 11
168.428858
 21
3.44889
  0
LINE
  8
型材断面
  6
CONTINUOUS
 62
    47
 10
134.962207
 20
4.115515
 11
129.095578
 21
4.115515
  0
LINE
  8
型材断面
  6
CONTINUOUS
 62
    47
 10
134.962207
 20
3.44889
 11
128.42892
 21
3.44889
  0
LINE
  8
型材断面
  6
CONTINUOUS
 62
    47
 10
135.095598
 20
3.58222
 11
135.095598
 21
3.982243
  0
LINE
  8
型材断面
  6
CONTINUOUS
 62
    47
 10
160.228875
 20
4.115515
 11
167.762313
 21
4.115515
  0
LINE
  8
型材断面
  6
CONTINUOUS
 62
    47
 10
160.228875
 20
3.44889
 11
162.762225
 21
3.44889
  0
LINE
  8
型材断面
  6
CONTINUOUS
 62
    47
 10
160.095602
 20
3.58222
 11
160.095602
 21
3.982243
  0
LINE
  8
型材断面
  6
CONTINUOUS
 62
    47
 10
168.428858
 20
3.44889
 11
168.428858
 21
8.448868
  0
LINE
  8
型材断面
  6
CONTINUOUS
 62
    47
 10
168.428858
 20
8.448868
 11
139.095543
 21
13.420673
  0
LINE
  8
型材断面
  6
CONTINUOUS
 62
    47
 10
138.428935
 20
13.533672
 11
129.095578
 21
15.115547
  0
LINE
  8
型材断面
  6
CONTINUOUS
 62
    47
 10
138.428935
 20
16.115525
 11
136.929
 21
16.115525
  0
LINE
  8
型材断面
  6
CONTINUOUS
 62
    47
 10
136.929
 20
17.782195
 11
137.328935
 21
17.782195
  0
LINE
  8
型材断面
  6
CONTINUOUS
 62
    47
 10
137.328935
 20
17.782195
 11
137.328935
 21
16.782205
  0
LINE
  8
型材断面
  6
CONTINUOUS
 62
    47
 10
137.328935
 20
16.782205
 11
138.428935
 21
16.782205
  0
LINE
  8
型材断面
  6
CONTINUOUS
 62
    47
 10
138.428935
 20
16.115525
 11
138.428935
 21
13.533672
  0
LINE
  8
型材断面
  6
CONTINUOUS
 62
    47
 10
136.929
 20
17.782195
 11
136.929
 21
16.115525
  0
ARC
  8
型材断面
  6
CONTINUOUS
 62
    47
 10
134.962209
 20
3.982241
 40
0.133333
 50
359.997253
 51
449.998627
  0
ARC
  8
型材断面
  6
CONTINUOUS
 62
    47
 10
134.962209
 20
3.582218
 40
0.133333
 50
269.99588
 51
359.997253
  0
ARC
  8
型材断面
  6
CONTINUOUS
 62
    47
 10
160.228876
 20
3.982241
 40
0.133333
 50
89.998627
 51
180.0
  0
ARC
  8
型材断面
  6
CONTINUOUS
 62
    47
 10
160.228876
 20
3.582218
 40
0.133333
 50
180.0
 51
269.99588
  0
LINE
  8
型材断面
  6
CONTINUOUS
 62
    47
 10
137.328935
 20
30.78212
 11
136.929
 21
30.78212
  0
LINE
  8
型材断面
  6
CONTINUOUS
 62
    47
 10
137.328935
 20
30.11544
 11
138.428935
 21
30.11544
  0
LINE
  8
型材断面
  6
CONTINUOUS
 62
    47
 10
136.929
 20
30.78212
 11
139.095543
 21
30.78212
  0
LINE
  8
型材断面
  6
CONTINUOUS
 62
    47
 10
139.095543
 20
30.115567
 11
139.095543
 21
30.78212
  0
LINE
  8
型材断面
  6
CONTINUOUS
 62
    47
 10
138.428935
 20
30.115567
 11
137.328935
 21
30.115567
  0
LINE
  8
型材断面
  6
CONTINUOUS
 62
    47
 10
138.428935
 20
23.115527
 11
130.762275
 21
23.115527
  0
LINE
  8
型材断面
  6
CONTINUOUS
 62
    47
 10
130.762275
 20
23.115527
 11
130.762275
 21
24.448845
  0
LINE
  8
型材断面
  6
CONTINUOUS
 62
    47
 10
130.762275
 20
24.448845
 11
131.16221
 21
24.448845
  0
LINE
  8
型材断面
  6
CONTINUOUS
 62
    47
 10
131.16221
 20
23.782225
 11
131.16221
 21
24.448845
  0
LINE
  8
型材断面
  6
CONTINUOUS
 62
    47
 10
136.09571
 20
25.048825
 11
134.76234
 21
25.048825
  0
LINE
  8
型材断面
  6
CONTINUOUS
 62
    47
 10
134.76234
 20
25.048825
 11
134.76234
 21
23.782155
  0
LINE
  8
型材断面
  6
CONTINUOUS
 62
    47
 10
135.262303
 20
23.782155
 11
135.262303
 21
24.548825
  0
LINE
  8
型材断面
  6
CONTINUOUS
 62
    47
 10
135.262303
 20
24.548825
 11
136.09571
 21
24.548825
  0
LINE
  8
型材断面
  6
CONTINUOUS
 62
    47
 10
136.09571
 20
24.548825
 11
136.09571
 21
25.048825
  0
LINE
  8
型材断面
  6
CONTINUOUS
 62
    47
 10
131.16221
 20
23.782225
 11
134.76234
 21
23.782225
  0
LINE
  8
型材断面
  6
CONTINUOUS
 62
    47
 10
135.262303
 20
23.782155
 11
138.428935
 21
23.782155
  0
LINE
  8
型材断面
  6
CONTINUOUS
 62
    47
 10
138.428935
 20
16.782205
 11
138.428935
 21
23.115527
  0
LINE
  8
型材断面
  6
CONTINUOUS
 62
    47
 10
138.428935
 20
30.115567
 11
138.428935
 21
23.782155
  0
LINE
  8
型材断面
  6
CONTINUOUS
 10
136.929
 20
29.115455
 11
137.328935
 21
29.115455
  0
LINE
  8
型材断面
  6
CONTINUOUS
 62
    47
 10
137.328935
 20
30.11544
 11
137.328935
 21
29.115455
  0
LINE
  8
型材断面
  6
CONTINUOUS
 62
    47
 10
139.962242
 20
28.015532
 11
139.095543
 21
28.015532
  0
LINE
  8
型材断面
  6
CONTINUOUS
 62
    47
 10
139.962242
 20
27.615555
 11
139.095543
 21
27.615555
  0
LINE
  8
型材断面
  6
CONTINUOUS
 62
    47
 10
140.095515
 20
27.748887
 11
140.095515
 21
27.882217
  0
ARC
  8
型材断面
  6
CONTINUOUS
 62
    47
 10
139.962245
 20
27.882216
 40
0.133333
 50
359.997253
 51
449.998627
  0
ARC
  8
型材断面
  6
CONTINUOUS
 62
    47
 10
139.962245
 20
27.748885
 40
0.133333
 50
269.99588
 51
359.997253
  0
LINE
  8
型材断面
  6
CONTINUOUS
 62
    47
 10
148.961705
 20
27.615555
 11
150.495012
 21
27.615555
  0
LINE
  8
型材断面
  6
CONTINUOUS
 62
    47
 10
148.961705
 20
28.015532
 11
149.828428
 21
28.015532
  0
LINE
  8
型材断面
  6
CONTINUOUS
 62
    47
 10
148.828433
 20
27.882217
 11
148.828433
 21
27.748887
  0
ARC
  8
型材断面
  6
CONTINUOUS
 62
    47
 10
148.961707
 20
27.748885
 40
0.133333
 50
180.0
 51
269.99588
  0
ARC
  8
型材断面
  6
CONTINUOUS
 62
    47
 10
148.961707
 20
27.882216
 40
0.133333
 50
89.998627
 51
180.0
  0
LINE
  8
型材断面
  6
CONTINUOUS
 62
    47
 10
139.095543
 20
13.420673
 11
139.095543
 21
27.615555
  0
LINE
  8
型材断面
  6
CONTINUOUS
 10
139.095543
 20
29.115567
 11
149.828428
 21
29.115567
  0
LINE
  8
型材断面
  6
CONTINUOUS
 62
    47
 10
149.828428
 20
28.015532
 11
149.828428
 21
29.115567
  0
LINE
  8
型材断面
  6
CONTINUOUS
 62
    47
 10
139.095543
 20
28.015532
 11
139.095543
 21
29.115567
  0
LINE
  8
型材断面
  6
CONTINUOUS
 10
145.095077
 20
30.015567
 11
144.995077
 21
30.115567
  0
LINE
  8
型材断面
  6
CONTINUOUS
 62
    47
 10
139.095543
 20
30.115567
 11
144.995077
 21
30.115567
  0
LINE
  8
型材断面
  6
CONTINUOUS
 10
145.095077
 20
30.015567
 11
145.195077
 21
30.115567
  0
LINE
  8
型材断面
  6
CONTINUOUS
 62
    47
 10
145.195077
 20
30.115567
 11
150.495012
 21
30.115567
  0
LINE
  8
型材断面
  6
CONTINUOUS
 10
150.495012
 20
27.615555
 11
150.495012
 21
30.115567
  0
LINE
  8
型材断面
  6
CONTINUOUS
 62
    47
 10
162.762225
 20
3.44889
 11
162.762225
 21
-1.55111
  0
LINE
  8
型材断面
  6
CONTINUOUS
 10
163.428953
 20
-1.55111
 11
162.762225
 21
-1.55111
  0
LINE
  8
型材断面
  6
CONTINUOUS
 10
163.328953
 20
0.94889
 11
163.428953
 21
1.04889
  0
LINE
  8
型材断面
  6
CONTINUOUS
 10
163.328953
 20
0.94889
 11
163.428953
 21
0.84889
  0
LINE
  8
型材断面
  6
CONTINUOUS
 62
    47
 10
163.42894
 20
3.44889
 11
163.42894
 21
1.048877
  0
LINE
  8
型材断面
  6
CONTINUOUS
 62
    47
 10
163.42894
 20
0.848903
 11
163.42894
 21
-1.55111
  0
LINE
  8
型材断面
  6
CONTINUOUS
 10
129.095578
 20
18.115547
 11
128.42892
 21
18.115547
  0
LINE
  8
型材断面
  6
CONTINUOUS
 62
    47
 10
129.095578
 20
15.115547
 11
129.095578
 21
18.115547
  0
LINE
  8
型材断面
  6
CONTINUOUS
 62
    47
 10
128.42892
 20
3.44889
 11
128.42892
 21
18.115547
  0
LINE
  8
型材断面
  6
CONTINUOUS
 10
136.929
 20
30.78212
 11
136.929
 21
29.115455
  0
CIRCLE
  8
LAYER010
  6
CONTINUOUS
 62
     7
 10
168.428858
 20
8.448868
 40
0.11111
  0
ENDBLK
  0
ENDSEC
  0
SECTION
  2
ENTITIES
  0
POLYLINE
  8
通り芯
  6
CONTINUOUS
 66
     1
 70
     1
  0
VERTEX
  8
通り芯
 10
-210.0
 20
-148.5
  0
VERTEX
  8
通り芯
 10
210.0
 20
-148.5
  0
VERTEX
  8
通り芯
 10
210.0
 20
148.5
  0
VERTEX
  8
通り芯
 10
-210.0
 20
148.5
  0
SEQEND
  0
LINE
  8
通り芯
  6
CONTINUOUS
 62
    64
 10
-75.017003
 20
-33.445093
 11
-75.017003
 21
-21.059232
  0
LINE
  8
通り芯
  6
CONTINUOUS
 62
    64
 10
66.152542
 20
-33.445093
 11
66.152542
 21
-21.059232
  0
LINE
  8
通り芯
  6
CONTINUOUS
 10
-79.66702
 20
-28.342652
 11
-79.66702
 21
-29.009303
  0
LINE
  8
通り芯
  6
CONTINUOUS
 10
-69.1008
 20
-28.342652
 11
-69.1008
 21
-29.009303
  0
LINE
  8
通り芯
  6
CONTINUOUS
 62
    15
 10
-79.66702
 20
-29.009303
 11
-69.1008
 21
-29.009303
  0
LINE
  8
通り芯
  6
CONTINUOUS
 10
-79.66702
 20
-29.009303
 11
-69.1008
 21
-28.342652
  0
LINE
  8
通り芯
  6
CONTINUOUS
 62
    64
 10
66.152542
 20
-33.445093
 11
66.152542
 21
-21.059232
  0
LINE
  8
通り芯
  6
CONTINUOUS
 10
70.80256
 20
-28.342652
 11
70.80256
 21
-29.009303
  0
LINE
  8
通り芯
  6
CONTINUOUS
 10
60.23634
 20
-28.342652
 11
60.23634
 21
-29.009303
  0
LINE
  8
通り芯
  6
CONTINUOUS
 62
    15
 10
70.80256
 20
-29.009303
 11
60.23634
 21
-29.009303
  0
LINE
  8
通り芯
  6
CONTINUOUS
 10
70.80256
 20
-29.009303
 11
60.23634
 21
-28.342652
  0
INSERT
  2
*GRP_0002
  8
型材
  6
DOT
 10
0.0
 20
0.0
  0
INSERT
  2
*GRP_0003
  8
型材
  6
DOT
 10
0.0
 20
0.0
  0
INSERT
  2
*GRP_0001
  8
型材断面
  6
CONTINUOUS
 10
0.0
 20
0.0
  0
INSERT
  2
*GRP_0004
  8
型材断面
  6
CONTINUOUS
 10
0.0
 20
0.0
  0
LINE
  8
型材断面
  6
CONTINUOUS
 10
-71.68433
 20
-71.787478
 11
-91.98001
 21
-92.083155
  0
LINE
  8
型材断面
  6
CONTINUOUS
 10
-71.68433
 20
-74.1445
 11
-89.622985
 21
-92.083155
  0
LINE
  8
型材断面
  6
CONTINUOUS
 10
-71.68433
 20
-76.501523
 11
-87.265963
 21
-92.083155
  0
LINE
  8
型材断面
  6
CONTINUOUS
 10
-121.68437
 20
-74.009325
 11
-71.68433
 21
-67.342658
  0
LINE
  8
型材断面
  6
CONTINUOUS
 10
-121.67361
 20
-81.757557
 11
-112.731688
 21
-72.815635
  0
LINE
  8
型材断面
  6
CONTINUOUS
 10
-121.67361
 20
-84.11458
 11
-110.012045
 21
-72.453017
  0
LINE
  8
型材断面
  6
CONTINUOUS
 10
-121.67361
 20
-86.471602
 11
-107.292405
 21
-72.090398
  0
LINE
  8
型材断面
  6
CONTINUOUS
 62
    47
 10
-121.68437
 20
-92.083155
 11
-121.68437
 21
-74.009325
  0
LINE
  8
型材断面
  6
CONTINUOUS
 62
    47
 10
-125.0177
 20
-92.083155
 11
-125.0177
 21
-74.009325
  0
ARC
  8
型材断面
  6
CONTINUOUS
 10
-121.684367
 20
-74.009323
 40
3.333333
 50
97.594638
 51
180.0
  0
LINE
  8
型材断面
  6
CONTINUOUS
 10
-106.91741
 20
-68.677567
 11
-122.124913
 21
-70.705232
  0
LINE
  8
型材断面
  6
CONTINUOUS
 10
-103.172772
 20
-71.541115
 11
-103.172772
 21
-71.541112
  0
ARC
  8
型材断面
  6
CONTINUOUS
 10
-106.476864
 20
-71.981657
 40
3.333333
 50
7.59463
 51
97.594638
  0
POLYLINE
  8
型材断面
  6
CONTINUOUS
 66
     1
  0
VERTEX
  8
型材断面
 10
-116.7616
 20
-62.052445
  0
VERTEX
  8
型材断面
 10
-119.777077
 20
-68.189567
  0
VERTEX
  8
型材断面
 10
-119.777077
 20
-70.392188
  0
SEQEND
  0
LINE
  8
型材断面
  6
CONTINUOUS
 10
-64.017665
 20
-54.009325
 11
-64.017665
 21
-92.083155
  0
LINE
  8
型材断面
  6
CONTINUOUS
 10
-63.68433
 20
-54.009325
 11
-63.68433
 21
-92.083155
  0
LINE
  8
型材断面
  6
CONTINUOUS
 10
-60.017665
 20
-54.009325
 11
-60.017665
 21
-92.083155
  0
LINE
  8
型材断面
  6
CONTINUOUS
 10
-60.350997
 20
-54.009325
 11
-60.350997
 21
-92.083155
  0
LINE
  8
型材断面
  6
CONTINUOUS
 10
-71.68433
 20
-54.542645
 11
-71.68433
 21
-92.083155
  0
INSERT
  2
*GRP_0005
  8
型材断面
  6
CONTINUOUS
 10
0.0
 20
0.0
  0
LINE
  8
型材断面
  6
CONTINUOUS
 10
55.153205
 20
-54.009325
 11
55.153205
 21
-92.083155
  0
LINE
  8
型材断面
  6
CONTINUOUS
 10
54.81987
 20
-54.009325
 11
54.81987
 21
-92.083155
  0
LINE
  8
型材断面
  6
CONTINUOUS
 10
51.153205
 20
-54.009325
 11
51.153205
 21
-92.083155
  0
LINE
  8
型材断面
  6
CONTINUOUS
 10
51.486537
 20
-54.009325
 11
51.486537
 21
-92.083155
  0
LINE
  8
型材断面
  6
CONTINUOUS
 10
62.81987
 20
-54.542645
 11
62.81987
 21
-92.083155
  0
INSERT
  2
*GRP_0006
  8
型材断面
  6
CONTINUOUS
 10
0.0
 20
0.0
  0
INSERT
  2
*GRP_0007
  8
型材断面
  6
CONTINUOUS
 10
0.0
 20
0.0
  0
INSERT
  2
*GRP_0008
  8
型材断面
  6
CONTINUOUS
 10
0.0
 20
0.0
  0
LINE
  8
型材断面
  6
CONTINUOUS
 10
62.81987
 20
-77.477833
 11
80.758525
 21
-95.416488
  0
LINE
  8
型材断面
  6
CONTINUOUS
 10
62.81987
 20
-79.834855
 11
78.401503
 21
-95.416488
  0
LINE
  8
型材断面
  6
CONTINUOUS
 62
    47
 10
112.81991
 20
-95.416488
 11
112.81991
 21
-77.342658
  0
LINE
  8
型材断面
  6
CONTINUOUS
 62
    47
 10
116.15324
 20
-95.416488
 11
116.15324
 21
-77.342658
  0
LINE
  8
型材断面
  6
CONTINUOUS
 10
62.81987
 20
-77.342663
 11
112.81991
 21
-77.342663
  0
LINE
  8
型材断面
  6
CONTINUOUS
 10
112.819908
 20
-74.00933
 11
62.81987
 21
-74.00933
  0
ARC
  8
型材断面
  6
CONTINUOUS
 10
112.819907
 20
-77.342663
 40
3.333333
 50
0.0
 51
90.0
  0
LINE
  8
型材断面
  6
CONTINUOUS
 10
83.11555
 20
-95.416488
 11
65.041722
 21
-77.342663
  0
LINE
  8
型材断面
  6
CONTINUOUS
 10
112.80915
 20
-89.804935
 11
100.346877
 21
-77.342663
  0
LINE
  8
型材断面
  6
CONTINUOUS
 10
112.80915
 20
-85.09089
 11
105.060923
 21
-77.342663
  0
LINE
  8
型材断面
  6
CONTINUOUS
 10
112.80915
 20
-87.447912
 11
102.703897
 21
-77.342663
  0
LINE
  8
型材断面
  6
DASHDOT
 10
-68.350335
 20
3.789038
 11
-68.350335
 21
-25.342665
  0
LINE
  8
型材断面
  6
DASHDOT
 10
59.485875
 20
3.789038
 11
59.485875
 21
-25.342665
  0
LINE
  8
型材断面
  6
CONTINUOUS
 10
-67.684192
 20
-39.342673
 11
-67.684192
 21
-27.676008
  0
LINE
  8
型材断面
  6
CONTINUOUS
 10
58.819732
 20
-39.342673
 11
58.819732
 21
-34.342692
  0
LINE
  8
型材断面
  6
CONTINUOUS
 10
8.06777
 20
-37.009338
 11
58.819732
 21
-37.009338
  0
LINE
  8
型材断面
  6
CONTINUOUS
 10
-16.93223
 20
-37.009338
 11
-67.684192
 21
-37.009338
  0
LINE
  8
型材断面
  6
CONTINUOUS
 10
7.235557
 20
-27.676008
 11
49.05316
 21
-27.676008
  0
LINE
  8
型材断面
  6
CONTINUOUS
 10
-16.100018
 20
-27.676008
 11
-67.684192
 21
-27.676008
  0
LINE
  8
型材断面
  6
DOT
 10
60.153008
 20
-44.037547
 11
59.4864
 21
-43.924547
  0
LINE
  8
型材断面
  6
DOT
 10
59.4864
 20
-41.342695
 11
60.153008
 21
-41.342695
  0
LINE
  8
型材断面
  6
DOT
 10
59.986355
 20
-44.009297
 11
59.986355
 21
-41.342695
  0
LINE
  8
型材断面
  6
DOT
 10
59.819702
 20
-43.981048
 11
59.819702
 21
-41.342695
  0
LINE
  8
型材断面
  6
DOT
 10
59.653053
 20
-43.952797
 11
59.653053
 21
-41.342695
  0
LINE
  8
型材断面
  6
DOT
 10
-69.017468
 20
-44.037547
 11
-68.35086
 21
-43.924547
  0
LINE
  8
型材断面
  6
DOT
 10
-68.35086
 20
-41.342695
 11
-69.017468
 21
-41.342695
  0
LINE
  8
型材断面
  6
DOT
 10
-68.850815
 20
-44.009297
 11
-68.850815
 21
-41.342695
  0
LINE
  8
型材断面
  6
DOT
 10
-68.684162
 20
-43.981048
 11
-68.684162
 21
-41.342695
  0
LINE
  8
型材断面
  6
DOT
 10
-68.517512
 20
-43.952797
 11
-68.517512
 21
-41.342695
  0
LINE
  8
型材断面
  6
DOT
 10
57.986465
 20
-41.342695
 11
56.819732
 21
-41.342695
  0
LINE
  8
型材断面
  6
DOT
 10
56.819732
 20
-41.342695
 11
56.819732
 21
-43.472585
  0
LINE
  8
型材断面
  6
DOT
 10
56.819732
 20
-42.918667
 11
57.48669
 21
-43.585625
  0
LINE
  8
型材断面
  6
DOT
 10
56.819732
 20
-42.211563
 11
58.338098
 21
-43.729925
  0
LINE
  8
型材断面
  6
DOT
 10
56.819732
 20
-41.504455
 11
59.189508
 21
-43.874227
  0
LINE
  8
型材断面
  6
DOT
 10
57.36508
 20
-41.342695
 11
59.4864
 21
-43.464015
  0
LINE
  8
型材断面
  6
DOT
 10
58.072187
 20
-41.342695
 11
59.4864
 21
-42.756908
  0
LINE
  8
型材断面
  6
DOT
 10
58.779292
 20
-41.342695
 11
59.4864
 21
-42.049802
  0
LINE
  8
型材断面
  6
DOT
 10
-66.850925
 20
-41.342695
 11
-65.684192
 21
-41.342695
  0
LINE
  8
型材断面
  6
DOT
 10
-65.684192
 20
-41.342695
 11
-65.684192
 21
-43.472585
  0
LINE
  8
型材断面
  6
DOT
 10
-65.684192
 20
-42.918667
 11
-66.35115
 21
-43.585625
  0
LINE
  8
型材断面
  6
DOT
 10
-65.684192
 20
-42.211563
 11
-67.202557
 21
-43.729925
  0
LINE
  8
型材断面
  6
DOT
 10
-65.684192
 20
-41.504455
 11
-68.053967
 21
-43.874227
  0
LINE
  8
型材断面
  6
DOT
 10
-66.22954
 20
-41.342695
 11
-68.35086
 21
-43.464015
  0
LINE
  8
型材断面
  6
DOT
 10
-66.936647
 20
-41.342695
 11
-68.35086
 21
-42.756908
  0
LINE
  8
型材断面
  6
DOT
 10
-67.643753
 20
-41.342695
 11
-68.35086
 21
-42.049802
  0
INSERT
  2
*GRP_0009
  8
型材断面
  6
DASHDOT
 62
    47
 10
0.0
 20
0.0
  0
INSERT
  2
*GRP_0010
  8
型材断面
  6
DOT
 10
0.0
 20
0.0
  0
INSERT
  2
*GRP_0011
  8
型材断面
  6
DOT
 10
0.0
 20
0.0
  0
LINE
  8
型材断面
  6
CONTINUOUS
 10
51.81974
 20
-33.00934
 11
5.134438
 21
-33.00934
  0
LINE
  8
型材断面
  6
CONTINUOUS
 10
-60.6842
 20
-33.00934
 11
-13.998905
 21
-33.00934
  0
LINE
  8
型材断面
  6
CONTINUOUS
 10
-67.684192
 20
-39.342673
 11
-16.93223
 21
-39.342673
  0
LINE
  8
型材断面
  6
CONTINUOUS
 10
58.819732
 20
-39.342673
 11
8.06777
 21
-39.342673
  0
POLYLINE
  8
型材断面
  6
CONTINUOUS
 66
     1
 70
     1
  0
VERTEX
  8
型材断面
 10
-151.327408
 20
118.183128
  0
VERTEX
  8
型材断面
 10
-167.327408
 20
118.183128
  0
VERTEX
  8
型材断面
 10
-167.327408
 20
102.183128
  0
VERTEX
  8
型材断面
 10
-151.327408
 20
102.183128
  0
SEQEND
  0
LINE
  8
型材断面
  6
CONTINUOUS
 10
-159.327408
 20
102.183128
 11
-159.327408
 21
118.183128
  0
POLYLINE
  8
型材断面
  6
CONTINUOUS
 66
     1
 70
     1
  0
VERTEX
  8
型材断面
 10
-150.302978
 20
122.945262
  0
VERTEX
  8
型材断面
 10
-169.114052
 20
122.945262
  0
VERTEX
  8
型材断面
 10
-169.114052
 20
118.806825
  0
VERTEX
  8
型材断面
 10
-150.302978
 20
118.806825
  0
SEQEND
  0
POLYLINE
  8
型材断面
  6
CONTINUOUS
 66
     1
 70
     1
  0
VERTEX
  8
型材断面
 10
-150.302978
 20
101.401615
  0
VERTEX
  8
型材断面
 10
-169.114052
 20
101.401615
  0
VERTEX
  8
型材断面
 10
-169.114052
 20
97.263177
  0
VERTEX
  8
型材断面
 10
-150.302978
 20
97.263177
  0
SEQEND
  0
POLYLINE
  8
型材断面
  6
CONTINUOUS
 66
     1
 70
     1
  0
VERTEX
  8
型材断面
 10
-109.317065
 20
120.183128
  0
VERTEX
  8
型材断面
 10
-127.317065
 20
120.183128
  0
VERTEX
  8
型材断面
 10
-127.317065
 20
102.183128
  0
VERTEX
  8
型材断面
 10
-109.317065
 20
102.183128
  0
SEQEND
  0
LINE
  8
型材断面
  6
CONTINUOUS
 10
-118.317065
 20
102.183128
 11
-118.317065
 21
120.183128
  0
LINE
  8
型材断面
  6
CONTINUOUS
 10
-109.317065
 20
111.183128
 11
-127.317065
 21
111.183128
  0
POLYLINE
  8
型材断面
  6
CONTINUOUS
 66
     1
 70
     1
  0
VERTEX
  8
型材断面
 10
-109.07985
 20
125.263098
  0
VERTEX
  8
型材断面
 10
-127.890925
 20
125.263098
  0
VERTEX
  8
型材断面
 10
-127.890925
 20
121.12466
  0
VERTEX
  8
型材断面
 10
-109.07985
 20
121.12466
  0
SEQEND
  0
POLYLINE
  8
型材断面
  6
CONTINUOUS
 66
     1
 70
     1
  0
VERTEX
  8
型材断面
 10
-109.07985
 20
101.31139
  0
VERTEX
  8
型材断面
 10
-127.890925
 20
101.31139
  0
VERTEX
  8
型材断面
 10
-127.890925
 20
97.172953
  0
VERTEX
  8
型材断面
 10
-109.07985
 20
97.172953
  0
SEQEND
  0
POLYLINE
  8
型材断面
  6
CONTINUOUS
 66
     1
 70
     1
  0
VERTEX
  8
型材断面
 10
-66.75998
 20
122.183128
  0
VERTEX
  8
型材断面
 10
-86.75998
 20
122.183128
  0
VERTEX
  8
型材断面
 10
-86.75998
 20
102.183128
  0
VERTEX
  8
型材断面
 10
-66.75998
 20
102.183128
  0
SEQEND
  0
LINE
  8
型材断面
  6
CONTINUOUS
 10
-76.75998
 20
102.183128
 11
-76.75998
 21
122.183128
  0
LINE
  8
型材断面
  6
CONTINUOUS
 10
-66.75998
 20
112.183128
 11
-86.75998
 21
112.183128
  0
POLYLINE
  8
型材断面
  6
CONTINUOUS
 66
     1
 70
     1
  0
VERTEX
  8
型材断面
 10
-67.46959
 20
127.003
  0
VERTEX
  8
型材断面
 10
-86.280665
 20
127.003
  0
VERTEX
  8
型材断面
 10
-86.280665
 20
122.864562
  0
VERTEX
  8
型材断面
 10
-67.46959
 20
122.864562
  0
SEQEND
  0
POLYLINE
  8
型材断面
  6
CONTINUOUS
 66
     1
 70
     1
  0
VERTEX
  8
型材断面
 10
-67.46959
 20
101.407885
  0
VERTEX
  8
型材断面
 10
-86.280665
 20
101.407885
  0
VERTEX
  8
型材断面
 10
-86.280665
 20
97.269448
  0
VERTEX
  8
型材断面
 10
-67.46959
 20
97.269448
  0
SEQEND
  0
POLYLINE
  8
型材断面
  6
DASHED
 66
     1
 70
     1
  0
VERTEX
  8
型材断面
 10
-64.82374
 20
130.267225
  0
VERTEX
  8
型材断面
 10
-181.19912
 20
130.267225
  0
VERTEX
  8
型材断面
 10
-181.19912
 20
95.808143
  0
VERTEX
  8
型材断面
 10
-64.82374
 20
95.808143
  0
SEQEND
  0
LINE
  8
型材断面
  6
CONTINUOUS
 10
-177.1041
 20
124.750553
 11
-140.083675
 21
124.750553
  0
LINE
  8
型材断面
  6
CONTINUOUS
 10
-177.1041
 20
124.250553
 11
-140.083675
 21
124.250553
  0
LINE
  8
型材断面
  6
CONTINUOUS
 10
-127.540907
 20
79.135852
 11
-167.540907
 21
79.135852
  0
LINE
  8
型材断面
  6
CONTINUOUS
 10
-127.540907
 20
73.135852
 11
-167.540907
 21
73.135852
  0
LINE
  8
型材断面
  6
CONTINUOUS
 10
-167.540907
 20
73.135852
 11
-167.540907
 21
79.135852
  0
LINE
  8
型材断面
  6
CONTINUOUS
 10
-157.540907
 20
73.135852
 11
-157.540907
 21
79.135852
  0
LINE
  8
型材断面
  6
CONTINUOUS
 10
-147.540907
 20
73.135852
 11
-147.540907
 21
79.135852
  0
LINE
  8
型材断面
  6
CONTINUOUS
 10
-137.540907
 20
73.135852
 11
-137.540907
 21
79.135852
  0
LINE
  8
型材断面
  6
CONTINUOUS
 10
-127.540907
 20
73.135852
 11
-127.540907
 21
79.135852
  0
POLYLINE
  8
型材断面
  6
CONTINUOUS
 66
     1
 70
     1
  0
VERTEX
  8
型材断面
 10
-139.639443
 20
83.985527
  0
VERTEX
  8
型材断面
 10
-158.450518
 20
83.985527
  0
VERTEX
  8
型材断面
 10
-158.450518
 20
79.84709
  0
VERTEX
  8
型材断面
 10
-139.639443
 20
79.84709
  0
SEQEND
  0
POLYLINE
  8
型材断面
  6
CONTINUOUS
 66
     1
 70
     1
  0
VERTEX
  8
型材断面
 10
-139.639443
 20
72.4839
  0
VERTEX
  8
型材断面
 10
-158.450518
 20
72.4839
  0
VERTEX
  8
型材断面
 10
-158.450518
 20
68.345463
  0
VERTEX
  8
型材断面
 10
-139.639443
 20
68.345463
  0
SEQEND
  0
LINE
  8
型材断面
  6
CONTINUOUS
 10
-127.540907
 20
57.52999
 11
-167.540907
 21
57.52999
  0
LINE
  8
型材断面
  6
CONTINUOUS
 10
-127.540907
 20
48.52999
 11
-167.540907
 21
48.52999
  0
LINE
  8
型材断面
  6
CONTINUOUS
 10
-167.540907
 20
48.52999
 11
-167.540907
 21
57.52999
  0
LINE
  8
型材断面
  6
CONTINUOUS
 10
-157.540907
 20
48.52999
 11
-157.540907
 21
57.52999
  0
LINE
  8
型材断面
  6
CONTINUOUS
 10
-147.540907
 20
48.52999
 11
-147.540907
 21
57.52999
  0
LINE
  8
型材断面
  6
CONTINUOUS
 10
-137.540907
 20
48.52999
 11
-137.540907
 21
57.52999
  0
LINE
  8
型材断面
  6
CONTINUOUS
 10
-127.540907
 20
48.52999
 11
-127.540907
 21
57.52999
  0
LINE
  8
型材断面
  6
CONTINUOUS
 10
-127.540907
 20
48.52999
 11
-167.540907
 21
48.52999
  0
POLYLINE
  8
型材断面
  6
CONTINUOUS
 66
     1
 70
     1
  0
VERTEX
  8
型材断面
 10
-139.639443
 20
62.415497
  0
VERTEX
  8
型材断面
 10
-158.450518
 20
62.415497
  0
VERTEX
  8
型材断面
 10
-158.450518
 20
58.27706
  0
VERTEX
  8
型材断面
 10
-139.639443
 20
58.27706
  0
SEQEND
  0
POLYLINE
  8
型材断面
  6
CONTINUOUS
 66
     1
 70
     1
  0
VERTEX
  8
型材断面
 10
-139.639443
 20
47.850353
  0
VERTEX
  8
型材断面
 10
-158.450518
 20
47.850353
  0
VERTEX
  8
型材断面
 10
-158.450518
 20
43.711915
  0
VERTEX
  8
型材断面
 10
-139.639443
 20
43.711915
  0
SEQEND
  0
LINE
  8
型材断面
  6
CONTINUOUS
 10
-127.540907
 20
31.731942
 11
-167.540907
 21
31.731942
  0
LINE
  8
型材断面
  6
CONTINUOUS
 10
-127.540907
 20
18.731942
 11
-167.540907
 21
18.731942
  0
LINE
  8
型材断面
  6
CONTINUOUS
 10
-167.540907
 20
18.731942
 11
-167.540907
 21
31.731942
  0
LINE
  8
型材断面
  6
CONTINUOUS
 10
-157.540907
 20
18.731942
 11
-157.540907
 21
31.731942
  0
LINE
  8
型材断面
  6
CONTINUOUS
 10
-147.540907
 20
18.731942
 11
-147.540907
 21
31.731942
  0
LINE
  8
型材断面
  6
CONTINUOUS
 10
-137.540907
 20
18.731942
 11
-137.540907
 21
31.731942
  0
LINE
  8
型材断面
  6
CONTINUOUS
 10
-127.540907
 20
18.731942
 11
-127.540907
 21
31.731942
  0
POLYLINE
  8
型材断面
  6
CONTINUOUS
 66
     1
 70
     1
  0
VERTEX
  8
型材断面
 10
-139.639443
 20
36.563708
  0
VERTEX
  8
型材断面
 10
-158.450518
 20
36.563708
  0
VERTEX
  8
型材断面
 10
-158.450518
 20
32.42527
  0
VERTEX
  8
型材断面
 10
-139.639443
 20
32.42527
  0
SEQEND
  0
POLYLINE
  8
型材断面
  6
CONTINUOUS
 66
     1
 70
     1
  0
VERTEX
  8
型材断面
 10
-139.639443
 20
18.078365
  0
VERTEX
  8
型材断面
 10
-158.450518
 20
18.078365
  0
VERTEX
  8
型材断面
 10
-158.450518
 20
13.939927
  0
VERTEX
  8
型材断面
 10
-139.639443
 20
13.939927
  0
SEQEND
  0
LINE
  8
型材断面
  6
CONTINUOUS
 10
-127.540907
 20
2.064187
 11
-167.540907
 21
2.064187
  0
LINE
  8
型材断面
  6
CONTINUOUS
 10
-127.540907
 20
-17.935812
 11
-167.540907
 21
-17.935812
  0
LINE
  8
型材断面
  6
CONTINUOUS
 10
-167.540907
 20
-17.935812
 11
-167.540907
 21
2.064187
  0
LINE
  8
型材断面
  6
CONTINUOUS
 10
-157.540907
 20
-17.935812
 11
-157.540907
 21
2.064187
  0
LINE
  8
型材断面
  6
CONTINUOUS
 10
-147.540907
 20
-17.935812
 11
-147.540907
 21
2.064187
  0
LINE
  8
型材断面
  6
CONTINUOUS
 10
-137.540907
 20
-17.935812
 11
-137.540907
 21
2.064187
  0
LINE
  8
型材断面
  6
CONTINUOUS
 10
-127.540907
 20
-17.935812
 11
-127.540907
 21
2.064187
  0
LINE
  8
型材断面
  6
CONTINUOUS
 10
-127.540907
 20
-7.935812
 11
-167.540907
 21
-7.935812
  0
POLYLINE
  8
型材断面
  6
CONTINUOUS
 66
     1
 70
     1
  0
VERTEX
  8
型材断面
 10
-139.639443
 20
6.89921
  0
VERTEX
  8
型材断面
 10
-158.450518
 20
6.89921
  0
VERTEX
  8
型材断面
 10
-158.450518
 20
2.760772
  0
VERTEX
  8
型材断面
 10
-139.639443
 20
2.760772
  0
SEQEND
  0
POLYLINE
  8
型材断面
  6
CONTINUOUS
 66
     1
 70
     1
  0
VERTEX
  8
型材断面
 10
-139.639443
 20
-18.794683
  0
VERTEX
  8
型材断面
 10
-158.450518
 20
-18.794683
  0
VERTEX
  8
型材断面
 10
-158.450518
 20
-22.93312
  0
VERTEX
  8
型材断面
 10
-139.639443
 20
-22.93312
  0
SEQEND
  0
LINE
  8
型材断面
  6
CONTINUOUS
 10
-178.985088
 20
87.535392
 11
-138.125573
 21
87.535392
  0
LINE
  8
型材断面
  6
CONTINUOUS
 10
-178.985088
 20
87.035392
 11
-138.125573
 21
87.035392
  0
POLYLINE
  8
型材断面
  6
DASHED
 66
     1
 70
     1
  0
VERTEX
  8
型材断面
 10
-120.779305
 20
93.018345
  0
VERTEX
  8
型材断面
 10
-181.13753
 20
93.018345
  0
VERTEX
  8
型材断面
 10
-181.13753
 20
-27.812518
  0
VERTEX
  8
型材断面
 10
-120.779305
 20
-27.812518
  0
SEQEND
  0
INSERT
  2
*GRP_0129
  8
型材断面
  6
CONTINUOUS
 10
0.0
 20
0.0
  0
INSERT
  2
*GRP_0130
  8
型材断面
  6
CONTINUOUS
 10
0.0
 20
0.0
  0
INSERT
  2
*GRP_0131
  8
型材断面
  6
CONTINUOUS
 10
0.0
 20
0.0
  0
LINE
  8
型材断面
  6
CONTINUOUS
 10
-4.432222
 20
-95.64683
 11
18.901105
 21
-95.64683
  0
LINE
  8
型材断面
  6
CONTINUOUS
 10
5.134445
 20
-93.313495
 11
18.901105
 21
-93.313495
  0
LINE
  8
型材断面
  6
CONTINUOUS
 10
5.134445
 20
-89.313497
 11
18.901105
 21
-89.313497
  0
LINE
  8
型材断面
  6
CONTINUOUS
 10
7.235565
 20
-83.980165
 11
18.901105
 21
-83.980165
  0
LINE
  8
型材断面
  6
CONTINUOUS
 10
-4.432222
 20
-95.64683
 11
-27.765563
 21
-95.64683
  0
LINE
  8
型材断面
  6
CONTINUOUS
 10
-13.99889
 20
-93.313495
 11
-27.765563
 21
-93.313495
  0
LINE
  8
型材断面
  6
CONTINUOUS
 10
-13.99889
 20
-89.313497
 11
-27.765563
 21
-89.313497
  0
LINE
  8
型材断面
  6
CONTINUOUS
 10
-16.10001
 20
-83.980165
 11
-27.765563
 21
-83.980165
  0
INSERT
  2
*GRP_0146
  8
型材断面
  6
CONTINUOUS
 10
0.0
 20
0.0
  0
LINE
  8
型材断面
  6
DOT
 10
139.095543
 20
13.420673
 11
138.428935
 21
13.533672
  0
LINE
  8
型材断面
  6
DOT
 10
138.428935
 20
16.115525
 11
139.095543
 21
16.115525
  0
LINE
  8
型材断面
  6
DOT
 10
136.929
 20
16.115525
 11
135.762268
 21
16.115525
  0
LINE
  8
型材断面
  6
DOT
 10
135.762268
 20
16.115525
 11
135.762268
 21
13.985635
  0
LINE
  8
型材断面
  6
DOT
 10
138.92889
 20
13.448922
 11
138.92889
 21
16.115525
  0
LINE
  8
型材断面
  6
DOT
 10
138.762238
 20
13.477173
 11
138.762238
 21
16.115525
  0
LINE
  8
型材断面
  6
DOT
 10
138.595587
 20
13.505422
 11
138.595587
 21
16.115525
  0
INSERT
  2
*HAT_0012
  8
型材断面
 10
0.0
 20
0.0
  0
LINE
  8
型材断面
  6
CONTINUOUS
 10
138.262268
 20
23.115527
 11
138.262268
 21
18.115547
  0
LINE
  8
型材断面
  6
CONTINUOUS
 10
130.762275
 20
24.44889
 11
107.983223
 21
24.44889
  0
LINE
  8
型材断面
  6
CONTINUOUS
 10
138.262268
 20
20.44888
 11
107.983223
 21
20.44888
  0
LINE
  8
型材断面
  6
DOT
 10
138.262268
 20
18.782225
 11
107.983223
 21
18.782225
  0
LINE
  8
型材断面
  6
CONTINUOUS
 10
138.262268
 20
18.115547
 11
107.983223
 21
18.115547
  0
LINE
  8
型材断面
  6
CONTINUOUS
 10
128.42892
 20
3.44889
 11
107.983223
 21
3.44889
  0
LINE
  8
型材断面
  6
DASHDOT
 10
138.42841
 20
23.115527
 11
138.42841
 21
30.78212
  0
LINE
  8
ガラス
  6
CONTINUOUS
 10
-65.017003
 20
-29.742677
 11
-65.017003
 21
-32.009328
  0
LINE
  8
ガラス
  6
CONTINUOUS
 10
56.152542
 20
-29.742677
 11
56.152542
 21
-32.009328
  0
LINE
  8
ガラス
  6
CONTINUOUS
 10
0.902225
 20
-29.909343
 11
56.152542
 21
-29.909343
  0
LINE
  8
ガラス
  6
CONTINUOUS
 10
0.902225
 20
-29.742677
 11
56.152542
 21
-29.742677
  0
LINE
  8
ガラス
  6
CONTINUOUS
 10
-9.766685
 20
-32.009328
 11
-65.017003
 21
-32.009328
  0
LINE
  8
ガラス
  6
CONTINUOUS
 10
-9.766685
 20
-31.842663
 11
-65.017003
 21
-31.842663
  0
LINE
  8
ガラス
  6
CONTINUOUS
 10
0.902225
 20
-31.842663
 11
56.152542
 21
-31.842663
  0
LINE
  8
ガラス
  6
CONTINUOUS
 10
0.902225
 20
-32.009328
 11
56.152542
 21
-32.009328
  0
LINE
  8
ガラス
  6
CONTINUOUS
 10
-9.766685
 20
-29.909343
 11
-65.017003
 21
-29.909343
  0
LINE
  8
ガラス
  6
CONTINUOUS
 10
-9.766685
 20
-29.742677
 11
-65.017003
 21
-29.742677
  0
INSERT
  2
*GRP_0012
  8
ガラス
  6
CONTINUOUS
 10
0.0
 20
0.0
  0
INSERT
  2
*GRP_0013
  8
ガラス
  6
CONTINUOUS
 10
0.0
 20
0.0
  0
INSERT
  2
*GRP_0014
  8
ガラス
  6
CONTINUOUS
 10
0.0
 20
0.0
  0
INSERT
  2
*GRP_0015
  8
ガラス
  6
CONTINUOUS
 10
0.0
 20
0.0
  0
INSERT
  2
*GRP_0016
  8
ガラス
  6
CONTINUOUS
 10
0.0
 20
0.0
  0
INSERT
  2
*GRP_0017
  8
ガラス
  6
CONTINUOUS
 10
0.0
 20
0.0
  0
INSERT
  2
*GRP_0018
  8
ガラス
  6
CONTINUOUS
 10
0.0
 20
0.0
  0
INSERT
  2
*GRP_0019
  8
ガラス
  6
CONTINUOUS
 10
0.0
 20
0.0
  0
INSERT
  2
*GRP_0020
  8
ガラス
  6
CONTINUOUS
 10
0.0
 20
0.0
  0
INSERT
  2
*GRP_0021
  8
ガラス
  6
CONTINUOUS
 10
0.0
 20
0.0
  0
LINE
  8
ガラス
  6
CONTINUOUS
 10
-9.765572
 20
-32.009343
 11
-9.765572
 21
-29.742677
  0
LINE
  8
ガラス
  6
CONTINUOUS
 10
0.901113
 20
-32.009343
 11
0.901113
 21
-29.742677
  0
LINE
  8
ガラス
  6
CONTINUOUS
 10
0.902232
 20
-86.046835
 11
0.902232
 21
-88.313502
  0
LINE
  8
ガラス
  6
CONTINUOUS
 10
-9.766677
 20
-86.046835
 11
-9.766677
 21
-88.313502
  0
LINE
  8
ガラス
  6
CONTINUOUS
 10
-9.766677
 20
-87.646832
 11
-9.766677
 21
-86.046835
  0
LINE
  8
ガラス
  6
CONTINUOUS
 10
0.902232
 20
-87.646832
 11
0.902232
 21
-86.046835
  0
LINE
  8
ガラス
  6
CONTINUOUS
 10
0.902232
 20
-88.3135
 11
18.901105
 21
-88.3135
  0
LINE
  8
ガラス
  6
CONTINUOUS
 10
0.902232
 20
-88.146835
 11
18.901105
 21
-88.146835
  0
LINE
  8
ガラス
  6
CONTINUOUS
 10
0.902232
 20
-86.046835
 11
18.901105
 21
-86.046835
  0
LINE
  8
ガラス
  6
CONTINUOUS
 10
0.902232
 20
-86.2135
 11
18.901105
 21
-86.2135
  0
LINE
  8
ガラス
  6
CONTINUOUS
 10
-9.766677
 20
-88.146835
 11
-27.765563
 21
-88.146835
  0
LINE
  8
ガラス
  6
CONTINUOUS
 10
-9.766677
 20
-88.3135
 11
-27.765563
 21
-88.3135
  0
LINE
  8
ガラス
  6
CONTINUOUS
 10
-9.766677
 20
-86.046835
 11
-27.765563
 21
-86.046835
  0
LINE
  8
ガラス
  6
CONTINUOUS
 10
-9.766677
 20
-86.2135
 11
-27.765563
 21
-86.2135
  0
INSERT
  2
*GRP_0022
  8
ゴム等
  6
CONTINUOUS
 10
0.0
 20
0.0
  0
INSERT
  2
*GRP_0023
  8
ゴム等
  6
CONTINUOUS
 10
0.0
 20
0.0
  0
INSERT
  2
*GRP_0024
  8
ゴム等
  6
CONTINUOUS
 10
0.0
 20
0.0
  0
INSERT
  2
*GRP_0025
  8
ゴム等
  6
CONTINUOUS
 10
0.0
 20
0.0
  0
INSERT
  2
*GRP_0026
  8
ゴム等
  6
DOT
 10
0.0
 20
0.0
  0
INSERT
  2
*GRP_0027
  8
ゴム等
  6
DOT
 10
0.0
 20
0.0
  0
INSERT
  2
*GRP_0028
  8
ゴム等
  6
CONTINUOUS
 10
0.0
 20
0.0
  0
INSERT
  2
*GRP_0132
  8
ゴム等
  6
CONTINUOUS
 10
0.0
 20
0.0
  0
INSERT
  2
*GRP_0133
  8
ゴム等
  6
CONTINUOUS
 10
0.0
 20
0.0
  0
INSERT
  2
*GRP_0134
  8
ゴム等
  6
CONTINUOUS
 10
0.0
 20
0.0
  0
INSERT
  2
*GRP_0135
  8
ゴム等
  6
CONTINUOUS
 10
0.0
 20
0.0
  0
INSERT
  2
*GRP_0029
  8
ボルト／ビス
  6
CONTINUOUS
 62
    64
 10
0.0
 20
0.0
  0
INSERT
  2
*GRP_0030
  8
ボルト／ビス
  6
CONTINUOUS
 62
    64
 10
0.0
 20
0.0
  0
INSERT
  2
*GRP_0031
  8
ボルト／ビス
  6
CONTINUOUS
 62
    64
 10
0.0
 20
0.0
  0
INSERT
  2
*GRP_0032
  8
ボルト／ビス
  6
CONTINUOUS
 62
    64
 10
0.0
 20
0.0
  0
INSERT
  2
*GRP_0033
  8
ボルト／ビス
  6
CONTINUOUS
 62
    64
 10
0.0
 20
0.0
  0
INSERT
  2
*GRP_0034
  8
ボルト／ビス
  6
DOT
 62
    64
 10
0.0
 20
0.0
  0
INSERT
  2
*GRP_0035
  8
ボルト／ビス
  6
DOT
 62
    64
 10
0.0
 20
0.0
  0
INSERT
  2
*GRP_0036
  8
ボルト／ビス
  6
CONTINUOUS
 62
    64
 10
0.0
 20
0.0
  0
INSERT
  2
*GRP_0037
  8
ボルト／ビス
  6
CONTINUOUS
 62
    64
 10
0.0
 20
0.0
  0
INSERT
  2
*GRP_0038
  8
ボルト／ビス
  6
CONTINUOUS
 62
    64
 10
0.0
 20
0.0
  0
INSERT
  2
*GRP_0039
  8
ボルト／ビス
  6
CONTINUOUS
 10
0.0
 20
0.0
  0
INSERT
  2
*GRP_0040
  8
ボルト／ビス
  6
CONTINUOUS
 10
0.0
 20
0.0
  0
INSERT
  2
*GRP_0041
  8
ボルト／ビス
  6
DOT
 62
    64
 10
0.0
 20
0.0
  0
INSERT
  2
*GRP_0042
  8
ボルト／ビス
  6
DOT
 62
    64
 10
0.0
 20
0.0
  0
INSERT
  2
*GRP_0043
  8
ボルト／ビス
  6
CONTINUOUS
 62
    64
 10
0.0
 20
0.0
  0
INSERT
  2
*GRP_0044
  8
ボルト／ビス
  6
CONTINUOUS
 62
    64
 10
0.0
 20
0.0
  0
INSERT
  2
*GRP_0045
  8
ボルト／ビス
  6
CONTINUOUS
 62
    64
 10
0.0
 20
0.0
  0
INSERT
  2
*GRP_0046
  8
ボルト／ビス
  6
CONTINUOUS
 62
    64
 10
0.0
 20
0.0
  0
INSERT
  2
*GRP_0047
  8
ボルト／ビス
  6
CONTINUOUS
 62
    64
 10
0.0
 20
0.0
  0
INSERT
  2
*GRP_0048
  8
ボルト／ビス
  6
CONTINUOUS
 62
    64
 10
0.0
 20
0.0
  0
INSERT
  2
*GRP_0136
  8
ボルト／ビス
  6
CONTINUOUS
 62
    64
 10
0.0
 20
0.0
  0
INSERT
  2
*GRP_0137
  8
ボルト／ビス
  6
CONTINUOUS
 62
    64
 10
0.0
 20
0.0
  0
INSERT
  2
*GRP_0138
  8
ボルト／ビス
  6
CONTINUOUS
 62
    64
 10
0.0
 20
0.0
  0
INSERT
  2
*GRP_0139
  8
ボルト／ビス
  6
CONTINUOUS
 62
    64
 10
0.0
 20
0.0
  0
TEXT
  7
TextStyle03
  8
文字
  6
CONTINUOUS
 10
97.525
 20
103.45
  1
ＮＳコード：ＮＳＫＺ
 40
5.0
 72
     5
 11
153.15
 21
103.45
  0
TEXT
  7
TextStyle03
  8
文字
  6
CONTINUOUS
 10
97.525
 20
125.25
  1
シリーズ：ＴＤ２Ｋ
 40
5.0
 72
     5
 11
147.525
 21
125.25
  0
TEXT
  7
TextStyle03
  8
文字
  6
CONTINUOUS
 10
97.525
 20
119.625
  1
　　　　　(固定)
 40
5.0
 72
     5
 11
142.2125
 21
119.625
  0
TEXT
  7
TextStyle03
  8
文字
  6
CONTINUOUS
 10
97.525
 20
114.0
  1
図面名　：全体納まり断面図
 40
5.0
 72
     5
 11
170.025
 21
114.0
  0
TEXT
  7
TextStyle03
  8
文字
  6
CONTINUOUS
 10
-131.8
 20
-52.15
  1
規格水切
 40
3.0
 72
     5
 11
-118.675
 21
-52.15
  0
TEXT
  7
TextStyle03
  8
文字
  6
CONTINUOUS
 10
134.55
 20
-68.575
  1
排水パイプ(オプション)
 40
3.0
 72
     5
 11
171.4875
 21
-68.575
  0
TEXT
  7
TextStyle03
  8
文字
  6
CONTINUOUS
 10
134.55
 20
-71.95
  1
□10×10×1 L=60
 40
3.0
 72
     5
 11
161.3625
 21
-71.95
  0
TEXT
  7
TextStyle03
  8
文字
  6
CONTINUOUS
 10
-167.775
 20
119.425
  1
可動装置側
 40
3.0
 72
     5
 11
-151.275
 21
119.425
  0
TEXT
  7
TextStyle03
  8
文字
  6
CONTINUOUS
 10
-167.775
 20
97.9
  1
可動装置側
 40
3.0
 72
     5
 11
-151.275
 21
97.9
  0
TEXT
  7
TextStyle03
  8
文字
  6
CONTINUOUS
 10
-167.05
 20
110.4
  1
大
 40
3.0
 72
     5
 11
-164.05
 21
110.4
  0
TEXT
  7
TextStyle03
  8
文字
  6
CONTINUOUS
 10
-126.625
 20
121.75
  1
可動装置側
 40
3.0
 72
     5
 11
-110.125
 21
121.75
  0
TEXT
  7
TextStyle03
  8
文字
  6
CONTINUOUS
 10
-126.625
 20
97.8
  1
可動装置側
 40
3.0
 72
     5
 11
-110.125
 21
97.8
  0
TEXT
  7
TextStyle03
  8
文字
  6
CONTINUOUS
 10
-113.2
 20
103.9
  1
小
 40
3.0
 72
     5
 11
-110.2
 21
103.9
  0
TEXT
  7
TextStyle03
  8
文字
  6
CONTINUOUS
 10
-126.35
 20
115.075
  1
大
 40
3.0
 72
     5
 11
-123.35
 21
115.075
  0
TEXT
  7
TextStyle03
  8
文字
  6
CONTINUOUS
 10
-122.95
 20
103.9
  1
小
 40
3.0
 72
     5
 11
-119.95
 21
103.9
  0
TEXT
  7
TextStyle03
  8
文字
  6
CONTINUOUS
 10
-85.05
 20
123.45
  1
可動装置側
 40
3.0
 72
     5
 11
-68.55
 21
123.45
  0
TEXT
  7
TextStyle03
  8
文字
  6
CONTINUOUS
 10
-85.05
 20
97.875
  1
可動装置側
 40
3.0
 72
     5
 11
-68.55
 21
97.875
  0
TEXT
  7
TextStyle03
  8
文字
  6
CONTINUOUS
 10
-71.625
 20
104.9
  1
小
 40
3.0
 72
     5
 11
-68.625
 21
104.9
  0
TEXT
  7
TextStyle03
  8
文字
  6
CONTINUOUS
 10
-81.625
 20
104.9
  1
小
 40
3.0
 72
     5
 11
-78.625
 21
104.9
  0
TEXT
  7
TextStyle03
  8
文字
  6
CONTINUOUS
 10
-84.8
 20
116.825
  1
大
 40
3.0
 72
     5
 11
-81.8
 21
116.825
  0
TEXT
  7
TextStyle03
  8
文字
  6
CONTINUOUS
 10
-175.9
 20
125.625
  1
角タイプ 中桟フレーム
 40
3.0
 72
     5
 11
-140.8375
 21
125.625
  0
TEXT
  7
TextStyle03
  8
文字
  6
CONTINUOUS
 10
-157.125
 20
80.45
  1
可動装置側
 40
3.0
 72
     5
 11
-140.625
 21
80.45
  0
TEXT
  7
TextStyle03
  8
文字
  6
CONTINUOUS
 10
-157.125
 20
68.95
  1
可動装置側
 40
3.0
 72
     5
 11
-140.625
 21
68.95
  0
TEXT
  7
TextStyle03
  8
文字
  6
CONTINUOUS
 10
-157.125
 20
58.875
  1
可動装置側
 40
3.0
 72
     5
 11
-140.625
 21
58.875
  0
TEXT
  7
TextStyle03
  8
文字
  6
CONTINUOUS
 10
-157.125
 20
44.325
  1
可動装置側
 40
3.0
 72
     5
 11
-140.625
 21
44.325
  0
TEXT
  7
TextStyle03
  8
文字
  6
CONTINUOUS
 10
-157.125
 20
33.05
  1
可動装置側
 40
3.0
 72
     5
 11
-140.625
 21
33.05
  0
TEXT
  7
TextStyle03
  8
文字
  6
CONTINUOUS
 10
-157.125
 20
14.575
  1
可動装置側
 40
3.0
 72
     5
 11
-140.625
 21
14.575
  0
TEXT
  7
TextStyle03
  8
文字
  6
CONTINUOUS
 10
-157.125
 20
3.425
  1
可動装置側
 40
3.0
 72
     5
 11
-140.625
 21
3.425
  0
TEXT
  7
TextStyle03
  8
文字
  6
CONTINUOUS
 10
-157.125
 20
-22.25
  1
可動装置側
 40
3.0
 72
     5
 11
-140.625
 21
-22.25
  0
TEXT
  7
TextStyle03
  8
文字
  6
CONTINUOUS
 10
-165.55
 20
75.55
  1
小
 40
3.0
 72
     5
 11
-162.55
 21
75.55
  0
TEXT
  7
TextStyle03
  8
文字
  6
CONTINUOUS
 10
-155.55
 20
75.55
  1
小
 40
3.0
 72
     5
 11
-152.55
 21
75.55
  0
TEXT
  7
TextStyle03
  8
文字
  6
CONTINUOUS
 10
-145.55
 20
75.55
  1
小
 40
3.0
 72
     5
 11
-142.55
 21
75.55
  0
TEXT
  7
TextStyle03
  8
文字
  6
CONTINUOUS
 10
-165.55
 20
53.125
  1
小
 40
3.0
 72
     5
 11
-162.55
 21
53.125
  0
TEXT
  7
TextStyle03
  8
文字
  6
CONTINUOUS
 10
-155.55
 20
53.125
  1
小
 40
3.0
 72
     5
 11
-152.55
 21
53.125
  0
TEXT
  7
TextStyle03
  8
文字
  6
CONTINUOUS
 10
-145.55
 20
53.125
  1
小
 40
3.0
 72
     5
 11
-142.55
 21
53.125
  0
TEXT
  7
TextStyle03
  8
文字
  6
CONTINUOUS
 10
-165.55
 20
24.6
  1
小
 40
3.0
 72
     5
 11
-162.55
 21
24.6
  0
TEXT
  7
TextStyle03
  8
文字
  6
CONTINUOUS
 10
-155.55
 20
24.6
  1
小
 40
3.0
 72
     5
 11
-152.55
 21
24.6
  0
TEXT
  7
TextStyle03
  8
文字
  6
CONTINUOUS
 10
-145.55
 20
24.6
  1
小
 40
3.0
 72
     5
 11
-142.55
 21
24.6
  0
TEXT
  7
TextStyle03
  8
文字
  6
CONTINUOUS
 10
-165.425
 20
-3.2
  1
大
 40
3.0
 72
     5
 11
-162.425
 21
-3.2
  0
TEXT
  7
TextStyle03
  8
文字
  6
CONTINUOUS
 10
-155.075
 20
-3.2
  1
大
 40
3.0
 72
     5
 11
-152.075
 21
-3.2
  0
TEXT
  7
TextStyle03
  8
文字
  6
CONTINUOUS
 10
-144.675
 20
-3.2
  1
大
 40
3.0
 72
     5
 11
-141.675
 21
-3.2
  0
TEXT
  7
TextStyle03
  8
文字
  6
CONTINUOUS
 10
-162.475
 20
-15.2
  1
小
 40
3.0
 72
     5
 11
-159.475
 21
-15.2
  0
TEXT
  7
TextStyle03
  8
文字
  6
CONTINUOUS
 10
-153.025
 20
-15.2
  1
小
 40
3.0
 72
     5
 11
-150.025
 21
-15.2
  0
TEXT
  7
TextStyle03
  8
文字
  6
CONTINUOUS
 10
-143.2
 20
-15.2
  1
小
 40
3.0
 72
     5
 11
-140.2
 21
-15.2
  0
TEXT
  7
TextStyle03
  8
文字
  6
CONTINUOUS
 10
-132.8
 20
-15.2
  1
小
 40
3.0
 72
     5
 11
-129.8
 21
-15.2
  0
TEXT
  7
TextStyle03
  8
文字
  6
CONTINUOUS
 10
-177.7
 20
88.475
  1
Ｌ型タイプ 中桟フレーム
 40
3.0
 72
     5
 11
-139.2625
 21
88.475
  0
TEXT
  7
TextStyle03
  8
文字
  6
CONTINUOUS
 10
17.425
 20
-102.375
  1
SUS-1.5t　2B
 40
3.0
 72
     5
 11
37.4875
 21
-102.375
  0
TEXT
  7
TextStyle03
  8
文字
  6
CONTINUOUS
 10
17.425
 20
-105.75
  1
ジョイント
 40
3.0
 72
     5
 11
33.925
 21
-105.75
  0
TEXT
  7
TextStyle03
  8
文字
  6
CONTINUOUS
 10
-18.3
 20
-108.825
  1
中桟フレーム（小）
 40
3.0
 72
     5
 11
11.7
 21
-108.825
  0
TEXT
  7
TextStyle03
  8
文字
  6
CONTINUOUS
 10
-18.175
 20
-72.1
  1
中桟フレーム（大）
 40
3.0
 72
     5
 11
11.825
 21
-72.1
  0
POLYLINE
  8
文字
  6
CONTINUOUS
 66
     1
 70
     1
  0
VERTEX
  8
文字
 10
172.810947
 20
42.603862
  0
VERTEX
  8
文字
 10
103.234592
 20
42.603862
  0
VERTEX
  8
文字
 10
103.234592
 20
-5.839487
  0
VERTEX
  8
文字
 10
172.810947
 20
-5.839487
  0
SEQEND
  0
TEXT
  7
TextStyle03
  8
文字
  6
CONTINUOUS
 10
105.4
 20
37.225
  1
中桟フレーム（大）端部断面
 40
3.0
 72
     5
 11
148.9
 21
37.225
  0
INSERT
  2
*DIM_0049
  8
寸法
  6
CONTINUOUS
 10
0.0
 20
0.0
  0
INSERT
  2
*DIM_0050
  8
寸法
  6
CONTINUOUS
 10
0.0
 20
0.0
  0
INSERT
  2
*DIM_0051
  8
寸法
  6
CONTINUOUS
 10
0.0
 20
0.0
  0
INSERT
  2
*DIM_0052
  8
寸法
  6
CONTINUOUS
 10
0.0
 20
0.0
  0
INSERT
  2
*DIM_0053
  8
寸法
  6
CONTINUOUS
 10
0.0
 20
0.0
  0
INSERT
  2
*DIM_0054
  8
寸法
  6
CONTINUOUS
 10
0.0
 20
0.0
  0
INSERT
  2
*DIM_0055
  8
寸法
  6
CONTINUOUS
 10
0.0
 20
0.0
  0
INSERT
  2
*DIM_0056
  8
寸法
  6
CONTINUOUS
 10
0.0
 20
0.0
  0
INSERT
  2
*DIM_0057
  8
寸法
  6
CONTINUOUS
 10
0.0
 20
0.0
  0
INSERT
  2
*DIM_0058
  8
寸法
  6
CONTINUOUS
 10
0.0
 20
0.0
  0
INSERT
  2
*DIM_0059
  8
寸法
  6
CONTINUOUS
 10
0.0
 20
0.0
  0
INSERT
  2
*DIM_0060
  8
寸法
  6
CONTINUOUS
 10
0.0
 20
0.0
  0
INSERT
  2
*DIM_0061
  8
寸法
  6
CONTINUOUS
 10
0.0
 20
0.0
  0
INSERT
  2
*DIM_0062
  8
寸法
  6
CONTINUOUS
 10
0.0
 20
0.0
  0
INSERT
  2
*GRP_0063
  8
寸法
  6
CONTINUOUS
 10
0.0
 20
0.0
  0
INSERT
  2
*DIM_0064
  8
寸法
  6
CONTINUOUS
 10
0.0
 20
0.0
  0
INSERT
  2
*DIM_0065
  8
寸法
  6
CONTINUOUS
 10
0.0
 20
0.0
  0
INSERT
  2
*DIM_0066
  8
寸法
  6
CONTINUOUS
 10
0.0
 20
0.0
  0
INSERT
  2
*DIM_0067
  8
寸法
  6
CONTINUOUS
 10
0.0
 20
0.0
  0
INSERT
  2
*DIM_0068
  8
寸法
  6
CONTINUOUS
 10
0.0
 20
0.0
  0
INSERT
  2
*DIM_0069
  8
寸法
  6
CONTINUOUS
 10
0.0
 20
0.0
  0
INSERT
  2
*DIM_0070
  8
寸法
  6
CONTINUOUS
 10
0.0
 20
0.0
  0
INSERT
  2
*DIM_0071
  8
寸法
  6
CONTINUOUS
 10
0.0
 20
0.0
  0
INSERT
  2
*DIM_0072
  8
寸法
  6
CONTINUOUS
 10
0.0
 20
0.0
  0
INSERT
  2
*DIM_0073
  8
寸法
  6
CONTINUOUS
 10
0.0
 20
0.0
  0
INSERT
  2
*DIM_0074
  8
寸法
  6
CONTINUOUS
 10
0.0
 20
0.0
  0
INSERT
  2
*DIM_0075
  8
寸法
  6
CONTINUOUS
 10
0.0
 20
0.0
  0
INSERT
  2
*DIM_0076
  8
寸法
  6
CONTINUOUS
 10
0.0
 20
0.0
  0
INSERT
  2
*DIM_0077
  8
寸法
  6
CONTINUOUS
 10
0.0
 20
0.0
  0
INSERT
  2
*DIM_0078
  8
寸法
  6
CONTINUOUS
 10
0.0
 20
0.0
  0
INSERT
  2
*DIM_0079
  8
寸法
  6
CONTINUOUS
 10
0.0
 20
0.0
  0
INSERT
  2
*GRP_0080
  8
寸法
  6
CONTINUOUS
 10
0.0
 20
0.0
  0
INSERT
  2
*DIM_0095
  8
寸法
  6
CONTINUOUS
 10
0.0
 20
0.0
  0
INSERT
  2
*GRP_0096
  8
寸法
  6
CONTINUOUS
 10
0.0
 20
0.0
  0
INSERT
  2
*DIM_0097
  8
寸法
  6
CONTINUOUS
 10
0.0
 20
0.0
  0
INSERT
  2
*GRP_0098
  8
寸法
  6
CONTINUOUS
 10
0.0
 20
0.0
  0
INSERT
  2
*GRP_0099
  8
寸法
  6
CONTINUOUS
 10
0.0
 20
0.0
  0
INSERT
  2
*GRP_0100
  8
寸法
  6
CONTINUOUS
 10
0.0
 20
0.0
  0
INSERT
  2
*DIM_0101
  8
寸法
  6
CONTINUOUS
 10
0.0
 20
0.0
  0
INSERT
  2
*GRP_0102
  8
寸法
  6
CONTINUOUS
 10
0.0
 20
0.0
  0
INSERT
  2
*GRP_0103
  8
寸法
  6
CONTINUOUS
 10
0.0
 20
0.0
  0
INSERT
  2
*GRP_0104
  8
寸法
  6
CONTINUOUS
 10
0.0
 20
0.0
  0
INSERT
  2
*DIM_0105
  8
寸法
  6
CONTINUOUS
 10
0.0
 20
0.0
  0
INSERT
  2
*DIM_0106
  8
寸法
  6
CONTINUOUS
 10
0.0
 20
0.0
  0
INSERT
  2
*DIM_0107
  8
寸法
  6
CONTINUOUS
 10
0.0
 20
0.0
  0
INSERT
  2
*DIM_0108
  8
寸法
  6
CONTINUOUS
 10
0.0
 20
0.0
  0
INSERT
  2
*GRP_0109
  8
寸法
  6
CONTINUOUS
 10
0.0
 20
0.0
  0
INSERT
  2
*GRP_0110
  8
寸法
  6
CONTINUOUS
 10
0.0
 20
0.0
  0
INSERT
  2
*GRP_0111
  8
寸法
  6
CONTINUOUS
 10
0.0
 20
0.0
  0
INSERT
  2
*GRP_0112
  8
寸法
  6
CONTINUOUS
 10
0.0
 20
0.0
  0
INSERT
  2
*GRP_0113
  8
寸法
  6
CONTINUOUS
 10
0.0
 20
0.0
  0
INSERT
  2
*GRP_0114
  8
寸法
  6
CONTINUOUS
 10
0.0
 20
0.0
  0
INSERT
  2
*GRP_0115
  8
寸法
  6
CONTINUOUS
 10
0.0
 20
0.0
  0
INSERT
  2
*GRP_0116
  8
寸法
  6
CONTINUOUS
 10
0.0
 20
0.0
  0
INSERT
  2
*GRP_0117
  8
寸法
  6
CONTINUOUS
 10
0.0
 20
0.0
  0
INSERT
  2
*GRP_0118
  8
寸法
  6
CONTINUOUS
 10
0.0
 20
0.0
  0
INSERT
  2
*GRP_0119
  8
寸法
  6
CONTINUOUS
 10
0.0
 20
0.0
  0
INSERT
  2
*GRP_0120
  8
寸法
  6
CONTINUOUS
 10
0.0
 20
0.0
  0
INSERT
  2
*GRP_0121
  8
寸法
  6
CONTINUOUS
 10
0.0
 20
0.0
  0
INSERT
  2
*GRP_0122
  8
寸法
  6
CONTINUOUS
 10
0.0
 20
0.0
  0
INSERT
  2
*GRP_0123
  8
寸法
  6
CONTINUOUS
 10
0.0
 20
0.0
  0
INSERT
  2
*GRP_0124
  8
寸法
  6
CONTINUOUS
 10
0.0
 20
0.0
  0
INSERT
  2
*DIM_0125
  8
寸法
  6
CONTINUOUS
 10
0.0
 20
0.0
  0
INSERT
  2
*DIM_0126
  8
寸法
  6
CONTINUOUS
 10
0.0
 20
0.0
  0
INSERT
  2
*DIM_0127
  8
寸法
  6
CONTINUOUS
 10
0.0
 20
0.0
  0
INSERT
  2
*DIM_0128
  8
寸法
  6
CONTINUOUS
 10
0.0
 20
0.0
  0
INSERT
  2
*DIM_0144
  8
寸法
  6
CONTINUOUS
 10
0.0
 20
0.0
  0
INSERT
  2
*GRP_0145
  8
寸法
  6
CONTINUOUS
 10
0.0
 20
0.0
  0
INSERT
  2
*HAT_0013
  8
ﾊｯﾁﾝｸﾞ
 10
0.0
 20
0.0
  0
INSERT
  2
*HAT_0014
  8
ﾊｯﾁﾝｸﾞ
 10
0.0
 20
0.0
  0
INSERT
  2
*GRP_0081
  8
別途部材
  6
CONTINUOUS
 10
0.0
 20
0.0
  0
ARC
  8
別途部材
  6
CONTINUOUS
 62
    96
 10
-83.209413
 20
-28.012505
 40
1.668651
 50
90.001373
 51
158.200992
  0
LINE
  8
別途部材
  6
CONTINUOUS
 62
    96
 10
-85.017
 20
-25.342665
 11
-68.350335
 21
-25.342665
  0
LINE
  8
別途部材
  6
CONTINUOUS
 62
    96
 10
-83.209415
 20
-26.34386
 11
-67.79548
 21
-26.34386
  0
LINE
  8
別途部材
  6
CONTINUOUS
 10
-89.016993
 20
-35.342665
 11
-87.938677
 21
-35.342665
  0
LINE
  8
別途部材
  6
CONTINUOUS
 62
    96
 10
-85.017
 20
-25.342665
 11
-89.016993
 21
-35.342665
  0
LINE
  8
別途部材
  6
CONTINUOUS
 62
    96
 10
-84.75873
 20
-27.392792
 11
-87.938677
 21
-35.342665
  0
ARC
  8
別途部材
  6
CONTINUOUS
 10
-4.431738
 20
-58.65527
 40
72.078542
 50
90.0
 51
152.472719
  0
ARC
  8
別途部材
  6
CONTINUOUS
 10
-4.431738
 20
-58.65527
 40
71.126582
 50
90.0
 51
152.981359
  0
ARC
  8
別途部材
  6
CONTINUOUS
 62
    96
 10
74.344953
 20
-28.012505
 40
1.668651
 50
21.799008
 51
89.998627
  0
LINE
  8
別途部材
  6
CONTINUOUS
 62
    96
 10
76.15254
 20
-25.342665
 11
59.485875
 21
-25.342665
  0
LINE
  8
別途部材
  6
CONTINUOUS
 62
    96
 10
74.344955
 20
-26.34386
 11
58.93102
 21
-26.34386
  0
LINE
  8
別途部材
  6
CONTINUOUS
 10
80.152533
 20
-35.342665
 11
79.074217
 21
-35.342665
  0
LINE
  8
別途部材
  6
CONTINUOUS
 62
    96
 10
76.15254
 20
-25.342665
 11
80.152533
 21
-35.342665
  0
LINE
  8
別途部材
  6
CONTINUOUS
 62
    96
 10
75.89427
 20
-27.392792
 11
79.074217
 21
-35.342665
  0
ARC
  8
別途部材
  6
CONTINUOUS
 10
-4.432722
 20
-58.65527
 40
72.078542
 50
27.527281
 51
90.0
  0
ARC
  8
別途部材
  6
CONTINUOUS
 10
-4.432722
 20
-58.65527
 40
71.126582
 50
27.018641
 51
90.0
  0
INSERT
  2
*GRP_0082
  8
別途部材
  6
CONTINUOUS
 10
0.0
 20
0.0
  0
INSERT
  2
*GRP_0083
  8
St
  6
CONTINUOUS
 62
   127
 10
0.0
 20
0.0
  0
INSERT
  2
*HAT_0015
  8
St
 10
0.0
 20
0.0
  0
INSERT
  2
*GRP_0084
  8
St
  6
CONTINUOUS
 62
   127
 10
0.0
 20
0.0
  0
INSERT
  2
*HAT_0016
  8
St
 10
0.0
 20
0.0
  0
SPLINE
  5
1400020
100
AcDbEntity
  8
St
100
AcDbSpline
  6
CONTINUOUS
 70
     0
 71
     3
 74
     6
 44
0.0
 11
-89.850997
 21
-62.593985
 11
-89.065095
 21
-62.179888
 11
-87.56681
 21
-62.910458
 11
-86.850997
 21
-62.593985
 11
-87.603957
 21
-62.303712
 11
-88.582175
 21
-62.427538
  0
LINE
  8
St
  6
CONTINUOUS
 10
-86.850997
 20
-77.799032
 11
-86.850997
 21
-62.59724
  0
LINE
  8
St
  6
DASHDOT
 10
-88.350997
 20
-77.799032
 11
-88.350997
 21
-62.59724
  0
LINE
  8
St
  6
CONTINUOUS
 10
-89.850997
 20
-77.799032
 11
-89.850997
 21
-62.59724
  0
SPLINE
  5
1400021
100
AcDbEntity
  8
St
100
AcDbSpline
  6
CONTINUOUS
 70
     0
 71
     3
 74
     6
 44
0.0
 11
-90.53797
 21
-64.673712
 11
-90.3844
 21
-65.650047
 11
-88.554562
 21
-65.790427
 11
-88.43654
 21
-66.814735
 11
-89.556157
 21
-66.258683
 11
-89.641507
 21
-65.676508
  0
SPLINE
  5
1400022
100
AcDbEntity
  8
St
100
AcDbSpline
  6
CONTINUOUS
 70
     0
 71
     3
 74
     6
 44
0.0
 11
-81.69618
 21
-55.981542
 11
-80.777322
 21
-56.115085
 11
-80.50892
 21
-57.874022
 11
-79.59475
 21
-58.122567
 11
-79.85084
 21
-57.083037
 11
-80.642838
 21
-56.87073
  0
LINE
  8
St
  6
CONTINUOUS
 10
-90.551617
 20
-64.673213
 11
-81.69618
 21
-55.981542
  0
LINE
  8
St
  6
CONTINUOUS
 10
-88.450187
 20
-66.814238
 11
-79.59475
 21
-58.122567
  0
LINE
  8
St
  6
CONTINUOUS
 10
-87.16177
 20
-53.342705
 11
-86.628435
 21
-52.809372
  0
LINE
  8
St
  6
CONTINUOUS
 10
-86.926068
 20
-53.342705
 11
-86.392732
 21
-52.809372
  0
LINE
  8
St
  6
CONTINUOUS
 10
-78.154677
 20
-53.342705
 11
-77.621342
 21
-52.809372
  0
LINE
  8
St
  6
CONTINUOUS
 10
-77.918975
 20
-53.342705
 11
-77.38564
 21
-52.809372
  0
LINE
  8
St
  6
CONTINUOUS
 10
-96.150905
 20
-53.342705
 11
-96.150905
 21
-50.959918
  0
LINE
  8
St
  6
CONTINUOUS
 10
-96.684238
 20
-53.342705
 11
-96.684238
 21
-50.959918
  0
ARC
  8
St
  6
CONTINUOUS
 10
-96.150904
 20
-50.959916
 40
0.533333
 50
99.619743
 51
180.0
  0
ARC
  8
St
  6
CONTINUOUS
 10
-65.975738
 20
-52.809371
 40
0.533333
 50
-90.0
 51
0.0
  0
LINE
  8
St
  6
CONTINUOUS
 10
-96.150905
 20
-52.809372
 11
-65.978547
 21
-52.809372
  0
LINE
  8
St
  6
DOT
 10
-65.978547
 20
-52.809372
 11
-59.017502
 21
-52.809372
  0
LINE
  8
St
  6
CONTINUOUS
 10
-96.684238
 20
-53.342705
 11
-59.017502
 21
-53.342705
  0
LINE
  8
St
  6
CONTINUOUS
 10
-65.978547
 20
-52.809372
 11
-65.978547
 21
-45.84595
  0
LINE
  8
St
  6
CONTINUOUS
 10
-65.442405
 20
-53.342705
 11
-65.442405
 21
-45.755077
  0
LINE
  8
St
  6
CONTINUOUS
 10
-96.240027
 20
-50.434083
 11
-59.017502
 21
-44.12517
  0
LINE
  8
St
  6
CONTINUOUS
 10
-96.150905
 20
-50.959918
 11
-59.017502
 21
-44.66611
  0
LINE
  8
St
  6
CONTINUOUS
 10
-85.564042
 20
-48.62459
 11
-86.215383
 21
-49.275928
  0
LINE
  8
St
  6
CONTINUOUS
 10
-85.280238
 20
-48.576487
 11
-85.931578
 21
-49.227825
  0
LINE
  8
St
  6
CONTINUOUS
 10
-71.954675
 20
-46.317912
 11
-72.606015
 21
-46.96925
  0
LINE
  8
St
  6
CONTINUOUS
 10
-71.67087
 20
-46.26981
 11
-72.32221
 21
-46.921148
  0
LINE
  8
St
  6
CONTINUOUS
 10
78.29731
 20
-53.342705
 11
77.763975
 21
-52.809372
  0
LINE
  8
St
  6
CONTINUOUS
 10
78.061607
 20
-53.342705
 11
77.528272
 21
-52.809372
  0
LINE
  8
St
  6
CONTINUOUS
 10
69.290217
 20
-53.342705
 11
68.756883
 21
-52.809372
  0
LINE
  8
St
  6
CONTINUOUS
 10
69.054515
 20
-53.342705
 11
68.52118
 21
-52.809372
  0
LINE
  8
St
  6
CONTINUOUS
 10
87.286445
 20
-53.342705
 11
87.286445
 21
-50.959918
  0
LINE
  8
St
  6
CONTINUOUS
 10
87.819778
 20
-53.342705
 11
87.819778
 21
-50.959918
  0
ARC
  8
St
  6
CONTINUOUS
 10
87.286444
 20
-50.959916
 40
0.533333
 50
0.0
 51
80.380257
  0
ARC
  8
St
  6
CONTINUOUS
 10
57.111278
 20
-52.809371
 40
0.533333
 50
180.0
 51
270.0
  0
LINE
  8
St
  6
CONTINUOUS
 10
87.286445
 20
-52.809372
 11
57.114087
 21
-52.809372
  0
LINE
  8
St
  6
DOT
 10
57.114087
 20
-52.809372
 11
50.153043
 21
-52.809372
  0
LINE
  8
St
  6
CONTINUOUS
 10
87.819778
 20
-53.342705
 11
50.153043
 21
-53.342705
  0
LINE
  8
St
  6
CONTINUOUS
 10
57.114087
 20
-52.809372
 11
57.114087
 21
-45.84595
  0
LINE
  8
St
  6
CONTINUOUS
 10
56.577945
 20
-53.342705
 11
56.577945
 21
-45.755077
  0
LINE
  8
St
  6
CONTINUOUS
 10
87.375568
 20
-50.434083
 11
50.153043
 21
-44.12517
  0
LINE
  8
St
  6
CONTINUOUS
 10
87.286445
 20
-50.959918
 11
50.153043
 21
-44.66611
  0
LINE
  8
St
  6
CONTINUOUS
 10
76.699582
 20
-48.62459
 11
77.350922
 21
-49.275928
  0
LINE
  8
St
  6
CONTINUOUS
 10
76.415777
 20
-48.576487
 11
77.067117
 21
-49.227825
  0
LINE
  8
St
  6
CONTINUOUS
 10
63.090215
 20
-46.317912
 11
63.741555
 21
-46.96925
  0
LINE
  8
St
  6
CONTINUOUS
 10
62.80641
 20
-46.26981
 11
63.45775
 21
-46.921148
  0
LINE
  8
St
  6
CONTINUOUS
 10
-68.35086
 20
-27.50932
 11
-67.35086
 21
-27.50932
  0
LINE
  8
St
  6
CONTINUOUS
 10
59.4864
 20
-27.50932
 11
58.4864
 21
-27.50932
  0
LINE
  8
St
  6
CONTINUOUS
 10
-67.35086
 20
-27.50932
 11
-67.35086
 21
-33.676065
  0
LINE
  8
St
  6
CONTINUOUS
 10
-67.35086
 20
-34.342692
 11
-67.35086
 21
-40.676015
  0
LINE
  8
St
  6
CONTINUOUS
 10
58.4864
 20
-27.50932
 11
58.4864
 21
-33.676065
  0
LINE
  8
St
  6
CONTINUOUS
 10
58.4864
 20
-34.342692
 11
58.4864
 21
-40.676015
  0
INSERT
  2
*GRP_0085
  8
St
  6
CONTINUOUS
 10
0.0
 20
0.0
  0
INSERT
  2
*GRP_0086
  8
St
  6
DOT
 10
0.0
 20
0.0
  0
LINE
  8
St
  6
CONTINUOUS
 10
12.234438
 20
-33.009345
 11
5.134438
 21
-33.009345
  0
LINE
  8
St
  6
CONTINUOUS
 10
-13.998898
 20
-33.009345
 11
-21.098898
 21
-33.009345
  0
LINE
  8
St
  6
DOT
 10
5.134438
 20
-33.009345
 11
-14.062283
 21
-33.009345
  0
LINE
  8
St
  6
CONTINUOUS
 10
12.234438
 20
-33.009345
 11
12.234438
 21
-37.009343
  0
LINE
  8
St
  6
DOT
 10
12.234438
 20
-37.009343
 11
12.234438
 21
-38.67601
  0
LINE
  8
St
  6
CONTINUOUS
 10
-21.098898
 20
-33.009345
 11
-21.098898
 21
-37.009343
  0
LINE
  8
St
  6
DOT
 10
-21.098898
 20
-37.009343
 11
-21.098898
 21
-38.67601
  0
LINE
  8
St
  6
DOT
 10
12.234438
 20
-38.67601
 11
-21.098898
 21
-38.67601
  0
LINE
  8
St
  6
CONTINUOUS
 10
12.234445
 20
-89.313497
 11
5.134445
 21
-89.313497
  0
LINE
  8
St
  6
CONTINUOUS
 10
-13.99889
 20
-89.313497
 11
-21.09889
 21
-89.313497
  0
LINE
  8
St
  6
DOT
 10
5.134445
 20
-89.313497
 11
-14.062275
 21
-89.313497
  0
LINE
  8
St
  6
CONTINUOUS
 10
12.234445
 20
-89.313497
 11
12.234445
 21
-93.313495
  0
LINE
  8
St
  6
DOT
 10
12.234445
 20
-93.313495
 11
12.234445
 21
-94.980163
  0
LINE
  8
St
  6
CONTINUOUS
 10
-21.09889
 20
-89.313497
 11
-21.09889
 21
-93.313495
  0
LINE
  8
St
  6
DOT
 10
-21.09889
 20
-93.313495
 11
-21.09889
 21
-94.980163
  0
LINE
  8
St
  6
DOT
 10
12.234445
 20
-94.980163
 11
-21.09889
 21
-94.980163
  0
LINE
  8
St
  6
DOT
 10
-4.432222
 20
-94.280165
 11
18.901105
 21
-94.280165
  0
LINE
  8
St
  6
DOT
 10
-4.432222
 20
-94.280165
 11
-27.765563
 21
-94.280165
  0
LINE
  8
St
  6
DOT
 10
-4.432237
 20
-94.813497
 11
18.901105
 21
-94.813497
  0
LINE
  8
St
  6
DOT
 10
-4.432222
 20
-94.813497
 11
-27.765563
 21
-94.813497
  0
LINE
  8
St
  6
DOT
 10
-4.432222
 20
-90.980165
 11
18.901105
 21
-90.980165
  0
LINE
  8
St
  6
DOT
 10
-4.432222
 20
-90.980165
 11
-27.765563
 21
-90.980165
  0
LINE
  8
その他部品等
  6
CONTINUOUS
 10
-98.350778
 20
-54.009325
 11
-98.350778
 21
-59.009325
  0
LINE
  8
その他部品等
  6
CONTINUOUS
 10
-95.818435
 20
-54.009325
 11
-95.818435
 21
-58.664787
  0
LINE
  8
その他部品等
  6
CONTINUOUS
 10
-93.88421
 20
-58.401627
 11
-95.818435
 21
-54.009325
  0
LINE
  8
その他部品等
  6
CONTINUOUS
 10
-131.150918
 20
-83.544485
 11
-125.0177
 21
-83.544485
  0
LINE
  8
その他部品等
  6
CONTINUOUS
 10
-131.150918
 20
-80.877818
 11
-125.0177
 21
-80.877818
  0
LINE
  8
その他部品等
  6
CONTINUOUS
 10
-125.0177
 20
-78.211153
 11
-129.984217
 21
-78.211153
  0
LINE
  8
その他部品等
  6
CONTINUOUS
 10
-129.984217
 20
-78.211153
 11
-129.984217
 21
-80.877818
  0
LINE
  8
その他部品等
  6
CONTINUOUS
 10
-129.984217
 20
-78.211153
 11
-125.0177
 21
-80.877818
  0
INSERT
  2
*HAT_0017
  8
その他部品等
 10
0.0
 20
0.0
  0
INSERT
  2
*HAT_0018
  8
その他部品等
 10
0.0
 20
0.0
  0
INSERT
  2
*HAT_0019
  8
その他部品等
 10
0.0
 20
0.0
  0
INSERT
  2
*HAT_0020
  8
その他部品等
 10
0.0
 20
0.0
  0
LINE
  8
その他部品等
  6
CONTINUOUS
 10
89.486318
 20
-54.009325
 11
89.486318
 21
-59.009325
  0
LINE
  8
その他部品等
  6
CONTINUOUS
 10
86.953975
 20
-54.009325
 11
86.953975
 21
-58.664787
  0
LINE
  8
その他部品等
  6
CONTINUOUS
 10
85.01975
 20
-58.401627
 11
86.953975
 21
-54.009325
  0
LINE
  8
その他部品等
  6
CONTINUOUS
 10
122.286457
 20
-83.544485
 11
116.15324
 21
-83.544485
  0
LINE
  8
その他部品等
  6
CONTINUOUS
 10
122.286457
 20
-80.877818
 11
116.15324
 21
-80.877818
  0
LINE
  8
その他部品等
  6
CONTINUOUS
 10
116.15324
 20
-78.211153
 11
121.119758
 21
-78.211153
  0
LINE
  8
その他部品等
  6
CONTINUOUS
 10
121.119758
 20
-78.211153
 11
121.119758
 21
-80.877818
  0
LINE
  8
その他部品等
  6
CONTINUOUS
 10
121.119758
 20
-78.211153
 11
116.15324
 21
-80.877818
  0
INSERT
  2
*HAT_0021
  8
その他部品等
 10
0.0
 20
0.0
  0
INSERT
  2
*HAT_0022
  8
その他部品等
 10
0.0
 20
0.0
  0
INSERT
  2
*HAT_0023
  8
その他部品等
 10
0.0
 20
0.0
  0
INSERT
  2
*HAT_0024
  8
その他部品等
 10
0.0
 20
0.0
  0
LINE
  8
LAYER010
  6
DOT
 62
     7
 10
-83.750785
 20
-28.009313
 11
-83.750785
 21
-29.509325
  0
CIRCLE
  8
LAYER010
  6
CONTINUOUS
 62
     7
 10
-98.350782
 20
-49.009353
 40
0.11111
  0
CIRCLE
  8
LAYER010
  6
CONTINUOUS
 62
     7
 10
89.486322
 20
-49.009353
 40
0.11111
  0
ENDSEC
  0
EOF
