  0
SECTION
  2
HEADER
  9
$EXTMIN
 10
-210.0
 20
-148.5
  9
$EXTMAX
 10
210.0
 20
148.5
  9
$PDMODE
 70
    32
  9
$PDSIZE
 40
0.3
  9
$LTSCALE
 40
10.0
  0
ENDSEC
  0
SECTION
  2
TABLES
  0
TABLE
  2
LTYPE
 70
    15
  0
LTYPE
  2
CONTINUOUS
 70
    64
  3
実線
 72
    65
 73
     0
 40
0.0
  0
LTYPE
  2
DASHED
 70
    64
  3
破線A
 72
    65
 73
     2
 40
0.6
 49
0.4
 49
-0.2
  0
LTYPE
  2
DASHEDX2
 70
    64
  3
破線B
 72
    65
 73
     2
 40
1.3
 49
0.9
 49
-0.4
  0
LTYPE
  2
DASHDOT
 70
    64
  3
１点鎖線A
 72
    65
 73
     4
 40
0.5375
 49
0.375
 49
-0.05
 49
0.0625
 49
-0.05
  0
LTYPE
  2
DASHDOTX2
 70
    64
  3
１点鎖線B
 72
    65
 73
     4
 40
1.075
 49
0.75
 49
-0.1
 49
0.125
 49
-0.1
  0
LTYPE
  2
DIVIDE2
 70
    64
  3
２点鎖線A
 72
    65
 73
     6
 40
0.5125
 49
0.3
 49
-0.0375
 49
0.05
 49
-0.0375
 49
0.05
 49
-0.0375
  0
LTYPE
  2
DIVIDE
 70
    64
  3
２点鎖線B
 72
    65
 73
     6
 40
1.05
 49
0.55
 49
-0.1
 49
0.1
 49
-0.1
 49
0.1
 49
-0.1
  0
LTYPE
  2
DOT
 70
    64
  3
点線A
 72
    65
 73
     2
 40
0.1125
 49
0.0625
 49
-0.05
  0
LTYPE
  2
DOTX2
 70
    64
  3
点線B
 72
    65
 73
     2
 40
0.275
 49
0.15
 49
-0.125
  0
LTYPE
  2
CONTINUOUS
 70
    64
  3
実線
 72
    65
 73
     0
 40
0.0
  0
LTYPE
  2
CONTINUOUS
 70
    64
  3
実線
 72
    65
 73
     0
 40
0.0
  0
LTYPE
  2
CONTINUOUS
 70
    64
  3
実線
 72
    65
 73
     0
 40
0.0
  0
LTYPE
  2
CONTINUOUS
 70
    64
  3
実線
 72
    65
 73
     0
 40
0.0
  0
LTYPE
  2
CONTINUOUS
 70
    64
  3
実線
 72
    65
 73
     0
 40
0.0
  0
LTYPE
  2
CONTINUOUS
 70
    64
  3
実線
 72
    65
 73
     0
 40
0.0
  0
ENDTAB
  0
TABLE
  2
LAYER
 70
    41
  0
LAYER
  2
通り芯
 70
     0
 62
    15
  6
CONTINUOUS
  0
LAYER
  2
補助線
 70
     0
 62
    16
  6
DOT
  0
LAYER
  2
躯体
 70
     0
 62
    31
  6
CONTINUOUS
  0
LAYER
  2
型材
 70
     0
 62
    32
  6
CONTINUOUS
  0
LAYER
  2
型材断面
 70
     0
 62
    47
  6
CONTINUOUS
  0
LAYER
  2
ガラス
 70
     0
 62
    48
  6
CONTINUOUS
  0
LAYER
  2
ゴム等
 70
     0
 62
    63
  6
CONTINUOUS
  0
LAYER
  2
ボルト／ビス
 70
     0
 62
    64
  6
CONTINUOUS
  0
LAYER
  2
文字
 70
     0
 62
    79
  6
CONTINUOUS
  0
LAYER
  2
寸法
 70
     0
 62
    80
  6
CONTINUOUS
  0
LAYER
  2
ﾊｯﾁﾝｸﾞ
 70
     0
 62
    95
  6
CONTINUOUS
  0
LAYER
  2
別途部材
 70
     0
 62
    96
  6
CONTINUOUS
  0
LAYER
  2
曲げ物
 70
     0
 62
   111
  6
CONTINUOUS
  0
LAYER
  2
鉄骨等
 70
     0
 62
   112
  6
CONTINUOUS
  0
LAYER
  2
St
 70
     0
 62
   127
  6
CONTINUOUS
  0
LAYER
  2
その他部品等
 70
     0
 62
   128
  6
CONTINUOUS
  0
LAYER
  2
ｶﾞｽｹｯﾄ
 70
     0
 62
   143
  6
CONTINUOUS
  0
LAYER
  2
ｽｹｯﾁ
 70
     0
 62
    14
  6
CONTINUOUS
  0
LAYER
  2
0
 70
     0
 62
    17
  6
CONTINUOUS
  0
LAYER
  2
1
 70
     0
 62
    30
  6
CONTINUOUS
  0
LAYER
  2
4
 70
     0
 62
    33
  6
CONTINUOUS
  0
LAYER
  2
ﾚｲﾔ3
 70
     0
 62
    46
  6
CONTINUOUS
  0
LAYER
  2
外形線
 70
     0
 62
    49
  6
CONTINUOUS
  0
LAYER
  2
部品
 70
     0
 62
    14
  6
CONTINUOUS
  0
LAYER
  2
サッシ芯
 70
     0
 62
    17
  6
DASHDOTX2
  0
LAYER
  2
寸法線
 70
     0
 62
    62
  6
CONTINUOUS
  0
LAYER
  2
姿図外形線
 70
     0
 62
    65
  6
CONTINUOUS
  0
LAYER
  2
姿補助線
 70
     0
 62
    30
  6
CONTINUOUS
  0
LAYER
  2
透視線
 70
     0
 62
    78
  6
DOT
  0
LAYER
  2
用紙
 70
     0
 62
    81
  6
CONTINUOUS
  0
LAYER
  2
実線図枠
 70
     0
 62
    94
  6
CONTINUOUS
  0
LAYER
  2
補助図枠
 70
     0
 62
    97
  6
CONTINUOUS
  0
LAYER
  2
建具記号
 70
     0
 62
   110
  6
CONTINUOUS
  0
LAYER
  2
補助文字
 70
     0
 62
   113
  6
CONTINUOUS
  0
LAYER
  2
LAYER001
 70
     0
 62
     7
  6
CONTINUOUS
  0
LAYER
  2
LAYER010
 70
     0
 62
    11
  6
CONTINUOUS
  0
LAYER
  2
LAYER011
 70
     0
 62
    12
  6
CONTINUOUS
  0
LAYER
  2
LAYER013
 70
     0
 62
    14
  6
CONTINUOUS
  0
LAYER
  2
LAYER026
 70
     0
 62
    11
  6
CONTINUOUS
  0
LAYER
  2
断面線04
 70
     0
 62
     4
  6
CONTINUOUS
  0
LAYER
  2
投影線02
 70
     0
 62
    12
  6
CONTINUOUS
  0
ENDTAB
  0
TABLE
  2
STYLE
 70
    10
  0
STYLE
  2
STANDARD
 70
     0
 40
1.0
 41
1.0
 42
1.0
 50
0.0
 71
     0
  3
TXT
  4
BIGFONT
  0
STYLE
  2
TATE
 70
     4
 40
1.0
 41
1.0
 42
1.0
 50
0.0
 71
     0
  3
TXT
  4
BIGFONT
  0
STYLE
  2
TextStyle03
 70
     0
 40
1.0
 41
1.0
 42
1.0
 50
0.0
 71
     0
  3
MONOTXT
  4
BIGFONT
  0
STYLE
  2
TextStyle04
 70
     0
 40
1.0
 41
1.0
 42
1.0
 50
0.0
 71
     0
  3
MONOTXT
  4
BIGFONT
  0
STYLE
  2
TextStyle05
 70
     0
 40
1.0
 41
1.0
 42
1.0
 50
0.0
 71
     0
  3
MONOTXT
  4
BIGFONT
  0
STYLE
  2
TextStyle06
 70
     0
 40
1.0
 41
1.0
 42
1.0
 50
0.0
 71
     0
  3
MONOTXT
  4
BIGFONT
  0
STYLE
  2
TextStyle07
 70
     0
 40
1.0
 41
1.0
 42
1.0
 50
0.0
 71
     0
  3
MONOTXT
  4
BIGFONT
  0
STYLE
  2
TextStyle08
 70
     0
 40
1.0
 41
1.0
 42
1.0
 50
0.0
 71
     0
  3
MONOTXT
  4
BIGFONT
  0
STYLE
  2
TextStyle09
 70
     0
 40
1.0
 41
1.0
 42
1.0
 50
0.0
 71
     0
  3
MONOTXT
  4
BIGFONT
  0
STYLE
  2
TextStyle10
 70
     0
 40
1.0
 41
1.0
 42
1.0
 50
0.0
 71
     0
  3
MONOTXT
  4
BIGFONT
  0
ENDTAB
  0
ENDSEC
  0
SECTION
  2
BLOCKS
  0
BLOCK
  2
*HAT_0001
 70
    65
 10
0.0
 20
0.0
  0
LINE
  8
ゴム等
 10
-61.325
 20
-29.6
 11
-61.1
 21
-29.375
  0
LINE
  8
ゴム等
 10
-61.8
 20
-29.6
 11
-61.1
 21
-28.9
  0
LINE
  8
ゴム等
 10
-62.275
 20
-29.6
 11
-61.1
 21
-28.45
  0
LINE
  8
ゴム等
 10
-62.725
 20
-29.6
 11
-61.1
 21
-27.975
  0
LINE
  8
ゴム等
 10
-63.2
 20
-29.6
 11
-61.55
 21
-27.925
  0
LINE
  8
ゴム等
 10
-63.675
 20
-29.6
 11
-62.0
 21
-27.925
  0
LINE
  8
ゴム等
 10
-64.15
 20
-29.6
 11
-62.475
 21
-27.925
  0
LINE
  8
ゴム等
 10
-64.425
 20
-29.425
 11
-62.95
 21
-27.925
  0
LINE
  8
ゴム等
 10
-64.425
 20
-28.95
 11
-63.425
 21
-27.925
  0
LINE
  8
ゴム等
 10
-64.425
 20
-28.475
 11
-63.9
 21
-27.925
  0
LINE
  8
ゴム等
 10
-64.425
 20
-28.0
 11
-64.375
 21
-27.925
  0
ENDBLK
  0
BLOCK
  2
*HAT_0002
 70
    65
 10
0.0
 20
0.0
  0
LINE
  8
ゴム等
 10
52.475
 20
-29.6
 11
52.25
 21
-29.375
  0
LINE
  8
ゴム等
 10
52.95
 20
-29.6
 11
52.25
 21
-28.9
  0
LINE
  8
ゴム等
 10
53.425
 20
-29.6
 11
52.25
 21
-28.45
  0
LINE
  8
ゴム等
 10
53.875
 20
-29.6
 11
52.25
 21
-27.975
  0
LINE
  8
ゴム等
 10
54.35
 20
-29.6
 11
52.7
 21
-27.925
  0
LINE
  8
ゴム等
 10
54.825
 20
-29.6
 11
53.15
 21
-27.925
  0
LINE
  8
ゴム等
 10
55.3
 20
-29.6
 11
53.625
 21
-27.925
  0
LINE
  8
ゴム等
 10
55.575
 20
-29.425
 11
54.1
 21
-27.925
  0
LINE
  8
ゴム等
 10
55.575
 20
-28.95
 11
54.575
 21
-27.925
  0
LINE
  8
ゴム等
 10
55.575
 20
-28.475
 11
55.05
 21
-27.925
  0
LINE
  8
ゴム等
 10
55.575
 20
-28.0
 11
55.525
 21
-27.925
  0
ENDBLK
  0
BLOCK
  2
*HAT_0003
 70
    65
 10
0.0
 20
0.0
  0
LINE
  8
ゴム等
 10
52.025
 20
-25.675
 11
52.75
 21
-24.925
  0
LINE
  8
ゴム等
 10
51.175
 20
-25.675
 11
52.75
 21
-24.075
  0
LINE
  8
ゴム等
 10
50.325
 20
-25.675
 11
52.4
 21
-23.6
  0
LINE
  8
ゴム等
 10
49.475
 20
-25.675
 11
51.55
 21
-23.6
  0
LINE
  8
ゴム等
 10
49.425
 20
-24.875
 11
50.7
 21
-23.6
  0
LINE
  8
ゴム等
 10
49.425
 20
-24.025
 11
49.85
 21
-23.6
  0
ENDBLK
  0
BLOCK
  2
*HAT_0004
 70
    65
 10
0.0
 20
0.0
  0
LINE
  8
ゴム等
 10
-13.3
 20
-29.575
 11
-13.525
 21
-29.35
  0
LINE
  8
ゴム等
 10
-12.825
 20
-29.575
 11
-13.525
 21
-28.875
  0
LINE
  8
ゴム等
 10
-12.35
 20
-29.575
 11
-13.525
 21
-28.425
  0
LINE
  8
ゴム等
 10
-11.9
 20
-29.575
 11
-13.525
 21
-27.95
  0
LINE
  8
ゴム等
 10
-11.425
 20
-29.575
 11
-13.075
 21
-27.9
  0
LINE
  8
ゴム等
 10
-10.95
 20
-29.575
 11
-12.625
 21
-27.9
  0
LINE
  8
ゴム等
 10
-10.475
 20
-29.575
 11
-12.15
 21
-27.9
  0
LINE
  8
ゴム等
 10
-10.2
 20
-29.4
 11
-11.675
 21
-27.9
  0
LINE
  8
ゴム等
 10
-10.2
 20
-28.925
 11
-11.2
 21
-27.9
  0
LINE
  8
ゴム等
 10
-10.2
 20
-28.45
 11
-10.725
 21
-27.9
  0
LINE
  8
ゴム等
 10
-10.2
 20
-27.975
 11
-10.25
 21
-27.9
  0
ENDBLK
  0
BLOCK
  2
*HAT_0005
 70
    65
 10
0.0
 20
0.0
  0
LINE
  8
ゴム等
  6
DOT
 10
-13.075
 20
-25.625
 11
-12.35
 21
-24.875
  0
LINE
  8
ゴム等
  6
DOT
 10
-13.925
 20
-25.625
 11
-12.35
 21
-24.025
  0
LINE
  8
ゴム等
  6
DOT
 10
-14.775
 20
-25.625
 11
-12.7
 21
-23.55
  0
LINE
  8
ゴム等
  6
DOT
 10
-15.625
 20
-25.625
 11
-13.55
 21
-23.55
  0
LINE
  8
ゴム等
  6
DOT
 10
-15.675
 20
-24.825
 11
-14.4
 21
-23.55
  0
LINE
  8
ゴム等
  6
DOT
 10
-15.675
 20
-23.975
 11
-15.25
 21
-23.55
  0
ENDBLK
  0
BLOCK
  2
*HAT_0006
 70
    65
 10
0.0
 20
0.0
  0
LINE
  8
ゴム等
  6
DOT
 10
4.2
 20
-25.625
 11
3.475
 21
-24.875
  0
LINE
  8
ゴム等
  6
DOT
 10
5.05
 20
-25.625
 11
3.475
 21
-24.025
  0
LINE
  8
ゴム等
  6
DOT
 10
5.9
 20
-25.625
 11
3.825
 21
-23.55
  0
LINE
  8
ゴム等
  6
DOT
 10
6.75
 20
-25.625
 11
4.675
 21
-23.55
  0
LINE
  8
ゴム等
  6
DOT
 10
6.8
 20
-24.825
 11
5.525
 21
-23.55
  0
LINE
  8
ゴム等
  6
DOT
 10
6.8
 20
-23.975
 11
6.375
 21
-23.55
  0
ENDBLK
  0
BLOCK
  2
*HAT_0007
 70
    65
 10
0.0
 20
0.0
  0
LINE
  8
ゴム等
 10
4.425
 20
-29.575
 11
4.65
 21
-29.35
  0
LINE
  8
ゴム等
 10
3.95
 20
-29.575
 11
4.65
 21
-28.875
  0
LINE
  8
ゴム等
 10
3.475
 20
-29.575
 11
4.65
 21
-28.425
  0
LINE
  8
ゴム等
 10
3.025
 20
-29.575
 11
4.65
 21
-27.95
  0
LINE
  8
ゴム等
 10
2.55
 20
-29.575
 11
4.2
 21
-27.9
  0
LINE
  8
ゴム等
 10
2.075
 20
-29.575
 11
3.75
 21
-27.9
  0
LINE
  8
ゴム等
 10
1.6
 20
-29.575
 11
3.275
 21
-27.9
  0
LINE
  8
ゴム等
 10
1.325
 20
-29.4
 11
2.8
 21
-27.9
  0
LINE
  8
ゴム等
 10
1.325
 20
-28.925
 11
2.325
 21
-27.9
  0
LINE
  8
ゴム等
 10
1.325
 20
-28.45
 11
1.85
 21
-27.9
  0
LINE
  8
ゴム等
 10
1.325
 20
-27.975
 11
1.375
 21
-27.9
  0
ENDBLK
  0
BLOCK
  2
*HAT_0008
 70
    65
 10
0.0
 20
0.0
  0
LINE
  8
ゴム等
 10
4.45
 20
-83.475
 11
4.675
 21
-83.25
  0
LINE
  8
ゴム等
 10
3.975
 20
-83.475
 11
4.675
 21
-82.775
  0
LINE
  8
ゴム等
 10
3.5
 20
-83.475
 11
4.675
 21
-82.325
  0
LINE
  8
ゴム等
 10
3.05
 20
-83.475
 11
4.675
 21
-81.85
  0
LINE
  8
ゴム等
 10
2.575
 20
-83.475
 11
4.225
 21
-81.8
  0
LINE
  8
ゴム等
 10
2.1
 20
-83.475
 11
3.775
 21
-81.8
  0
LINE
  8
ゴム等
 10
1.625
 20
-83.475
 11
3.3
 21
-81.8
  0
LINE
  8
ゴム等
 10
1.35
 20
-83.3
 11
2.825
 21
-81.8
  0
LINE
  8
ゴム等
 10
1.35
 20
-82.825
 11
2.35
 21
-81.8
  0
LINE
  8
ゴム等
 10
1.35
 20
-82.35
 11
1.875
 21
-81.8
  0
LINE
  8
ゴム等
 10
1.35
 20
-81.875
 11
1.4
 21
-81.8
  0
ENDBLK
  0
BLOCK
  2
*HAT_0009
 70
    65
 10
0.0
 20
0.0
  0
LINE
  8
ゴム等
 10
4.275
 20
-79.55
 11
3.55
 21
-78.8
  0
LINE
  8
ゴム等
 10
5.125
 20
-79.55
 11
3.55
 21
-77.95
  0
LINE
  8
ゴム等
 10
5.975
 20
-79.55
 11
3.9
 21
-77.475
  0
LINE
  8
ゴム等
 10
6.825
 20
-79.55
 11
4.75
 21
-77.475
  0
LINE
  8
ゴム等
 10
6.875
 20
-78.75
 11
5.6
 21
-77.475
  0
LINE
  8
ゴム等
 10
6.875
 20
-77.9
 11
6.45
 21
-77.475
  0
ENDBLK
  0
BLOCK
  2
*HAT_0010
 70
    65
 10
0.0
 20
0.0
  0
LINE
  8
ゴム等
 10
-13.3
 20
-83.475
 11
-13.525
 21
-83.25
  0
LINE
  8
ゴム等
 10
-12.825
 20
-83.475
 11
-13.525
 21
-82.775
  0
LINE
  8
ゴム等
 10
-12.35
 20
-83.475
 11
-13.525
 21
-82.325
  0
LINE
  8
ゴム等
 10
-11.9
 20
-83.475
 11
-13.525
 21
-81.85
  0
LINE
  8
ゴム等
 10
-11.425
 20
-83.475
 11
-13.075
 21
-81.8
  0
LINE
  8
ゴム等
 10
-10.95
 20
-83.475
 11
-12.625
 21
-81.8
  0
LINE
  8
ゴム等
 10
-10.475
 20
-83.475
 11
-12.15
 21
-81.8
  0
LINE
  8
ゴム等
 10
-10.2
 20
-83.3
 11
-11.675
 21
-81.8
  0
LINE
  8
ゴム等
 10
-10.2
 20
-82.825
 11
-11.2
 21
-81.8
  0
LINE
  8
ゴム等
 10
-10.2
 20
-82.35
 11
-10.725
 21
-81.8
  0
LINE
  8
ゴム等
 10
-10.2
 20
-81.875
 11
-10.25
 21
-81.8
  0
ENDBLK
  0
BLOCK
  2
*HAT_0011
 70
    65
 10
0.0
 20
0.0
  0
LINE
  8
ゴム等
 10
-13.125
 20
-79.55
 11
-12.4
 21
-78.8
  0
LINE
  8
ゴム等
 10
-13.975
 20
-79.55
 11
-12.4
 21
-77.95
  0
LINE
  8
ゴム等
 10
-14.825
 20
-79.55
 11
-12.75
 21
-77.475
  0
LINE
  8
ゴム等
 10
-15.675
 20
-79.55
 11
-13.6
 21
-77.475
  0
LINE
  8
ゴム等
 10
-15.725
 20
-78.75
 11
-14.45
 21
-77.475
  0
LINE
  8
ゴム等
 10
-15.725
 20
-77.9
 11
-15.3
 21
-77.475
  0
ENDBLK
  0
BLOCK
  2
*HAT_0012
 70
    65
 10
0.0
 20
0.0
  0
LINE
  8
型材断面
  6
DOT
 10
140.325
 20
11.45
 11
139.875
 21
11.9
  0
LINE
  8
型材断面
  6
DOT
 10
141.35
 20
11.275
 11
139.875
 21
12.75
  0
LINE
  8
型材断面
  6
DOT
 10
142.375
 20
11.1
 11
139.875
 21
13.6
  0
LINE
  8
型材断面
  6
DOT
 10
142.525
 20
11.775
 11
140.675
 21
13.65
  0
LINE
  8
型材断面
  6
DOT
 10
142.525
 20
12.625
 11
141.525
 21
13.65
  0
LINE
  8
型材断面
  6
DOT
 10
142.525
 20
13.475
 11
142.35
 21
13.65
  0
ENDBLK
  0
BLOCK
  2
*HAT_0013
 70
    65
 10
0.0
 20
0.0
  0
LINE
  8
St
 10
-70.625
 20
-22.225
 11
-70.0
 21
-22.85
  0
LINE
  8
St
 10
-71.075
 20
-22.225
 11
-70.2
 21
-23.125
  0
LINE
  8
St
 10
-71.55
 20
-22.225
 11
-70.55
 21
-23.225
  0
LINE
  8
St
 10
-72.025
 20
-22.225
 11
-71.025
 21
-23.225
  0
LINE
  8
St
 10
-72.5
 20
-22.225
 11
-71.5
 21
-23.225
  0
LINE
  8
St
 10
-72.975
 20
-22.225
 11
-71.975
 21
-23.225
  0
LINE
  8
St
 10
-73.45
 20
-22.225
 11
-72.45
 21
-23.225
  0
LINE
  8
St
 10
-73.9
 20
-22.225
 11
-72.9
 21
-23.225
  0
LINE
  8
St
 10
-74.375
 20
-22.225
 11
-73.375
 21
-23.225
  0
LINE
  8
St
 10
-74.85
 20
-22.225
 11
-73.85
 21
-23.225
  0
LINE
  8
St
 10
-75.325
 20
-22.225
 11
-74.325
 21
-23.225
  0
LINE
  8
St
 10
-75.8
 20
-22.225
 11
-74.8
 21
-23.225
  0
LINE
  8
St
 10
-76.275
 20
-22.225
 11
-75.275
 21
-23.225
  0
LINE
  8
St
 10
-76.725
 20
-22.225
 11
-75.725
 21
-23.225
  0
LINE
  8
St
 10
-77.2
 20
-22.225
 11
-76.2
 21
-23.225
  0
LINE
  8
St
 10
-77.675
 20
-22.225
 11
-76.675
 21
-23.225
  0
LINE
  8
St
 10
-78.15
 20
-22.225
 11
-77.15
 21
-23.225
  0
LINE
  8
St
 10
-78.625
 20
-22.225
 11
-77.625
 21
-23.225
  0
LINE
  8
St
 10
-79.1
 20
-22.225
 11
-78.1
 21
-23.225
  0
LINE
  8
St
 10
-79.55
 20
-22.225
 11
-78.55
 21
-23.225
  0
LINE
  8
St
 10
-79.875
 20
-22.4
 11
-79.025
 21
-23.225
  0
LINE
  8
St
 10
-80.0
 20
-22.75
 11
-79.5
 21
-23.225
  0
ENDBLK
  0
BLOCK
  2
*HAT_0014
 70
    65
 10
0.0
 20
0.0
  0
LINE
  8
St
 10
61.75
 20
-22.225
 11
61.125
 21
-22.85
  0
LINE
  8
St
 10
62.2
 20
-22.225
 11
61.325
 21
-23.125
  0
LINE
  8
St
 10
62.675
 20
-22.225
 11
61.675
 21
-23.225
  0
LINE
  8
St
 10
63.15
 20
-22.225
 11
62.15
 21
-23.225
  0
LINE
  8
St
 10
63.625
 20
-22.225
 11
62.625
 21
-23.225
  0
LINE
  8
St
 10
64.1
 20
-22.225
 11
63.1
 21
-23.225
  0
LINE
  8
St
 10
64.575
 20
-22.225
 11
63.575
 21
-23.225
  0
LINE
  8
St
 10
65.025
 20
-22.225
 11
64.025
 21
-23.225
  0
LINE
  8
St
 10
65.5
 20
-22.225
 11
64.5
 21
-23.225
  0
LINE
  8
St
 10
65.975
 20
-22.225
 11
64.975
 21
-23.225
  0
LINE
  8
St
 10
66.45
 20
-22.225
 11
65.45
 21
-23.225
  0
LINE
  8
St
 10
66.925
 20
-22.225
 11
65.925
 21
-23.225
  0
LINE
  8
St
 10
67.4
 20
-22.225
 11
66.4
 21
-23.225
  0
LINE
  8
St
 10
67.85
 20
-22.225
 11
66.85
 21
-23.225
  0
LINE
  8
St
 10
68.325
 20
-22.225
 11
67.325
 21
-23.225
  0
LINE
  8
St
 10
68.8
 20
-22.225
 11
67.8
 21
-23.225
  0
LINE
  8
St
 10
69.275
 20
-22.225
 11
68.275
 21
-23.225
  0
LINE
  8
St
 10
69.75
 20
-22.225
 11
68.75
 21
-23.225
  0
LINE
  8
St
 10
70.225
 20
-22.225
 11
69.225
 21
-23.225
  0
LINE
  8
St
 10
70.675
 20
-22.225
 11
69.675
 21
-23.225
  0
LINE
  8
St
 10
71.0
 20
-22.4
 11
70.15
 21
-23.225
  0
LINE
  8
St
 10
71.125
 20
-22.75
 11
70.625
 21
-23.225
  0
ENDBLK
  0
BLOCK
  2
*HAT_0015
 70
    65
 10
0.0
 20
0.0
  0
LINE
  8
その他部品等
 10
-96.05
 20
-54.625
 11
-95.825
 21
-54.375
  0
LINE
  8
その他部品等
 10
-97.15
 20
-54.775
 11
-95.825
 21
-53.45
  0
LINE
  8
その他部品等
 10
-98.225
 20
-54.925
 11
-95.825
 21
-52.5
  0
LINE
  8
その他部品等
 10
-98.375
 20
-54.1
 11
-95.825
 21
-51.575
  0
LINE
  8
その他部品等
 10
-98.375
 20
-53.15
 11
-95.825
 21
-50.625
  0
LINE
  8
その他部品等
 10
-98.375
 20
-52.225
 11
-96.075
 21
-49.925
  0
LINE
  8
その他部品等
 10
-98.375
 20
-51.275
 11
-97.025
 21
-49.925
  0
LINE
  8
その他部品等
 10
-98.375
 20
-50.325
 11
-97.95
 21
-49.925
  0
LINE
  8
その他部品等
 10
-98.375
 20
-54.625
 11
-98.1
 21
-54.9
  0
LINE
  8
その他部品等
 10
-98.375
 20
-53.675
 11
-97.275
 21
-54.775
  0
LINE
  8
その他部品等
 10
-98.375
 20
-52.75
 11
-96.45
 21
-54.675
  0
LINE
  8
その他部品等
 10
-98.375
 20
-51.8
 11
-95.825
 21
-54.325
  0
LINE
  8
その他部品等
 10
-98.375
 20
-50.875
 11
-95.825
 21
-53.4
  0
LINE
  8
その他部品等
 10
-98.375
 20
-49.925
 11
-95.825
 21
-52.45
  0
LINE
  8
その他部品等
 10
-97.425
 20
-49.925
 11
-95.825
 21
-51.525
  0
LINE
  8
その他部品等
 10
-96.475
 20
-49.925
 11
-95.825
 21
-50.575
  0
ENDBLK
  0
BLOCK
  2
*HAT_0016
 70
    65
 10
0.0
 20
0.0
  0
LINE
  8
その他部品等
 10
87.2
 20
-54.625
 11
86.975
 21
-54.375
  0
LINE
  8
その他部品等
 10
88.3
 20
-54.775
 11
86.975
 21
-53.45
  0
LINE
  8
その他部品等
 10
89.375
 20
-54.925
 11
86.975
 21
-52.5
  0
LINE
  8
その他部品等
 10
89.525
 20
-54.1
 11
86.975
 21
-51.575
  0
LINE
  8
その他部品等
 10
89.525
 20
-53.15
 11
86.975
 21
-50.625
  0
LINE
  8
その他部品等
 10
89.525
 20
-52.225
 11
87.225
 21
-49.925
  0
LINE
  8
その他部品等
 10
89.525
 20
-51.275
 11
88.175
 21
-49.925
  0
LINE
  8
その他部品等
 10
89.525
 20
-50.325
 11
89.1
 21
-49.925
  0
LINE
  8
その他部品等
 10
89.525
 20
-54.625
 11
89.25
 21
-54.9
  0
LINE
  8
その他部品等
 10
89.525
 20
-53.675
 11
88.425
 21
-54.775
  0
LINE
  8
その他部品等
 10
89.525
 20
-52.75
 11
87.6
 21
-54.675
  0
LINE
  8
その他部品等
 10
89.525
 20
-51.8
 11
86.975
 21
-54.325
  0
LINE
  8
その他部品等
 10
89.525
 20
-50.875
 11
86.975
 21
-53.4
  0
LINE
  8
その他部品等
 10
89.525
 20
-49.925
 11
86.975
 21
-52.45
  0
LINE
  8
その他部品等
 10
88.575
 20
-49.925
 11
86.975
 21
-51.525
  0
LINE
  8
その他部品等
 10
87.625
 20
-49.925
 11
86.975
 21
-50.575
  0
ENDBLK
  0
BLOCK
  2
*HAT_0017
 70
    65
 10
0.0
 20
0.0
  0
LINE
  8
その他部品等
 10
116.775
 20
-79.475
 11
116.175
 21
-78.875
  0
LINE
  8
その他部品等
 10
117.7
 20
-79.475
 11
116.175
 21
-77.95
  0
LINE
  8
その他部品等
 10
118.65
 20
-79.475
 11
116.175
 21
-77.0
  0
LINE
  8
その他部品等
 10
119.575
 20
-79.475
 11
116.925
 21
-76.8
  0
LINE
  8
その他部品等
 10
120.525
 20
-79.475
 11
117.85
 21
-76.8
  0
LINE
  8
その他部品等
 10
121.475
 20
-79.475
 11
118.8
 21
-76.8
  0
LINE
  8
その他部品等
 10
122.325
 20
-79.375
 11
119.725
 21
-76.8
  0
LINE
  8
その他部品等
 10
122.325
 20
-78.425
 11
120.675
 21
-76.8
  0
LINE
  8
その他部品等
 10
122.325
 20
-77.475
 11
121.625
 21
-76.8
  0
LINE
  8
その他部品等
 10
122.325
 20
-79.25
 11
122.1
 21
-79.475
  0
LINE
  8
その他部品等
 10
122.325
 20
-78.3
 11
121.15
 21
-79.475
  0
LINE
  8
その他部品等
 10
122.325
 20
-77.375
 11
120.225
 21
-79.475
  0
LINE
  8
その他部品等
 10
121.95
 20
-76.8
 11
119.275
 21
-79.475
  0
LINE
  8
その他部品等
 10
121.0
 20
-76.8
 11
118.325
 21
-79.475
  0
LINE
  8
その他部品等
 10
120.075
 20
-76.8
 11
117.4
 21
-79.475
  0
LINE
  8
その他部品等
 10
119.125
 20
-76.8
 11
116.45
 21
-79.475
  0
LINE
  8
その他部品等
 10
118.175
 20
-76.8
 11
116.175
 21
-78.8
  0
LINE
  8
その他部品等
 10
117.225
 20
-76.8
 11
116.175
 21
-77.85
  0
LINE
  8
その他部品等
 10
116.3
 20
-76.8
 11
116.175
 21
-76.925
  0
ENDBLK
  0
BLOCK
  2
*HAT_0018
 70
    65
 10
0.0
 20
0.0
  0
LINE
  8
その他部品等
 10
-125.65
 20
-79.475
 11
-125.05
 21
-78.875
  0
LINE
  8
その他部品等
 10
-126.575
 20
-79.475
 11
-125.05
 21
-77.95
  0
LINE
  8
その他部品等
 10
-127.525
 20
-79.475
 11
-125.05
 21
-77.0
  0
LINE
  8
その他部品等
 10
-128.45
 20
-79.475
 11
-125.8
 21
-76.8
  0
LINE
  8
その他部品等
 10
-129.4
 20
-79.475
 11
-126.725
 21
-76.8
  0
LINE
  8
その他部品等
 10
-130.35
 20
-79.475
 11
-127.675
 21
-76.8
  0
LINE
  8
その他部品等
 10
-131.2
 20
-79.375
 11
-128.6
 21
-76.8
  0
LINE
  8
その他部品等
 10
-131.2
 20
-78.425
 11
-129.55
 21
-76.8
  0
LINE
  8
その他部品等
 10
-131.2
 20
-77.475
 11
-130.5
 21
-76.8
  0
LINE
  8
その他部品等
 10
-131.2
 20
-79.25
 11
-130.975
 21
-79.475
  0
LINE
  8
その他部品等
 10
-131.2
 20
-78.3
 11
-130.025
 21
-79.475
  0
LINE
  8
その他部品等
 10
-131.2
 20
-77.375
 11
-129.1
 21
-79.475
  0
LINE
  8
その他部品等
 10
-130.825
 20
-76.8
 11
-128.15
 21
-79.475
  0
LINE
  8
その他部品等
 10
-129.875
 20
-76.8
 11
-127.2
 21
-79.475
  0
LINE
  8
その他部品等
 10
-128.95
 20
-76.8
 11
-126.275
 21
-79.475
  0
LINE
  8
その他部品等
 10
-128.0
 20
-76.8
 11
-125.325
 21
-79.475
  0
LINE
  8
その他部品等
 10
-127.05
 20
-76.8
 11
-125.05
 21
-78.8
  0
LINE
  8
その他部品等
 10
-126.1
 20
-76.8
 11
-125.05
 21
-77.85
  0
LINE
  8
その他部品等
 10
-125.175
 20
-76.8
 11
-125.05
 21
-76.925
  0
ENDBLK
  0
BLOCK
  2
*GRP_0001
 70
    65
 10
0.0
 20
0.0
  0
LINE
  8
型材断面
  6
CONTINUOUS
 10
195.0
 20
133.5
 11
195.0
 21
-133.5
  0
LINE
  8
型材断面
  6
CONTINUOUS
 10
195.0
 20
-133.5
 11
-185.0
 21
-133.5
  0
LINE
  8
型材断面
  6
CONTINUOUS
 10
-185.0
 20
-133.5
 11
-185.0
 21
133.5
  0
LINE
  8
型材断面
  6
CONTINUOUS
 10
195.0
 20
133.5
 11
-185.0
 21
133.5
  0
LINE
  8
型材断面
  6
CONTINUOUS
 10
145.0
 20
-133.5
 11
145.0
 21
-118.5
  0
LINE
  8
型材断面
  6
CONTINUOUS
 10
195.0
 20
-118.5
 11
145.0
 21
-118.5
  0
ENDBLK
  0
BLOCK
  2
*GRP_0002
 70
    65
 10
0.0
 20
0.0
  0
LINE
  8
曲げ物
  6
CONTINUOUS
 10
120.48658
 20
-73.142212
 11
120.48653
 21
-93.142212
  0
LINE
  8
曲げ物
  6
DOT
 10
120.153255
 20
-73.142212
 11
120.153205
 21
-93.142212
  0
LINE
  8
曲げ物
  6
CONTINUOUS
 10
117.15324
 20
-73.142212
 11
117.153215
 21
-93.142212
  0
LINE
  8
曲げ物
  6
DOT
 10
117.48659
 20
-73.142212
 11
117.48654
 21
-93.142212
  0
LINE
  8
曲げ物
  6
CONTINUOUS
 10
120.48653
 20
-93.142212
 11
117.153215
 21
-93.142212
  0
LINE
  8
曲げ物
  6
CONTINUOUS
 10
120.48658
 20
-73.142212
 11
117.15324
 21
-73.142212
  0
ENDBLK
  0
BLOCK
  2
*GRP_0003
 70
    65
 10
0.0
 20
0.0
  0
LINE
  8
曲げ物
  6
CONTINUOUS
 10
-126.01768
 20
-73.142212
 11
-126.01773
 21
-93.142212
  0
LINE
  8
曲げ物
  6
DOT
 10
-126.351005
 20
-73.142212
 11
-126.351055
 21
-93.142212
  0
LINE
  8
曲げ物
  6
CONTINUOUS
 10
-129.35102
 20
-73.142212
 11
-129.351045
 21
-93.142212
  0
LINE
  8
曲げ物
  6
DOT
 10
-129.01767
 20
-73.142212
 11
-129.01772
 21
-93.142212
  0
LINE
  8
曲げ物
  6
CONTINUOUS
 10
-126.01773
 20
-93.142212
 11
-129.351045
 21
-93.142212
  0
LINE
  8
曲げ物
  6
CONTINUOUS
 10
-126.01768
 20
-73.142212
 11
-129.35102
 21
-73.142212
  0
ENDBLK
  0
BLOCK
  2
*GRP_0004
 70
    65
 10
0.0
 20
0.0
  0
LINE
  8
型材断面
  6
CONTINUOUS
 62
    47
 10
-131.68421
 20
-59.475545
 11
-131.68425
 21
-79.475545
  0
LINE
  8
型材断面
  6
CONTINUOUS
 10
-131.150885
 20
-76.308878
 11
-130.484217
 21
-76.308878
  0
LINE
  8
型材断面
  6
CONTINUOUS
 10
-129.984217
 20
-75.475545
 11
-130.484217
 21
-75.475545
  0
LINE
  8
型材断面
  6
CONTINUOUS
 10
-130.484217
 20
-76.308878
 11
-130.484217
 21
-75.475545
  0
LINE
  8
型材断面
  6
CONTINUOUS
 10
-129.984217
 20
-76.475545
 11
-129.984217
 21
-75.475545
  0
LINE
  8
型材断面
  6
CONTINUOUS
 10
-131.150885
 20
-76.808878
 11
-130.31755
 21
-76.808878
  0
ARC
  8
型材断面
  6
CONTINUOUS
 10
-130.317554
 20
-76.475547
 40
0.333333
 50
-90.0
 51
0.0
  0
LINE
  8
型材断面
  6
CONTINUOUS
 62
    47
 10
-131.68425
 20
-79.475545
 11
-131.150918
 21
-79.475545
  0
LINE
  8
型材断面
  6
CONTINUOUS
 10
-131.15088
 20
-59.94123
 11
-131.15091
 21
-76.308878
  0
LINE
  8
型材断面
  6
CONTINUOUS
 10
-131.150912
 20
-76.808878
 11
-131.150918
 21
-79.475545
  0
LINE
  8
型材断面
  6
CONTINUOUS
 10
-126.889207
 20
-59.360008
 11
-126.7973
 21
-60.021717
  0
LINE
  8
型材断面
  6
CONTINUOUS
 10
-126.7973
 20
-60.021717
 11
-125.542192
 21
-59.850953
  0
LINE
  8
型材断面
  6
CONTINUOUS
 10
-125.542192
 20
-59.850953
 11
-125.473405
 21
-60.346202
  0
LINE
  8
型材断面
  6
CONTINUOUS
 10
-125.473405
 20
-60.346202
 11
-127.223953
 21
-60.584372
  0
LINE
  8
型材断面
  6
CONTINUOUS
 10
-127.384455
 20
-59.428792
 11
-127.223953
 21
-60.584372
  0
LINE
  8
型材断面
  6
CONTINUOUS
 10
-107.39555
 20
-56.707808
 11
-107.30733
 21
-57.370017
  0
LINE
  8
型材断面
  6
CONTINUOUS
 10
-107.30733
 20
-57.370017
 11
-108.56244
 21
-57.540783
  0
LINE
  8
型材断面
  6
CONTINUOUS
 10
-108.56244
 20
-57.540783
 11
-108.496413
 21
-58.036408
  0
LINE
  8
型材断面
  6
CONTINUOUS
 10
-108.496413
 20
-58.036408
 11
-106.745865
 21
-57.798237
  0
LINE
  8
型材断面
  6
CONTINUOUS
 10
-106.899928
 20
-56.641783
 11
-106.745865
 21
-57.798237
  0
LINE
  8
型材断面
  6
CONTINUOUS
 10
-95.23627
 20
-55.727697
 11
-95.167483
 21
-56.222945
  0
LINE
  8
型材断面
  6
CONTINUOUS
 10
-93.350878
 20
-55.975788
 11
-95.167483
 21
-56.222945
  0
LINE
  8
型材断面
  6
CONTINUOUS
 10
-95.23627
 20
-55.727697
 11
-93.850878
 21
-55.539207
  0
LINE
  8
型材断面
  6
CONTINUOUS
 10
-93.850878
 20
-55.539207
 11
-93.850878
 21
-54.8664
  0
LINE
  8
型材断面
  6
CONTINUOUS
 10
-131.15088
 20
-59.94123
 11
-127.384455
 21
-59.428792
  0
LINE
  8
型材断面
  6
CONTINUOUS
 10
-126.889015
 20
-59.361385
 11
-107.395365
 21
-56.709188
  0
LINE
  8
型材断面
  6
CONTINUOUS
 10
-106.899928
 20
-56.641783
 11
-93.850878
 21
-54.8664
  0
LINE
  8
型材断面
  6
CONTINUOUS
 10
-93.88421
 20
-50.432687
 11
-93.350878
 21
-50.432687
  0
LINE
  8
型材断面
  6
CONTINUOUS
 62
    47
 10
-93.350878
 20
-55.942148
 11
-93.350878
 21
-50.432687
  0
LINE
  8
型材断面
  6
CONTINUOUS
 10
-93.88421
 20
-50.432687
 11
-93.88421
 21
-54.332687
  0
LINE
  8
型材断面
  6
CONTINUOUS
 10
-131.68421
 20
-59.475545
 11
-93.88421
 21
-54.332687
  0
ENDBLK
  0
BLOCK
  2
*GRP_0005
 70
    65
 10
0.0
 20
0.0
  0
LINE
  8
型材断面
  6
CONTINUOUS
 62
    47
 10
122.81975
 20
-59.475545
 11
122.81979
 21
-79.475545
  0
LINE
  8
型材断面
  6
CONTINUOUS
 10
122.286425
 20
-76.308878
 11
121.619758
 21
-76.308878
  0
LINE
  8
型材断面
  6
CONTINUOUS
 10
121.119758
 20
-75.475545
 11
121.619758
 21
-75.475545
  0
LINE
  8
型材断面
  6
CONTINUOUS
 10
121.619758
 20
-76.308878
 11
121.619758
 21
-75.475545
  0
LINE
  8
型材断面
  6
CONTINUOUS
 10
121.119758
 20
-76.475545
 11
121.119758
 21
-75.475545
  0
LINE
  8
型材断面
  6
CONTINUOUS
 10
122.286425
 20
-76.808878
 11
121.45309
 21
-76.808878
  0
ARC
  8
型材断面
  6
CONTINUOUS
 10
121.453094
 20
-76.475547
 40
0.333333
 50
180.0
 51
270.0
  0
LINE
  8
型材断面
  6
CONTINUOUS
 62
    47
 10
122.81979
 20
-79.475545
 11
122.286457
 21
-79.475545
  0
LINE
  8
型材断面
  6
CONTINUOUS
 10
122.28642
 20
-59.94123
 11
122.28645
 21
-76.308878
  0
LINE
  8
型材断面
  6
CONTINUOUS
 10
122.286453
 20
-76.808878
 11
122.286457
 21
-79.475545
  0
LINE
  8
型材断面
  6
CONTINUOUS
 10
118.024748
 20
-59.360008
 11
117.93284
 21
-60.021717
  0
LINE
  8
型材断面
  6
CONTINUOUS
 10
117.93284
 20
-60.021717
 11
116.677732
 21
-59.850953
  0
LINE
  8
型材断面
  6
CONTINUOUS
 10
116.677732
 20
-59.850953
 11
116.608945
 21
-60.346202
  0
LINE
  8
型材断面
  6
CONTINUOUS
 10
116.608945
 20
-60.346202
 11
118.359492
 21
-60.584372
  0
LINE
  8
型材断面
  6
CONTINUOUS
 10
118.519995
 20
-59.428792
 11
118.359492
 21
-60.584372
  0
LINE
  8
型材断面
  6
CONTINUOUS
 10
98.53109
 20
-56.707808
 11
98.44287
 21
-57.370017
  0
LINE
  8
型材断面
  6
CONTINUOUS
 10
98.44287
 20
-57.370017
 11
99.69798
 21
-57.540783
  0
LINE
  8
型材断面
  6
CONTINUOUS
 10
99.69798
 20
-57.540783
 11
99.631953
 21
-58.036408
  0
LINE
  8
型材断面
  6
CONTINUOUS
 10
99.631953
 20
-58.036408
 11
97.881405
 21
-57.798237
  0
LINE
  8
型材断面
  6
CONTINUOUS
 10
98.035468
 20
-56.641783
 11
97.881405
 21
-57.798237
  0
LINE
  8
型材断面
  6
CONTINUOUS
 10
86.37181
 20
-55.727697
 11
86.303023
 21
-56.222945
  0
LINE
  8
型材断面
  6
CONTINUOUS
 10
84.486418
 20
-55.975788
 11
86.303023
 21
-56.222945
  0
LINE
  8
型材断面
  6
CONTINUOUS
 10
86.37181
 20
-55.727697
 11
84.986418
 21
-55.539207
  0
LINE
  8
型材断面
  6
CONTINUOUS
 10
84.986418
 20
-55.539207
 11
84.986418
 21
-54.8664
  0
LINE
  8
型材断面
  6
CONTINUOUS
 10
122.28642
 20
-59.94123
 11
118.519995
 21
-59.428792
  0
LINE
  8
型材断面
  6
CONTINUOUS
 10
118.024555
 20
-59.361385
 11
98.530905
 21
-56.709188
  0
LINE
  8
型材断面
  6
CONTINUOUS
 10
98.035468
 20
-56.641783
 11
84.986418
 21
-54.8664
  0
LINE
  8
型材断面
  6
CONTINUOUS
 10
85.01975
 20
-50.432687
 11
84.486418
 21
-50.432687
  0
LINE
  8
型材断面
  6
CONTINUOUS
 62
    47
 10
84.486418
 20
-55.942148
 11
84.486418
 21
-50.432687
  0
LINE
  8
型材断面
  6
CONTINUOUS
 10
85.01975
 20
-50.432687
 11
85.01975
 21
-54.332687
  0
LINE
  8
型材断面
  6
CONTINUOUS
 10
122.81975
 20
-59.475545
 11
85.01975
 21
-54.332687
  0
ENDBLK
  0
BLOCK
  2
*GRP_0006
 70
    65
 10
0.0
 20
0.0
  0
LINE
  8
型材断面
  6
CONTINUOUS
 62
    47
 10
-59.017502
 20
-49.273765
 11
-59.017502
 21
-38.9499
  0
LINE
  8
型材断面
  6
CONTINUOUS
 62
    47
 10
-97.684238
 20
-45.503595
 11
-59.017502
 21
-38.9499
  0
LINE
  8
型材断面
  6
CONTINUOUS
 62
    47
 10
-97.684238
 20
-45.503595
 11
-97.684238
 21
-49.273765
  0
LINE
  8
型材断面
  6
CONTINUOUS
 62
    47
 10
-93.350865
 20
-49.94039
 11
-98.350782
 21
-49.94039
  0
LINE
  8
型材断面
  6
CONTINUOUS
 62
    47
 10
-64.884133
 20
-49.273765
 11
-59.017502
 21
-49.273765
  0
LINE
  8
型材断面
  6
CONTINUOUS
 62
    47
 10
-64.884133
 20
-49.94039
 11
-58.350845
 21
-49.94039
  0
LINE
  8
型材断面
  6
CONTINUOUS
 62
    47
 10
-65.017522
 20
-49.80706
 11
-65.017522
 21
-49.407038
  0
LINE
  8
型材断面
  6
CONTINUOUS
 62
    47
 10
-90.1508
 20
-49.273765
 11
-97.684238
 21
-49.273765
  0
LINE
  8
型材断面
  6
CONTINUOUS
 62
    47
 10
-90.1508
 20
-49.94039
 11
-92.68415
 21
-49.94039
  0
LINE
  8
型材断面
  6
CONTINUOUS
 62
    47
 10
-90.017527
 20
-49.80706
 11
-90.017527
 21
-49.407038
  0
LINE
  8
型材断面
  6
CONTINUOUS
 62
    47
 10
-98.350782
 20
-49.94039
 11
-98.350782
 21
-44.940413
  0
LINE
  8
型材断面
  6
CONTINUOUS
 62
    47
 10
-98.350782
 20
-44.940413
 11
-69.017468
 21
-39.968607
  0
LINE
  8
型材断面
  6
CONTINUOUS
 62
    47
 10
-68.35086
 20
-39.855608
 11
-59.017502
 21
-38.273733
  0
LINE
  8
型材断面
  6
CONTINUOUS
 62
    47
 10
-68.35086
 20
-37.273755
 11
-66.850925
 21
-37.273755
  0
LINE
  8
型材断面
  6
CONTINUOUS
 62
    47
 10
-66.850925
 20
-35.607085
 11
-67.25086
 21
-35.607085
  0
LINE
  8
型材断面
  6
CONTINUOUS
 62
    47
 10
-67.25086
 20
-35.607085
 11
-67.25086
 21
-36.607075
  0
LINE
  8
型材断面
  6
CONTINUOUS
 62
    47
 10
-67.25086
 20
-36.607075
 11
-68.35086
 21
-36.607075
  0
LINE
  8
型材断面
  6
CONTINUOUS
 62
    47
 10
-68.35086
 20
-37.273755
 11
-68.35086
 21
-39.855608
  0
LINE
  8
型材断面
  6
CONTINUOUS
 62
    47
 10
-66.850925
 20
-35.607085
 11
-66.850925
 21
-37.273755
  0
ARC
  8
型材断面
  6
CONTINUOUS
 62
    47
 10
-64.884133
 20
-49.407038
 40
0.133333
 50
90.001373
 51
180.002747
  0
ARC
  8
型材断面
  6
CONTINUOUS
 62
    47
 10
-64.884133
 20
-49.807061
 40
0.133333
 50
180.002747
 51
270.00412
  0
ARC
  8
型材断面
  6
CONTINUOUS
 62
    47
 10
-90.1508
 20
-49.407038
 40
0.133333
 50
0.0
 51
90.001373
  0
ARC
  8
型材断面
  6
CONTINUOUS
 62
    47
 10
-90.1508
 20
-49.807061
 40
0.133333
 50
270.00412
 51
360.0
  0
LINE
  8
型材断面
  6
CONTINUOUS
 62
    47
 10
-67.25086
 20
-22.60716
 11
-66.850925
 21
-22.60716
  0
LINE
  8
型材断面
  6
CONTINUOUS
 62
    47
 10
-67.25086
 20
-23.27384
 11
-68.35086
 21
-23.27384
  0
LINE
  8
型材断面
  6
CONTINUOUS
 62
    47
 10
-66.850925
 20
-22.60716
 11
-69.017468
 21
-22.60716
  0
LINE
  8
型材断面
  6
CONTINUOUS
 62
    47
 10
-69.017468
 20
-23.273712
 11
-69.017468
 21
-22.60716
  0
LINE
  8
型材断面
  6
CONTINUOUS
 62
    47
 10
-68.35086
 20
-23.273712
 11
-67.25086
 21
-23.273712
  0
LINE
  8
型材断面
  6
CONTINUOUS
 62
    47
 10
-68.35086
 20
-30.273752
 11
-60.6842
 21
-30.273752
  0
LINE
  8
型材断面
  6
CONTINUOUS
 62
    47
 10
-60.6842
 20
-30.273752
 11
-60.6842
 21
-28.940435
  0
LINE
  8
型材断面
  6
CONTINUOUS
 62
    47
 10
-60.6842
 20
-28.940435
 11
-61.084135
 21
-28.940435
  0
LINE
  8
型材断面
  6
CONTINUOUS
 62
    47
 10
-61.084135
 20
-29.607055
 11
-61.084135
 21
-28.940435
  0
LINE
  8
型材断面
  6
CONTINUOUS
 62
    47
 10
-66.017635
 20
-28.340455
 11
-64.684265
 21
-28.340455
  0
LINE
  8
型材断面
  6
CONTINUOUS
 62
    47
 10
-64.684265
 20
-28.340455
 11
-64.684265
 21
-29.607125
  0
LINE
  8
型材断面
  6
CONTINUOUS
 62
    47
 10
-65.184227
 20
-29.607125
 11
-65.184227
 21
-28.840455
  0
LINE
  8
型材断面
  6
CONTINUOUS
 62
    47
 10
-65.184227
 20
-28.840455
 11
-66.017635
 21
-28.840455
  0
LINE
  8
型材断面
  6
CONTINUOUS
 62
    47
 10
-66.017635
 20
-28.840455
 11
-66.017635
 21
-28.340455
  0
LINE
  8
型材断面
  6
CONTINUOUS
 62
    47
 10
-61.084135
 20
-29.607055
 11
-64.684265
 21
-29.607055
  0
LINE
  8
型材断面
  6
CONTINUOUS
 62
    47
 10
-65.184227
 20
-29.607125
 11
-68.35086
 21
-29.607125
  0
LINE
  8
型材断面
  6
CONTINUOUS
 62
    47
 10
-68.35086
 20
-36.607075
 11
-68.35086
 21
-30.273752
  0
LINE
  8
型材断面
  6
CONTINUOUS
 62
    47
 10
-68.35086
 20
-23.273712
 11
-68.35086
 21
-29.607125
  0
LINE
  8
型材断面
  6
CONTINUOUS
 10
-66.850925
 20
-24.273825
 11
-67.25086
 21
-24.273825
  0
LINE
  8
型材断面
  6
CONTINUOUS
 62
    47
 10
-67.25086
 20
-23.27384
 11
-67.25086
 21
-24.273825
  0
LINE
  8
型材断面
  6
CONTINUOUS
 62
    47
 10
-69.884167
 20
-25.373747
 11
-69.017468
 21
-25.373747
  0
LINE
  8
型材断面
  6
CONTINUOUS
 62
    47
 10
-69.884167
 20
-25.773725
 11
-69.017468
 21
-25.773725
  0
LINE
  8
型材断面
  6
CONTINUOUS
 62
    47
 10
-70.01744
 20
-25.640392
 11
-70.01744
 21
-25.507063
  0
ARC
  8
型材断面
  6
CONTINUOUS
 62
    47
 10
-69.884168
 20
-25.507063
 40
0.133333
 50
90.001373
 51
180.002747
  0
ARC
  8
型材断面
  6
CONTINUOUS
 62
    47
 10
-69.884168
 20
-25.640394
 40
0.133333
 50
180.002747
 51
270.00412
  0
LINE
  8
型材断面
  6
CONTINUOUS
 62
    47
 10
-78.88363
 20
-25.773725
 11
-80.416938
 21
-25.773725
  0
LINE
  8
型材断面
  6
CONTINUOUS
 62
    47
 10
-78.88363
 20
-25.373747
 11
-79.750353
 21
-25.373747
  0
LINE
  8
型材断面
  6
CONTINUOUS
 62
    47
 10
-78.750357
 20
-25.507063
 11
-78.750357
 21
-25.640392
  0
ARC
  8
型材断面
  6
CONTINUOUS
 62
    47
 10
-78.88363
 20
-25.640394
 40
0.133333
 50
270.00412
 51
360.0
  0
ARC
  8
型材断面
  6
CONTINUOUS
 62
    47
 10
-78.88363
 20
-25.507063
 40
0.133333
 50
0.0
 51
90.001373
  0
LINE
  8
型材断面
  6
CONTINUOUS
 62
    47
 10
-69.017468
 20
-39.968607
 11
-69.017468
 21
-25.773725
  0
LINE
  8
型材断面
  6
CONTINUOUS
 10
-69.017468
 20
-24.273712
 11
-79.750353
 21
-24.273712
  0
LINE
  8
型材断面
  6
CONTINUOUS
 62
    47
 10
-79.750353
 20
-25.373747
 11
-79.750353
 21
-24.273712
  0
LINE
  8
型材断面
  6
CONTINUOUS
 62
    47
 10
-69.017468
 20
-25.373747
 11
-69.017468
 21
-24.273712
  0
LINE
  8
型材断面
  6
CONTINUOUS
 10
-75.017003
 20
-23.373712
 11
-74.917003
 21
-23.273712
  0
LINE
  8
型材断面
  6
CONTINUOUS
 62
    47
 10
-69.017468
 20
-23.273712
 11
-74.917003
 21
-23.273712
  0
LINE
  8
型材断面
  6
CONTINUOUS
 10
-75.017003
 20
-23.373712
 11
-75.117003
 21
-23.273712
  0
LINE
  8
型材断面
  6
CONTINUOUS
 62
    47
 10
-75.117003
 20
-23.273712
 11
-80.416938
 21
-23.273712
  0
LINE
  8
型材断面
  6
CONTINUOUS
 10
-80.416938
 20
-25.773725
 11
-80.416938
 21
-23.273712
  0
LINE
  8
型材断面
  6
CONTINUOUS
 62
    47
 10
-92.68415
 20
-49.94039
 11
-92.68415
 21
-54.94039
  0
LINE
  8
型材断面
  6
CONTINUOUS
 10
-93.350878
 20
-54.94039
 11
-92.68415
 21
-54.94039
  0
LINE
  8
型材断面
  6
CONTINUOUS
 10
-93.250878
 20
-52.44039
 11
-93.350878
 21
-52.34039
  0
LINE
  8
型材断面
  6
CONTINUOUS
 10
-93.250878
 20
-52.44039
 11
-93.350878
 21
-52.54039
  0
LINE
  8
型材断面
  6
CONTINUOUS
 62
    47
 10
-93.350865
 20
-49.94039
 11
-93.350865
 21
-52.340402
  0
LINE
  8
型材断面
  6
CONTINUOUS
 62
    47
 10
-93.350865
 20
-52.540377
 11
-93.350865
 21
-54.94039
  0
LINE
  8
型材断面
  6
CONTINUOUS
 10
-59.017502
 20
-35.273733
 11
-58.350845
 21
-35.273733
  0
LINE
  8
型材断面
  6
CONTINUOUS
 62
    47
 10
-59.017502
 20
-38.273733
 11
-59.017502
 21
-35.273733
  0
LINE
  8
型材断面
  6
CONTINUOUS
 62
    47
 10
-58.350845
 20
-49.94039
 11
-58.350845
 21
-35.273733
  0
LINE
  8
型材断面
  6
CONTINUOUS
 10
-66.850925
 20
-22.60716
 11
-66.850925
 21
-24.273825
  0
CIRCLE
  8
LAYER010
  6
CONTINUOUS
 62
     7
 10
-98.350782
 20
-44.940413
 40
0.11111
  0
ENDBLK
  0
BLOCK
  2
*GRP_0007
 70
    65
 10
0.0
 20
0.0
  0
LINE
  8
型材断面
  6
CONTINUOUS
 62
    47
 10
50.153043
 20
-49.273765
 11
50.153043
 21
-38.9499
  0
LINE
  8
型材断面
  6
CONTINUOUS
 62
    47
 10
88.819778
 20
-45.503595
 11
50.153043
 21
-38.9499
  0
LINE
  8
型材断面
  6
CONTINUOUS
 62
    47
 10
88.819778
 20
-45.503595
 11
88.819778
 21
-49.273765
  0
LINE
  8
型材断面
  6
CONTINUOUS
 62
    47
 10
84.486405
 20
-49.94039
 11
89.486322
 21
-49.94039
  0
LINE
  8
型材断面
  6
CONTINUOUS
 62
    47
 10
56.019672
 20
-49.273765
 11
50.153043
 21
-49.273765
  0
LINE
  8
型材断面
  6
CONTINUOUS
 62
    47
 10
56.019672
 20
-49.94039
 11
49.486385
 21
-49.94039
  0
LINE
  8
型材断面
  6
CONTINUOUS
 62
    47
 10
56.153062
 20
-49.80706
 11
56.153062
 21
-49.407038
  0
LINE
  8
型材断面
  6
CONTINUOUS
 62
    47
 10
81.28634
 20
-49.273765
 11
88.819778
 21
-49.273765
  0
LINE
  8
型材断面
  6
CONTINUOUS
 62
    47
 10
81.28634
 20
-49.94039
 11
83.81969
 21
-49.94039
  0
LINE
  8
型材断面
  6
CONTINUOUS
 62
    47
 10
81.153067
 20
-49.80706
 11
81.153067
 21
-49.407038
  0
LINE
  8
型材断面
  6
CONTINUOUS
 62
    47
 10
89.486322
 20
-49.94039
 11
89.486322
 21
-44.940413
  0
LINE
  8
型材断面
  6
CONTINUOUS
 62
    47
 10
89.486322
 20
-44.940413
 11
60.153008
 21
-39.968607
  0
LINE
  8
型材断面
  6
CONTINUOUS
 62
    47
 10
59.4864
 20
-39.855608
 11
50.153043
 21
-38.273733
  0
LINE
  8
型材断面
  6
CONTINUOUS
 62
    47
 10
59.4864
 20
-37.273755
 11
57.986465
 21
-37.273755
  0
LINE
  8
型材断面
  6
CONTINUOUS
 62
    47
 10
57.986465
 20
-35.607085
 11
58.3864
 21
-35.607085
  0
LINE
  8
型材断面
  6
CONTINUOUS
 62
    47
 10
58.3864
 20
-35.607085
 11
58.3864
 21
-36.607075
  0
LINE
  8
型材断面
  6
CONTINUOUS
 62
    47
 10
58.3864
 20
-36.607075
 11
59.4864
 21
-36.607075
  0
LINE
  8
型材断面
  6
CONTINUOUS
 62
    47
 10
59.4864
 20
-37.273755
 11
59.4864
 21
-39.855608
  0
LINE
  8
型材断面
  6
CONTINUOUS
 62
    47
 10
57.986465
 20
-35.607085
 11
57.986465
 21
-37.273755
  0
ARC
  8
型材断面
  6
CONTINUOUS
 62
    47
 10
56.019673
 20
-49.407038
 40
0.133333
 50
359.997253
 51
449.998627
  0
ARC
  8
型材断面
  6
CONTINUOUS
 62
    47
 10
56.019673
 20
-49.807061
 40
0.133333
 50
269.99588
 51
359.997253
  0
ARC
  8
型材断面
  6
CONTINUOUS
 62
    47
 10
81.28634
 20
-49.407038
 40
0.133333
 50
89.998627
 51
180.0
  0
ARC
  8
型材断面
  6
CONTINUOUS
 62
    47
 10
81.28634
 20
-49.807061
 40
0.133333
 50
180.0
 51
269.99588
  0
LINE
  8
型材断面
  6
CONTINUOUS
 62
    47
 10
58.3864
 20
-22.60716
 11
57.986465
 21
-22.60716
  0
LINE
  8
型材断面
  6
CONTINUOUS
 62
    47
 10
58.3864
 20
-23.27384
 11
59.4864
 21
-23.27384
  0
LINE
  8
型材断面
  6
CONTINUOUS
 62
    47
 10
57.986465
 20
-22.60716
 11
60.153008
 21
-22.60716
  0
LINE
  8
型材断面
  6
CONTINUOUS
 62
    47
 10
60.153008
 20
-23.273712
 11
60.153008
 21
-22.60716
  0
LINE
  8
型材断面
  6
CONTINUOUS
 62
    47
 10
59.4864
 20
-23.273712
 11
58.3864
 21
-23.273712
  0
LINE
  8
型材断面
  6
CONTINUOUS
 62
    47
 10
59.4864
 20
-30.273752
 11
51.81974
 21
-30.273752
  0
LINE
  8
型材断面
  6
CONTINUOUS
 62
    47
 10
51.81974
 20
-30.273752
 11
51.81974
 21
-28.940435
  0
LINE
  8
型材断面
  6
CONTINUOUS
 62
    47
 10
51.81974
 20
-28.940435
 11
52.219675
 21
-28.940435
  0
LINE
  8
型材断面
  6
CONTINUOUS
 62
    47
 10
52.219675
 20
-29.607055
 11
52.219675
 21
-28.940435
  0
LINE
  8
型材断面
  6
CONTINUOUS
 62
    47
 10
57.153175
 20
-28.340455
 11
55.819805
 21
-28.340455
  0
LINE
  8
型材断面
  6
CONTINUOUS
 62
    47
 10
55.819805
 20
-28.340455
 11
55.819805
 21
-29.607125
  0
LINE
  8
型材断面
  6
CONTINUOUS
 62
    47
 10
56.319767
 20
-29.607125
 11
56.319767
 21
-28.840455
  0
LINE
  8
型材断面
  6
CONTINUOUS
 62
    47
 10
56.319767
 20
-28.840455
 11
57.153175
 21
-28.840455
  0
LINE
  8
型材断面
  6
CONTINUOUS
 62
    47
 10
57.153175
 20
-28.840455
 11
57.153175
 21
-28.340455
  0
LINE
  8
型材断面
  6
CONTINUOUS
 62
    47
 10
52.219675
 20
-29.607055
 11
55.819805
 21
-29.607055
  0
LINE
  8
型材断面
  6
CONTINUOUS
 62
    47
 10
56.319767
 20
-29.607125
 11
59.4864
 21
-29.607125
  0
LINE
  8
型材断面
  6
CONTINUOUS
 62
    47
 10
59.4864
 20
-36.607075
 11
59.4864
 21
-30.273752
  0
LINE
  8
型材断面
  6
CONTINUOUS
 62
    47
 10
59.4864
 20
-23.273712
 11
59.4864
 21
-29.607125
  0
LINE
  8
型材断面
  6
CONTINUOUS
 10
57.986465
 20
-24.273825
 11
58.3864
 21
-24.273825
  0
LINE
  8
型材断面
  6
CONTINUOUS
 62
    47
 10
58.3864
 20
-23.27384
 11
58.3864
 21
-24.273825
  0
LINE
  8
型材断面
  6
CONTINUOUS
 62
    47
 10
61.019708
 20
-25.373747
 11
60.153008
 21
-25.373747
  0
LINE
  8
型材断面
  6
CONTINUOUS
 62
    47
 10
61.019708
 20
-25.773725
 11
60.153008
 21
-25.773725
  0
LINE
  8
型材断面
  6
CONTINUOUS
 62
    47
 10
61.15298
 20
-25.640392
 11
61.15298
 21
-25.507063
  0
ARC
  8
型材断面
  6
CONTINUOUS
 62
    47
 10
61.019708
 20
-25.507063
 40
0.133333
 50
359.997253
 51
449.998627
  0
ARC
  8
型材断面
  6
CONTINUOUS
 62
    47
 10
61.019708
 20
-25.640394
 40
0.133333
 50
269.99588
 51
359.997253
  0
LINE
  8
型材断面
  6
CONTINUOUS
 62
    47
 10
70.01917
 20
-25.773725
 11
71.552477
 21
-25.773725
  0
LINE
  8
型材断面
  6
CONTINUOUS
 62
    47
 10
70.01917
 20
-25.373747
 11
70.885893
 21
-25.373747
  0
LINE
  8
型材断面
  6
CONTINUOUS
 62
    47
 10
69.885897
 20
-25.507063
 11
69.885897
 21
-25.640392
  0
ARC
  8
型材断面
  6
CONTINUOUS
 62
    47
 10
70.01917
 20
-25.640394
 40
0.133333
 50
180.0
 51
269.99588
  0
ARC
  8
型材断面
  6
CONTINUOUS
 62
    47
 10
70.01917
 20
-25.507063
 40
0.133333
 50
89.998627
 51
180.0
  0
LINE
  8
型材断面
  6
CONTINUOUS
 62
    47
 10
60.153008
 20
-39.968607
 11
60.153008
 21
-25.773725
  0
LINE
  8
型材断面
  6
CONTINUOUS
 10
60.153008
 20
-24.273712
 11
70.885893
 21
-24.273712
  0
LINE
  8
型材断面
  6
CONTINUOUS
 62
    47
 10
70.885893
 20
-25.373747
 11
70.885893
 21
-24.273712
  0
LINE
  8
型材断面
  6
CONTINUOUS
 62
    47
 10
60.153008
 20
-25.373747
 11
60.153008
 21
-24.273712
  0
LINE
  8
型材断面
  6
CONTINUOUS
 10
66.152542
 20
-23.373712
 11
66.052542
 21
-23.273712
  0
LINE
  8
型材断面
  6
CONTINUOUS
 62
    47
 10
60.153008
 20
-23.273712
 11
66.052542
 21
-23.273712
  0
LINE
  8
型材断面
  6
CONTINUOUS
 10
66.152542
 20
-23.373712
 11
66.252542
 21
-23.273712
  0
LINE
  8
型材断面
  6
CONTINUOUS
 62
    47
 10
66.252542
 20
-23.273712
 11
71.552477
 21
-23.273712
  0
LINE
  8
型材断面
  6
CONTINUOUS
 10
71.552477
 20
-25.773725
 11
71.552477
 21
-23.273712
  0
LINE
  8
型材断面
  6
CONTINUOUS
 62
    47
 10
83.81969
 20
-49.94039
 11
83.81969
 21
-54.94039
  0
LINE
  8
型材断面
  6
CONTINUOUS
 10
84.486418
 20
-54.94039
 11
83.81969
 21
-54.94039
  0
LINE
  8
型材断面
  6
CONTINUOUS
 10
84.386418
 20
-52.44039
 11
84.486418
 21
-52.34039
  0
LINE
  8
型材断面
  6
CONTINUOUS
 10
84.386418
 20
-52.44039
 11
84.486418
 21
-52.54039
  0
LINE
  8
型材断面
  6
CONTINUOUS
 62
    47
 10
84.486405
 20
-49.94039
 11
84.486405
 21
-52.340402
  0
LINE
  8
型材断面
  6
CONTINUOUS
 62
    47
 10
84.486405
 20
-52.540377
 11
84.486405
 21
-54.94039
  0
LINE
  8
型材断面
  6
CONTINUOUS
 10
50.153043
 20
-35.273733
 11
49.486385
 21
-35.273733
  0
LINE
  8
型材断面
  6
CONTINUOUS
 62
    47
 10
50.153043
 20
-38.273733
 11
50.153043
 21
-35.273733
  0
LINE
  8
型材断面
  6
CONTINUOUS
 62
    47
 10
49.486385
 20
-49.94039
 11
49.486385
 21
-35.273733
  0
LINE
  8
型材断面
  6
CONTINUOUS
 10
57.986465
 20
-22.60716
 11
57.986465
 21
-24.273825
  0
CIRCLE
  8
LAYER010
  6
CONTINUOUS
 62
     7
 10
89.486322
 20
-44.940413
 40
0.11111
  0
ENDBLK
  0
BLOCK
  2
*GRP_0008
 70
    65
 10
0.0
 20
0.0
  0
INSERT
  2
*GRP_0083
  8
型材断面
  6
CONTINUOUS
 10
0.0
 20
0.0
  0
LINE
  8
ボルト／ビス
  6
CONTINUOUS
 10
-78.68367
 20
-20.040392
 11
-71.350335
 21
-20.040392
  0
LINE
  8
ボルト／ビス
  6
CONTINUOUS
 10
-70.850335
 20
-20.440392
 11
-70.850335
 21
-21.273725
  0
LINE
  8
ボルト／ビス
  6
CONTINUOUS
 10
-70.850335
 20
-21.273725
 11
-79.18367
 21
-21.273725
  0
LINE
  8
ボルト／ビス
  6
CONTINUOUS
 10
-79.18367
 20
-21.273725
 11
-79.18367
 21
-20.440392
  0
LINE
  8
ボルト／ビス
  6
CONTINUOUS
 10
-70.850335
 20
-20.440392
 11
-79.18367
 21
-20.440392
  0
LINE
  8
ボルト／ビス
  6
CONTINUOUS
 10
-78.68367
 20
-20.040392
 11
-78.68367
 21
-20.440392
  0
LINE
  8
ボルト／ビス
  6
CONTINUOUS
 10
-71.350335
 20
-20.040392
 11
-71.350335
 21
-20.440392
  0
LINE
  8
ボルト／ビス
  6
CONTINUOUS
 10
-75.017003
 20
-20.540392
 11
-75.017003
 21
-20.040392
  0
ENDBLK
  0
BLOCK
  2
*GRP_0009
 70
    65
 10
0.0
 20
0.0
  0
LINE
  8
型材断面
  6
CONTINUOUS
 62
    47
 10
49.05316
 20
-23.94047
 11
49.05316
 21
-22.940473
  0
LINE
  8
型材断面
  6
CONTINUOUS
 62
    47
 10
56.419737
 20
-28.940457
 11
57.31981
 21
-28.940457
  0
LINE
  8
型材断面
  6
CONTINUOUS
 62
    47
 10
57.31981
 20
-28.940457
 11
57.31981
 21
-23.60714
  0
LINE
  8
型材断面
  6
CONTINUOUS
 62
    47
 10
56.419737
 20
-29.607125
 11
56.419737
 21
-28.940457
  0
LINE
  8
型材断面
  6
CONTINUOUS
 62
    47
 10
49.05316
 20
-23.94047
 11
49.453095
 21
-23.94047
  0
LINE
  8
型材断面
  6
CONTINUOUS
 62
    47
 10
49.453095
 20
-23.94047
 11
49.453095
 21
-23.60714
  0
LINE
  8
型材断面
  6
CONTINUOUS
 62
    47
 10
57.31981
 20
-23.60714
 11
49.453095
 21
-23.60714
  0
LINE
  8
型材断面
  6
CONTINUOUS
 62
    47
 10
57.986465
 20
-24.940452
 11
58.586398
 21
-24.940452
  0
LINE
  8
型材断面
  6
CONTINUOUS
 62
    47
 10
58.586398
 20
-24.940452
 11
58.586398
 21
-24.440503
  0
LINE
  8
型材断面
  6
CONTINUOUS
 62
    47
 10
58.586398
 20
-24.440503
 11
57.986465
 21
-24.440503
  0
LINE
  8
型材断面
  6
CONTINUOUS
 62
    47
 10
57.986465
 20
-24.940452
 11
57.986465
 21
-29.607125
  0
LINE
  8
型材断面
  6
CONTINUOUS
 62
    47
 10
49.05316
 20
-22.940473
 11
57.986465
 21
-22.940473
  0
LINE
  8
型材断面
  6
CONTINUOUS
 62
    47
 10
57.986465
 20
-24.440503
 11
57.986465
 21
-22.60716
  0
ENDBLK
  0
BLOCK
  2
*GRP_0010
 70
    65
 10
0.0
 20
0.0
  0
INSERT
  2
*GRP_0084
  8
型材断面
  6
CONTINUOUS
 10
0.0
 20
0.0
  0
LINE
  8
ボルト／ビス
  6
CONTINUOUS
 10
69.81921
 20
-20.040392
 11
62.485875
 21
-20.040392
  0
LINE
  8
ボルト／ビス
  6
CONTINUOUS
 10
61.985875
 20
-20.440392
 11
61.985875
 21
-21.273725
  0
LINE
  8
ボルト／ビス
  6
CONTINUOUS
 10
61.985875
 20
-21.273725
 11
70.31921
 21
-21.273725
  0
LINE
  8
ボルト／ビス
  6
CONTINUOUS
 10
70.31921
 20
-21.273725
 11
70.31921
 21
-20.440392
  0
LINE
  8
ボルト／ビス
  6
CONTINUOUS
 10
61.985875
 20
-20.440392
 11
70.31921
 21
-20.440392
  0
LINE
  8
ボルト／ビス
  6
CONTINUOUS
 10
69.81921
 20
-20.040392
 11
69.81921
 21
-20.440392
  0
LINE
  8
ボルト／ビス
  6
CONTINUOUS
 10
62.485875
 20
-20.040392
 11
62.485875
 21
-20.440392
  0
LINE
  8
ボルト／ビス
  6
CONTINUOUS
 10
66.152542
 20
-20.540392
 11
66.152542
 21
-20.040392
  0
ENDBLK
  0
BLOCK
  2
*GRP_0011
 70
    65
 10
0.0
 20
0.0
  0
LINE
  8
断面線04
  6
CONTINUOUS
 62
    47
 10
7.734438
 20
-32.940405
 11
7.401095
 21
-34.60707
  0
LINE
  8
断面線04
  6
CONTINUOUS
 62
    47
 10
-8.83223
 20
-29.60707
 11
-8.83223
 21
-28.840405
  0
ARC
  8
断面線04
  6
CONTINUOUS
 62
    47
 10
-7.06558
 20
-23.707068
 40
0.1
 50
90.0
 51
180.0
  0
LINE
  8
断面線04
  6
CONTINUOUS
 62
    47
 10
-7.165563
 20
-24.173737
 11
-7.165563
 21
-23.70707
  0
ARC
  8
断面線04
  6
CONTINUOUS
 62
    47
 10
-7.06558
 20
-24.173735
 40
0.1
 50
180.0
 51
270.0
  0
ARC
  8
断面線04
  6
CONTINUOUS
 62
    47
 10
-8.098913
 20
-28.440401
 40
0.1
 50
0.0
 51
90.0
  0
LINE
  8
断面線04
  6
CONTINUOUS
 62
    47
 10
-7.998905
 20
-28.740405
 11
-7.998905
 21
-28.440405
  0
LINE
  8
断面線04
  6
CONTINUOUS
 62
    47
 10
-8.098905
 20
-28.840405
 11
-8.83223
 21
-28.840405
  0
ARC
  8
断面線04
  6
CONTINUOUS
 62
    47
 10
-8.098913
 20
-28.740401
 40
0.1
 50
270.0
 51
360.0
  0
LINE
  8
断面線04
  6
CONTINUOUS
 62
    47
 10
-8.098905
 20
-28.340405
 11
-9.23223
 21
-28.340405
  0
LINE
  8
断面線04
  6
CONTINUOUS
 62
    47
 10
-9.33223
 20
-29.60707
 11
-9.33223
 21
-28.440405
  0
ARC
  8
断面線04
  6
CONTINUOUS
 62
    47
 10
-9.232246
 20
-28.440401
 40
0.1
 50
90.0
 51
180.0
  0
LINE
  8
断面線04
  6
CONTINUOUS
 62
    47
 10
-8.83223
 20
-29.60707
 11
-6.43223
 21
-29.60707
  0
LINE
  8
断面線04
  6
CONTINUOUS
 62
    47
 10
-13.598905
 20
-29.60707
 11
-13.598905
 21
-29.040405
  0
ARC
  8
断面線04
  6
CONTINUOUS
 62
    47
 10
-13.698913
 20
-29.040401
 40
0.1
 50
0.0
 51
90.0
  0
LINE
  8
断面線04
  6
CONTINUOUS
 62
    47
 10
-13.698905
 20
-28.940405
 11
-13.898905
 21
-28.940405
  0
ARC
  8
断面線04
  6
CONTINUOUS
 62
    47
 10
-13.898913
 20
-29.040401
 40
0.1
 50
90.0
 51
180.0
  0
LINE
  8
断面線04
  6
CONTINUOUS
 62
    47
 10
-16.93223
 20
-35.273737
 11
-16.93223
 21
-32.940405
  0
LINE
  8
断面線04
  6
CONTINUOUS
 62
    47
 10
-13.998905
 20
-34.60707
 11
-16.265563
 21
-34.60707
  0
LINE
  8
断面線04
  6
CONTINUOUS
 62
    47
 10
-9.33223
 20
-29.60707
 11
-13.598905
 21
-29.60707
  0
LINE
  8
断面線04
  6
CONTINUOUS
 62
    47
 10
-7.065563
 20
-23.60707
 11
-4.43223
 21
-23.60707
  0
LINE
  8
断面線04
  6
CONTINUOUS
 62
    47
 10
-6.43223
 20
-29.60707
 11
-6.43223
 21
-24.273737
  0
LINE
  8
断面線04
  6
CONTINUOUS
 62
    47
 10
-7.065563
 20
-24.273737
 11
-6.43223
 21
-24.273737
  0
LINE
  8
断面線04
  6
CONTINUOUS
 62
    47
 10
-0.03223
 20
-29.60707
 11
-0.03223
 21
-28.840405
  0
ARC
  8
断面線04
  6
CONTINUOUS
 62
    47
 10
-1.798913
 20
-23.707068
 40
0.1
 50
0.0
 51
90.0
  0
LINE
  8
断面線04
  6
CONTINUOUS
 62
    47
 10
-1.698905
 20
-24.173737
 11
-1.698905
 21
-23.70707
  0
ARC
  8
断面線04
  6
CONTINUOUS
 62
    47
 10
-1.798913
 20
-24.173735
 40
0.1
 50
270.0
 51
360.0
  0
ARC
  8
断面線04
  6
CONTINUOUS
 62
    47
 10
-0.76558
 20
-28.440401
 40
0.1
 50
90.0
 51
180.0
  0
LINE
  8
断面線04
  6
CONTINUOUS
 62
    47
 10
-0.865563
 20
-28.740405
 11
-0.865563
 21
-28.440405
  0
LINE
  8
断面線04
  6
CONTINUOUS
 62
    47
 10
-0.765563
 20
-28.840405
 11
-0.03223
 21
-28.840405
  0
ARC
  8
断面線04
  6
CONTINUOUS
 62
    47
 10
-0.76558
 20
-28.740401
 40
0.1
 50
180.0
 51
270.0
  0
LINE
  8
断面線04
  6
CONTINUOUS
 62
    47
 10
-0.765563
 20
-28.340405
 11
0.36777
 21
-28.340405
  0
LINE
  8
断面線04
  6
CONTINUOUS
 62
    47
 10
0.46777
 20
-29.60707
 11
0.46777
 21
-28.440405
  0
ARC
  8
断面線04
  6
CONTINUOUS
 62
    47
 10
0.367754
 20
-28.440401
 40
0.1
 50
0.0
 51
90.0
  0
LINE
  8
断面線04
  6
CONTINUOUS
 62
    47
 10
-0.03223
 20
-29.60707
 11
-2.43223
 21
-29.60707
  0
LINE
  8
断面線04
  6
CONTINUOUS
 62
    47
 10
4.734438
 20
-29.60707
 11
4.734438
 21
-29.040405
  0
ARC
  8
断面線04
  6
CONTINUOUS
 62
    47
 10
4.83442
 20
-29.040401
 40
0.1
 50
90.0
 51
180.0
  0
LINE
  8
断面線04
  6
CONTINUOUS
 62
    47
 10
4.834438
 20
-28.940405
 11
5.034438
 21
-28.940405
  0
ARC
  8
断面線04
  6
CONTINUOUS
 62
    47
 10
5.03442
 20
-29.040401
 40
0.1
 50
0.0
 51
90.0
  0
LINE
  8
断面線04
  6
CONTINUOUS
 62
    47
 10
5.134438
 20
-34.60707
 11
7.401095
 21
-34.60707
  0
LINE
  8
断面線04
  6
CONTINUOUS
 62
    47
 10
0.46777
 20
-29.60707
 11
4.734438
 21
-29.60707
  0
LINE
  8
断面線04
  6
CONTINUOUS
 62
    47
 10
-1.798905
 20
-23.60707
 11
-4.43223
 21
-23.60707
  0
LINE
  8
断面線04
  6
CONTINUOUS
 62
    47
 10
-2.43223
 20
-29.60707
 11
-2.43223
 21
-24.273737
  0
LINE
  8
断面線04
  6
CONTINUOUS
 62
    47
 10
-1.798905
 20
-24.273737
 11
-2.43223
 21
-24.273737
  0
LINE
  8
断面線04
  6
CONTINUOUS
 62
    47
 10
8.06777
 20
-32.940405
 11
7.734438
 21
-32.940405
  0
LINE
  8
断面線04
  6
CONTINUOUS
 62
    47
 10
-16.598905
 20
-32.940405
 11
-16.265563
 21
-34.60707
  0
LINE
  8
断面線04
  6
CONTINUOUS
 62
    47
 10
-16.93223
 20
-32.940405
 11
-16.598905
 21
-32.940405
  0
LINE
  8
断面線04
  6
CONTINUOUS
 62
    47
 10
-13.998905
 20
-29.040405
 11
-13.998905
 21
-34.60707
  0
LINE
  8
断面線04
  6
CONTINUOUS
 62
    47
 10
5.134438
 20
-29.040405
 11
5.134438
 21
-34.60707
  0
LINE
  8
断面線04
  6
CONTINUOUS
 62
    47
 10
8.06777
 20
-32.940405
 11
8.06777
 21
-35.273737
  0
LINE
  8
断面線04
  6
CONTINUOUS
 62
    47
 10
-13.998905
 20
-49.940405
 11
5.134438
 21
-49.940405
  0
LINE
  8
断面線04
  6
CONTINUOUS
 62
    47
 10
-13.998905
 20
-49.940405
 11
-13.998905
 21
-35.273737
  0
LINE
  8
断面線04
  6
CONTINUOUS
 62
    47
 10
5.134438
 20
-49.940405
 11
5.134438
 21
-35.273737
  0
LINE
  8
断面線04
  6
CONTINUOUS
 62
    47
 10
-16.93223
 20
-35.273737
 11
-13.998905
 21
-35.273737
  0
LINE
  8
断面線04
  6
CONTINUOUS
 62
    47
 10
5.134438
 20
-35.273737
 11
8.06777
 21
-35.273737
  0
ARC
  8
断面線04
  6
CONTINUOUS
 62
    47
 10
-12.268798
 20
-32.221081
 40
0.25
 50
312.542364
 51
492.542397
  0
ARC
  8
断面線04
  6
CONTINUOUS
 62
    47
 10
-12.832244
 20
-31.6071
 40
0.583333
 50
47.457615
 51
312.542407
  0
ARC
  8
断面線04
  6
CONTINUOUS
 62
    47
 10
-12.832244
 20
-31.6071
 40
1.083333
 50
252.079761
 51
312.542389
  0
ARC
  8
断面線04
  6
CONTINUOUS
 62
    47
 10
-12.268798
 20
-30.993119
 40
0.25
 50
227.457603
 51
407.457636
  0
LINE
  8
断面線04
  6
CONTINUOUS
 62
    47
 10
-5.598905
 20
-30.440405
 11
-12.832237
 21
-30.440405
  0
ARC
  8
断面線04
  6
CONTINUOUS
 62
    47
 10
-12.832244
 20
-31.6071
 40
1.083333
 50
47.457611
 51
90.000025
  0
LINE
  8
断面線04
  6
CONTINUOUS
 62
    47
 10
-12.832237
 20
-30.52377
 11
-12.832237
 21
-30.440405
  0
ARC
  8
断面線04
  6
CONTINUOUS
 62
    47
 10
3.404312
 20
-32.221081
 40
0.25
 50
47.457603
 51
227.457636
  0
ARC
  8
断面線04
  6
CONTINUOUS
 62
    47
 10
3.967758
 20
-31.6071
 40
0.583333
 50
227.457593
 51
492.542385
  0
ARC
  8
断面線04
  6
CONTINUOUS
 62
    47
 10
3.404312
 20
-30.993119
 40
0.25
 50
132.542364
 51
312.542397
  0
ARC
  8
断面線04
  6
CONTINUOUS
 62
    47
 10
3.967758
 20
-31.6071
 40
1.083333
 50
89.999975
 51
132.542389
  0
ARC
  8
断面線04
  6
CONTINUOUS
 62
    47
 10
3.967758
 20
-31.6071
 40
1.083333
 50
227.457611
 51
287.920239
  0
LINE
  8
断面線04
  6
CONTINUOUS
 62
    47
 10
3.96777
 20
-30.52377
 11
3.96777
 21
-30.440405
  0
LINE
  8
断面線04
  6
CONTINUOUS
 62
    47
 10
-3.265563
 20
-30.440405
 11
3.96777
 21
-30.440405
  0
LINE
  8
断面線04
  6
CONTINUOUS
 62
    47
 10
-3.265563
 20
-24.940405
 11
-5.598905
 21
-24.940405
  0
ARC
  8
断面線04
  6
CONTINUOUS
 62
    47
 10
-11.833013
 20
-48.309467
 40
0.25
 50
357.542364
 51
537.542397
  0
ARC
  8
断面線04
  6
CONTINUOUS
 62
    47
 10
-12.66558
 20
-48.273733
 40
0.583333
 50
92.457615
 51
357.542407
  0
ARC
  8
断面線04
  6
CONTINUOUS
 62
    47
 10
-12.701313
 20
-47.441166
 40
0.25
 50
272.457576
 51
452.457618
  0
ARC
  8
断面線04
  6
CONTINUOUS
 62
    47
 10
-12.66558
 20
-48.273733
 40
1.083333
 50
332.513353
 51
357.542389
  0
ARC
  8
断面線04
  6
CONTINUOUS
 62
    47
 10
2.968521
 20
-48.309467
 40
0.25
 50
2.457603
 51
182.457636
  0
ARC
  8
断面線04
  6
CONTINUOUS
 62
    47
 10
3.801088
 20
-48.273733
 40
0.583333
 50
182.457593
 51
447.542385
  0
ARC
  8
断面線04
  6
CONTINUOUS
 62
    47
 10
3.836821
 20
-47.441166
 40
0.25
 50
87.542382
 51
267.542424
  0
ARC
  8
断面線04
  6
CONTINUOUS
 62
    47
 10
3.801088
 20
-48.273733
 40
1.083333
 50
182.457611
 51
207.486647
  0
ARC
  8
断面線04
  6
CONTINUOUS
 62
    47
 10
3.801088
 20
-48.273733
 40
1.083333
 50
62.513336
 51
87.542389
  0
ARC
  8
断面線04
  6
CONTINUOUS
 62
    47
 10
-12.66558
 20
-48.273733
 40
1.083333
 50
92.457611
 51
117.486331
  0
LINE
  8
断面線04
  6
CONTINUOUS
 62
    47
 10
-3.598895
 20
-27.46068
 11
-3.598895
 21
-27.96068
  0
LINE
  8
断面線04
  6
CONTINUOUS
 62
    47
 10
-5.265563
 20
-27.96068
 11
-5.265563
 21
-27.46068
  0
LINE
  8
断面線04
  6
CONTINUOUS
 62
    47
 10
-5.265563
 20
-27.96068
 11
-5.598905
 21
-27.96068
  0
LINE
  8
断面線04
  6
CONTINUOUS
 62
    47
 10
-5.265563
 20
-27.46068
 11
-5.598905
 21
-27.46068
  0
LINE
  8
断面線04
  6
CONTINUOUS
 62
    47
 10
-3.598895
 20
-27.46068
 11
-3.265563
 21
-27.46068
  0
LINE
  8
断面線04
  6
CONTINUOUS
 62
    47
 10
-3.598895
 20
-27.96068
 11
-3.265563
 21
-27.96068
  0
LINE
  8
断面線04
  6
CONTINUOUS
 62
    47
 10
-3.265563
 20
-30.440405
 11
-3.265563
 21
-27.96068
  0
LINE
  8
断面線04
  6
CONTINUOUS
 62
    47
 10
-3.265563
 20
-27.46068
 11
-3.265563
 21
-24.940405
  0
LINE
  8
断面線04
  6
CONTINUOUS
 62
    47
 10
-5.598905
 20
-30.440405
 11
-5.598905
 21
-27.96068
  0
LINE
  8
断面線04
  6
CONTINUOUS
 62
    47
 10
-5.598905
 20
-27.46068
 11
-5.598905
 21
-24.940405
  0
LINE
  8
断面線04
  6
CONTINUOUS
 62
    47
 10
-3.098895
 20
-47.440405
 11
-3.598895
 21
-47.440405
  0
LINE
  8
断面線04
  6
CONTINUOUS
 62
    47
 10
-5.765563
 20
-47.440405
 11
-5.265563
 21
-47.440405
  0
LINE
  8
断面線04
  6
CONTINUOUS
 62
    47
 10
-3.598895
 20
-47.440405
 11
-3.598895
 21
-48.773737
  0
LINE
  8
断面線04
  6
CONTINUOUS
 62
    47
 10
-3.598895
 20
-48.773737
 11
-5.265563
 21
-48.773737
  0
LINE
  8
断面線04
  6
CONTINUOUS
 62
    47
 10
-5.265563
 20
-47.440405
 11
-5.265563
 21
-48.773737
  0
LINE
  8
断面線04
  6
CONTINUOUS
 62
    47
 10
-5.765563
 20
-47.440405
 11
-5.765563
 21
-48.773737
  0
LINE
  8
断面線04
  6
CONTINUOUS
 62
    47
 10
-11.70452
 20
-48.773737
 11
-5.765563
 21
-48.773737
  0
LINE
  8
断面線04
  6
CONTINUOUS
 62
    47
 10
-3.098895
 20
-47.440405
 11
-3.098895
 21
-48.773737
  0
LINE
  8
断面線04
  6
CONTINUOUS
 62
    47
 10
2.840055
 20
-48.773737
 11
-3.098895
 21
-48.773737
  0
LINE
  8
断面線04
  6
CONTINUOUS
 62
    47
 10
-13.16557
 20
-47.312687
 11
-13.16557
 21
-34.940405
  0
LINE
  8
断面線04
  6
CONTINUOUS
 62
    47
 10
-7.93223
 20
-34.940405
 11
-13.16557
 21
-34.940405
  0
LINE
  8
断面線04
  6
CONTINUOUS
 62
    47
 10
-0.93223
 20
-34.940405
 11
4.301105
 21
-34.940405
  0
LINE
  8
断面線04
  6
CONTINUOUS
 62
    47
 10
4.301105
 20
-47.312687
 11
4.301105
 21
-34.940405
  0
LINE
  8
断面線04
  6
CONTINUOUS
 62
    47
 10
-13.16557
 20
-32.63788
 11
-13.16557
 21
-34.273737
  0
LINE
  8
断面線04
  6
CONTINUOUS
 62
    47
 10
-13.16557
 20
-34.273737
 11
-7.93223
 21
-34.273737
  0
LINE
  8
断面線04
  6
CONTINUOUS
 62
    47
 10
-7.93223
 20
-34.940405
 11
-7.93223
 21
-34.273737
  0
LINE
  8
断面線04
  6
CONTINUOUS
 62
    47
 10
4.301105
 20
-32.63788
 11
4.301105
 21
-34.273737
  0
LINE
  8
断面線04
  6
CONTINUOUS
 62
    47
 10
4.301105
 20
-34.273737
 11
-0.93223
 21
-34.273737
  0
LINE
  8
断面線04
  6
CONTINUOUS
 62
    47
 10
-0.93223
 20
-34.940405
 11
-0.93223
 21
-34.273737
  0
ENDBLK
  0
BLOCK
  2
*GRP_0012
 70
    65
 10
0.0
 20
0.0
  0
LINE
  8
型材断面
  6
DOT
 10
-7.93223
 20
-23.60707
 11
-7.93223
 21
-28.940405
  0
LINE
  8
型材断面
  6
DOT
 10
-15.798895
 20
-23.60707
 11
-7.93223
 21
-23.60707
  0
ARC
  8
型材断面
  6
DOT
 10
-16.098902
 20
-23.040402
 40
0.1
 50
90.0
 51
180.0
  0
LINE
  8
型材断面
  6
DOT
 10
-15.798895
 20
-23.60707
 11
-15.798895
 21
-23.840405
  0
ARC
  8
型材断面
  6
DOT
 10
-15.898902
 20
-23.840402
 40
0.1
 50
270.0
 51
360.0
  0
LINE
  8
型材断面
  6
DOT
 10
-16.098895
 20
-23.940405
 11
-15.898895
 21
-23.940405
  0
LINE
  8
型材断面
  6
DOT
 10
-16.198895
 20
-23.840405
 11
-16.198895
 21
-23.040405
  0
ARC
  8
型材断面
  6
DOT
 10
-16.098902
 20
-23.840402
 40
0.1
 50
180.0
 51
270.0
  0
LINE
  8
型材断面
  6
DOT
 10
-16.098895
 20
-22.940405
 11
-7.365563
 21
-22.940405
  0
LINE
  8
型材断面
  6
DOT
 10
-7.265563
 20
-23.040405
 11
-7.265563
 21
-24.440405
  0
ARC
  8
型材断面
  6
DOT
 10
-7.365569
 20
-23.040402
 40
0.1
 50
0.0
 51
90.0
  0
LINE
  8
型材断面
  6
DOT
 10
-7.265563
 20
-24.940405
 11
-7.265563
 21
-29.50707
  0
ARC
  8
型材断面
  6
DOT
 10
-7.365569
 20
-29.507069
 40
0.1
 50
270.0
 51
360.0
  0
LINE
  8
型材断面
  6
DOT
 10
-8.73223
 20
-29.60707
 11
-7.365563
 21
-29.60707
  0
ARC
  8
型材断面
  6
DOT
 10
-8.732236
 20
-29.507069
 40
0.1
 50
180.0
 51
270.0
  0
LINE
  8
型材断面
  6
DOT
 10
-8.83223
 20
-29.040405
 11
-8.83223
 21
-29.50707
  0
LINE
  8
型材断面
  6
DOT
 10
-8.73223
 20
-28.940405
 11
-7.93223
 21
-28.940405
  0
ARC
  8
型材断面
  6
DOT
 10
-8.732236
 20
-29.040402
 40
0.1
 50
90.0
 51
180.0
  0
LINE
  8
型材断面
  6
DOT
 10
-6.765563
 20
-24.440405
 11
-7.265563
 21
-24.440405
  0
ARC
  8
型材断面
  6
DOT
 10
-6.765569
 20
-24.540402
 40
0.1
 50
0.0
 51
90.0
  0
LINE
  8
型材断面
  6
DOT
 10
-6.665563
 20
-24.540405
 11
-6.665563
 21
-24.840405
  0
LINE
  8
型材断面
  6
DOT
 10
-6.765563
 20
-24.940405
 11
-7.265563
 21
-24.940405
  0
ARC
  8
型材断面
  6
DOT
 10
-6.765569
 20
-24.840402
 40
0.1
 50
270.0
 51
360.0
  0
ENDBLK
  0
BLOCK
  2
*GRP_0013
 70
    65
 10
0.0
 20
0.0
  0
LINE
  8
型材断面
  6
DOT
 10
-0.93223
 20
-23.60707
 11
-0.93223
 21
-28.940405
  0
LINE
  8
型材断面
  6
DOT
 10
6.934435
 20
-23.60707
 11
-0.93223
 21
-23.60707
  0
ARC
  8
型材断面
  6
DOT
 10
7.234439
 20
-23.040402
 40
0.1
 50
0.0
 51
90.0
  0
LINE
  8
型材断面
  6
DOT
 10
6.934435
 20
-23.60707
 11
6.934435
 21
-23.840405
  0
ARC
  8
型材断面
  6
DOT
 10
7.034439
 20
-23.840402
 40
0.1
 50
180.0
 51
270.0
  0
LINE
  8
型材断面
  6
DOT
 10
7.234435
 20
-23.940405
 11
7.034435
 21
-23.940405
  0
LINE
  8
型材断面
  6
DOT
 10
7.334435
 20
-23.840405
 11
7.334435
 21
-23.040405
  0
ARC
  8
型材断面
  6
DOT
 10
7.234439
 20
-23.840402
 40
0.1
 50
270.0
 51
360.0
  0
LINE
  8
型材断面
  6
DOT
 10
7.234435
 20
-22.940405
 11
-1.498898
 21
-22.940405
  0
LINE
  8
型材断面
  6
DOT
 10
-1.598898
 20
-23.040405
 11
-1.598898
 21
-24.440405
  0
ARC
  8
型材断面
  6
DOT
 10
-1.498894
 20
-23.040402
 40
0.1
 50
90.0
 51
180.0
  0
LINE
  8
型材断面
  6
DOT
 10
-1.598898
 20
-24.940405
 11
-1.598898
 21
-29.50707
  0
ARC
  8
型材断面
  6
DOT
 10
-1.498894
 20
-29.507069
 40
0.1
 50
180.0
 51
270.0
  0
LINE
  8
型材断面
  6
DOT
 10
-0.13223
 20
-29.60707
 11
-1.498898
 21
-29.60707
  0
ARC
  8
型材断面
  6
DOT
 10
-0.132228
 20
-29.507069
 40
0.1
 50
270.0
 51
360.0
  0
LINE
  8
型材断面
  6
DOT
 10
-0.03223
 20
-29.040405
 11
-0.03223
 21
-29.50707
  0
LINE
  8
型材断面
  6
DOT
 10
-0.13223
 20
-28.940405
 11
-0.93223
 21
-28.940405
  0
ARC
  8
型材断面
  6
DOT
 10
-0.132228
 20
-29.040402
 40
0.1
 50
0.0
 51
90.0
  0
LINE
  8
型材断面
  6
DOT
 10
-2.098898
 20
-24.440405
 11
-1.598898
 21
-24.440405
  0
ARC
  8
型材断面
  6
DOT
 10
-2.098894
 20
-24.540402
 40
0.1
 50
90.0
 51
180.0
  0
LINE
  8
型材断面
  6
DOT
 10
-2.198898
 20
-24.540405
 11
-2.198898
 21
-24.840405
  0
LINE
  8
型材断面
  6
DOT
 10
-2.098898
 20
-24.940405
 11
-1.598898
 21
-24.940405
  0
ARC
  8
型材断面
  6
DOT
 10
-2.098894
 20
-24.840402
 40
0.1
 50
180.0
 51
270.0
  0
ENDBLK
  0
BLOCK
  2
*GRP_0014
 70
    65
 10
0.0
 20
0.0
  0
POLYLINE
  8
ガラス
  6
CONTINUOUS
 66
     1
 70
     4
  0
VERTEX
  8
ガラス
 10
-63.3
 20
-38.2
 70
     8
  0
VERTEX
  8
ガラス
 10
-63.25
 20
-38.2
 70
     8
  0
VERTEX
  8
ガラス
 10
-63.225
 20
-38.2
 70
     8
  0
VERTEX
  8
ガラス
 10
-63.2
 20
-38.2
 70
     8
  0
VERTEX
  8
ガラス
 10
-63.175
 20
-38.175
 70
     8
  0
VERTEX
  8
ガラス
 10
-63.15
 20
-38.175
 70
     8
  0
VERTEX
  8
ガラス
 10
-63.1
 20
-38.175
 70
     8
  0
VERTEX
  8
ガラス
 10
-63.075
 20
-38.175
 70
     8
  0
VERTEX
  8
ガラス
 10
-63.05
 20
-38.175
 70
     8
  0
VERTEX
  8
ガラス
 10
-63.025
 20
-38.175
 70
     8
  0
VERTEX
  8
ガラス
 10
-63.0
 20
-38.175
 70
     8
  0
VERTEX
  8
ガラス
 10
-62.95
 20
-38.175
 70
     8
  0
VERTEX
  8
ガラス
 10
-62.925
 20
-38.175
 70
     8
  0
VERTEX
  8
ガラス
 10
-62.9
 20
-38.175
 70
     8
  0
VERTEX
  8
ガラス
 10
-62.875
 20
-38.175
 70
     8
  0
VERTEX
  8
ガラス
 10
-62.85
 20
-38.175
 70
     8
  0
VERTEX
  8
ガラス
 10
-62.825
 20
-38.175
 70
     8
  0
VERTEX
  8
ガラス
 10
-62.8
 20
-38.2
 70
     8
  0
VERTEX
  8
ガラス
 10
-62.75
 20
-38.2
 70
     8
  0
VERTEX
  8
ガラス
 10
-62.725
 20
-38.2
 70
     8
  0
VERTEX
  8
ガラス
 10
-62.7
 20
-38.225
 70
     8
  0
VERTEX
  8
ガラス
 10
-62.675
 20
-38.225
 70
     8
  0
VERTEX
  8
ガラス
 10
-62.65
 20
-38.225
 70
     8
  0
VERTEX
  8
ガラス
 10
-62.625
 20
-38.25
 70
     8
  0
VERTEX
  8
ガラス
 10
-62.6
 20
-38.25
 70
     8
  0
VERTEX
  8
ガラス
 10
-62.575
 20
-38.275
 70
     8
  0
VERTEX
  8
ガラス
 10
-62.55
 20
-38.3
 70
     8
  0
VERTEX
  8
ガラス
 10
-62.55
 20
-38.3
 70
     8
  0
VERTEX
  8
ガラス
 10
-62.525
 20
-38.325
 70
     8
  0
VERTEX
  8
ガラス
 10
-62.5
 20
-38.35
 70
     8
  0
VERTEX
  8
ガラス
 10
-62.475
 20
-38.375
 70
     8
  0
VERTEX
  8
ガラス
 10
-62.45
 20
-38.375
 70
     8
  0
VERTEX
  8
ガラス
 10
-62.425
 20
-38.4
 70
     8
  0
VERTEX
  8
ガラス
 10
-62.4
 20
-38.425
 70
     8
  0
VERTEX
  8
ガラス
 10
-62.375
 20
-38.45
 70
     8
  0
VERTEX
  8
ガラス
 10
-62.375
 20
-38.475
 70
     8
  0
VERTEX
  8
ガラス
 10
-62.35
 20
-38.5
 70
     8
  0
VERTEX
  8
ガラス
 10
-62.325
 20
-38.525
 70
     8
  0
VERTEX
  8
ガラス
 10
-62.3
 20
-38.55
 70
     8
  0
VERTEX
  8
ガラス
 10
-62.275
 20
-38.575
 70
     8
  0
VERTEX
  8
ガラス
 10
-62.275
 20
-38.6
 70
     8
  0
SEQEND
  0
POLYLINE
  8
ガラス
  6
CONTINUOUS
 66
     1
 70
     4
  0
VERTEX
  8
ガラス
 10
-62.275
 20
-38.6
 70
     8
  0
VERTEX
  8
ガラス
 10
-62.275
 20
-38.6
 70
     8
  0
VERTEX
  8
ガラス
 10
-62.3
 20
-38.6
 70
     8
  0
VERTEX
  8
ガラス
 10
-62.325
 20
-38.6
 70
     8
  0
VERTEX
  8
ガラス
 10
-62.35
 20
-38.6
 70
     8
  0
VERTEX
  8
ガラス
 10
-62.375
 20
-38.6
 70
     8
  0
VERTEX
  8
ガラス
 10
-62.375
 20
-38.6
 70
     8
  0
VERTEX
  8
ガラス
 10
-62.4
 20
-38.6
 70
     8
  0
VERTEX
  8
ガラス
 10
-62.425
 20
-38.6
 70
     8
  0
VERTEX
  8
ガラス
 10
-62.45
 20
-38.6
 70
     8
  0
VERTEX
  8
ガラス
 10
-62.475
 20
-38.6
 70
     8
  0
VERTEX
  8
ガラス
 10
-62.5
 20
-38.625
 70
     8
  0
VERTEX
  8
ガラス
 10
-62.5
 20
-38.625
 70
     8
  0
VERTEX
  8
ガラス
 10
-62.525
 20
-38.625
 70
     8
  0
VERTEX
  8
ガラス
 10
-62.55
 20
-38.625
 70
     8
  0
VERTEX
  8
ガラス
 10
-62.575
 20
-38.625
 70
     8
  0
VERTEX
  8
ガラス
 10
-62.6
 20
-38.625
 70
     8
  0
VERTEX
  8
ガラス
 10
-62.6
 20
-38.625
 70
     8
  0
VERTEX
  8
ガラス
 10
-62.625
 20
-38.65
 70
     8
  0
VERTEX
  8
ガラス
 10
-62.65
 20
-38.65
 70
     8
  0
VERTEX
  8
ガラス
 10
-62.675
 20
-38.65
 70
     8
  0
VERTEX
  8
ガラス
 10
-62.675
 20
-38.65
 70
     8
  0
VERTEX
  8
ガラス
 10
-62.7
 20
-38.65
 70
     8
  0
VERTEX
  8
ガラス
 10
-62.725
 20
-38.675
 70
     8
  0
VERTEX
  8
ガラス
 10
-62.75
 20
-38.675
 70
     8
  0
VERTEX
  8
ガラス
 10
-62.775
 20
-38.675
 70
     8
  0
VERTEX
  8
ガラス
 10
-62.775
 20
-38.675
 70
     8
  0
VERTEX
  8
ガラス
 10
-62.8
 20
-38.7
 70
     8
  0
VERTEX
  8
ガラス
 10
-62.825
 20
-38.7
 70
     8
  0
VERTEX
  8
ガラス
 10
-62.85
 20
-38.7
 70
     8
  0
VERTEX
  8
ガラス
 10
-62.85
 20
-38.7
 70
     8
  0
VERTEX
  8
ガラス
 10
-62.875
 20
-38.725
 70
     8
  0
VERTEX
  8
ガラス
 10
-62.9
 20
-38.725
 70
     8
  0
VERTEX
  8
ガラス
 10
-62.925
 20
-38.725
 70
     8
  0
VERTEX
  8
ガラス
 10
-62.95
 20
-38.75
 70
     8
  0
VERTEX
  8
ガラス
 10
-62.95
 20
-38.75
 70
     8
  0
VERTEX
  8
ガラス
 10
-62.975
 20
-38.75
 70
     8
  0
VERTEX
  8
ガラス
 10
-63.0
 20
-38.775
 70
     8
  0
VERTEX
  8
ガラス
 10
-63.025
 20
-38.775
 70
     8
  0
VERTEX
  8
ガラス
 10
-63.025
 20
-38.775
 70
     8
  0
VERTEX
  8
ガラス
 10
-63.05
 20
-38.775
 70
     8
  0
SEQEND
  0
ARC
  8
ガラス
  6
CONTINUOUS
 10
-63.160286
 20
-38.480242
 40
0.318378
 50
112.264588
 51
292.264588
  0
ENDBLK
  0
BLOCK
  2
*GRP_0015
 70
    65
 10
0.0
 20
0.0
  0
POLYLINE
  8
ガラス
  6
CONTINUOUS
 66
     1
 70
     4
  0
VERTEX
  8
ガラス
 10
-67.35
 20
-38.875
 70
     8
  0
VERTEX
  8
ガラス
 10
-67.325
 20
-38.875
 70
     8
  0
VERTEX
  8
ガラス
 10
-67.3
 20
-38.875
 70
     8
  0
VERTEX
  8
ガラス
 10
-67.275
 20
-38.875
 70
     8
  0
VERTEX
  8
ガラス
 10
-67.225
 20
-38.875
 70
     8
  0
VERTEX
  8
ガラス
 10
-67.2
 20
-38.875
 70
     8
  0
VERTEX
  8
ガラス
 10
-67.175
 20
-38.875
 70
     8
  0
VERTEX
  8
ガラス
 10
-67.15
 20
-38.875
 70
     8
  0
VERTEX
  8
ガラス
 10
-67.125
 20
-38.875
 70
     8
  0
VERTEX
  8
ガラス
 10
-67.075
 20
-38.875
 70
     8
  0
VERTEX
  8
ガラス
 10
-67.05
 20
-38.85
 70
     8
  0
VERTEX
  8
ガラス
 10
-67.025
 20
-38.85
 70
     8
  0
VERTEX
  8
ガラス
 10
-67.0
 20
-38.875
 70
     8
  0
VERTEX
  8
ガラス
 10
-66.975
 20
-38.875
 70
     8
  0
VERTEX
  8
ガラス
 10
-66.925
 20
-38.875
 70
     8
  0
VERTEX
  8
ガラス
 10
-66.9
 20
-38.875
 70
     8
  0
VERTEX
  8
ガラス
 10
-66.875
 20
-38.875
 70
     8
  0
VERTEX
  8
ガラス
 10
-66.85
 20
-38.875
 70
     8
  0
VERTEX
  8
ガラス
 10
-66.825
 20
-38.875
 70
     8
  0
VERTEX
  8
ガラス
 10
-66.8
 20
-38.9
 70
     8
  0
VERTEX
  8
ガラス
 10
-66.775
 20
-38.9
 70
     8
  0
VERTEX
  8
ガラス
 10
-66.75
 20
-38.9
 70
     8
  0
VERTEX
  8
ガラス
 10
-66.725
 20
-38.925
 70
     8
  0
VERTEX
  8
ガラス
 10
-66.7
 20
-38.925
 70
     8
  0
VERTEX
  8
ガラス
 10
-66.675
 20
-38.95
 70
     8
  0
VERTEX
  8
ガラス
 10
-66.65
 20
-38.975
 70
     8
  0
VERTEX
  8
ガラス
 10
-66.625
 20
-38.975
 70
     8
  0
VERTEX
  8
ガラス
 10
-66.6
 20
-39.0
 70
     8
  0
VERTEX
  8
ガラス
 10
-66.575
 20
-39.025
 70
     8
  0
VERTEX
  8
ガラス
 10
-66.55
 20
-39.025
 70
     8
  0
VERTEX
  8
ガラス
 10
-66.525
 20
-39.05
 70
     8
  0
VERTEX
  8
ガラス
 10
-66.525
 20
-39.075
 70
     8
  0
VERTEX
  8
ガラス
 10
-66.5
 20
-39.1
 70
     8
  0
VERTEX
  8
ガラス
 10
-66.475
 20
-39.125
 70
     8
  0
VERTEX
  8
ガラス
 10
-66.45
 20
-39.15
 70
     8
  0
VERTEX
  8
ガラス
 10
-66.425
 20
-39.15
 70
     8
  0
VERTEX
  8
ガラス
 10
-66.4
 20
-39.175
 70
     8
  0
VERTEX
  8
ガラス
 10
-66.4
 20
-39.2
 70
     8
  0
VERTEX
  8
ガラス
 10
-66.375
 20
-39.225
 70
     8
  0
VERTEX
  8
ガラス
 10
-66.35
 20
-39.25
 70
     8
  0
VERTEX
  8
ガラス
 10
-66.325
 20
-39.275
 70
     8
  0
SEQEND
  0
POLYLINE
  8
ガラス
  6
CONTINUOUS
 66
     1
 70
     4
  0
VERTEX
  8
ガラス
 10
-66.325
 20
-39.275
 70
     8
  0
VERTEX
  8
ガラス
 10
-66.35
 20
-39.275
 70
     8
  0
VERTEX
  8
ガラス
 10
-66.375
 20
-39.275
 70
     8
  0
VERTEX
  8
ガラス
 10
-66.4
 20
-39.275
 70
     8
  0
VERTEX
  8
ガラス
 10
-66.4
 20
-39.275
 70
     8
  0
VERTEX
  8
ガラス
 10
-66.425
 20
-39.3
 70
     8
  0
VERTEX
  8
ガラス
 10
-66.45
 20
-39.3
 70
     8
  0
VERTEX
  8
ガラス
 10
-66.475
 20
-39.3
 70
     8
  0
VERTEX
  8
ガラス
 10
-66.5
 20
-39.3
 70
     8
  0
VERTEX
  8
ガラス
 10
-66.5
 20
-39.3
 70
     8
  0
VERTEX
  8
ガラス
 10
-66.525
 20
-39.3
 70
     8
  0
VERTEX
  8
ガラス
 10
-66.55
 20
-39.3
 70
     8
  0
VERTEX
  8
ガラス
 10
-66.575
 20
-39.3
 70
     8
  0
VERTEX
  8
ガラス
 10
-66.6
 20
-39.3
 70
     8
  0
VERTEX
  8
ガラス
 10
-66.625
 20
-39.325
 70
     8
  0
VERTEX
  8
ガラス
 10
-66.625
 20
-39.325
 70
     8
  0
VERTEX
  8
ガラス
 10
-66.65
 20
-39.325
 70
     8
  0
VERTEX
  8
ガラス
 10
-66.675
 20
-39.325
 70
     8
  0
VERTEX
  8
ガラス
 10
-66.7
 20
-39.325
 70
     8
  0
VERTEX
  8
ガラス
 10
-66.725
 20
-39.325
 70
     8
  0
VERTEX
  8
ガラス
 10
-66.725
 20
-39.35
 70
     8
  0
VERTEX
  8
ガラス
 10
-66.75
 20
-39.35
 70
     8
  0
VERTEX
  8
ガラス
 10
-66.775
 20
-39.35
 70
     8
  0
VERTEX
  8
ガラス
 10
-66.8
 20
-39.35
 70
     8
  0
VERTEX
  8
ガラス
 10
-66.8
 20
-39.35
 70
     8
  0
VERTEX
  8
ガラス
 10
-66.825
 20
-39.375
 70
     8
  0
VERTEX
  8
ガラス
 10
-66.85
 20
-39.375
 70
     8
  0
VERTEX
  8
ガラス
 10
-66.875
 20
-39.375
 70
     8
  0
VERTEX
  8
ガラス
 10
-66.9
 20
-39.375
 70
     8
  0
VERTEX
  8
ガラス
 10
-66.9
 20
-39.4
 70
     8
  0
VERTEX
  8
ガラス
 10
-66.925
 20
-39.4
 70
     8
  0
VERTEX
  8
ガラス
 10
-66.95
 20
-39.4
 70
     8
  0
VERTEX
  8
ガラス
 10
-66.975
 20
-39.425
 70
     8
  0
VERTEX
  8
ガラス
 10
-66.975
 20
-39.425
 70
     8
  0
VERTEX
  8
ガラス
 10
-67.0
 20
-39.425
 70
     8
  0
VERTEX
  8
ガラス
 10
-67.025
 20
-39.425
 70
     8
  0
VERTEX
  8
ガラス
 10
-67.05
 20
-39.45
 70
     8
  0
VERTEX
  8
ガラス
 10
-67.05
 20
-39.45
 70
     8
  0
VERTEX
  8
ガラス
 10
-67.075
 20
-39.45
 70
     8
  0
VERTEX
  8
ガラス
 10
-67.1
 20
-39.475
 70
     8
  0
VERTEX
  8
ガラス
 10
-67.125
 20
-39.475
 70
     8
  0
SEQEND
  0
ARC
  8
ガラス
  6
CONTINUOUS
 10
-67.225136
 20
-39.169178
 40
0.318378
 50
112.264588
 51
292.264588
  0
ENDBLK
  0
BLOCK
  2
*GRP_0016
 70
    65
 10
0.0
 20
0.0
  0
POLYLINE
  8
ガラス
  6
CONTINUOUS
 66
     1
 70
     4
  0
VERTEX
  8
ガラス
 10
-72.225
 20
-39.7
 70
     8
  0
VERTEX
  8
ガラス
 10
-72.2
 20
-39.7
 70
     8
  0
VERTEX
  8
ガラス
 10
-72.175
 20
-39.7
 70
     8
  0
VERTEX
  8
ガラス
 10
-72.125
 20
-39.7
 70
     8
  0
VERTEX
  8
ガラス
 10
-72.1
 20
-39.7
 70
     8
  0
VERTEX
  8
ガラス
 10
-72.075
 20
-39.7
 70
     8
  0
VERTEX
  8
ガラス
 10
-72.05
 20
-39.7
 70
     8
  0
VERTEX
  8
ガラス
 10
-72.0
 20
-39.7
 70
     8
  0
VERTEX
  8
ガラス
 10
-71.975
 20
-39.7
 70
     8
  0
VERTEX
  8
ガラス
 10
-71.95
 20
-39.7
 70
     8
  0
VERTEX
  8
ガラス
 10
-71.925
 20
-39.675
 70
     8
  0
VERTEX
  8
ガラス
 10
-71.9
 20
-39.675
 70
     8
  0
VERTEX
  8
ガラス
 10
-71.85
 20
-39.7
 70
     8
  0
VERTEX
  8
ガラス
 10
-71.825
 20
-39.7
 70
     8
  0
VERTEX
  8
ガラス
 10
-71.8
 20
-39.7
 70
     8
  0
VERTEX
  8
ガラス
 10
-71.775
 20
-39.7
 70
     8
  0
VERTEX
  8
ガラス
 10
-71.75
 20
-39.7
 70
     8
  0
VERTEX
  8
ガラス
 10
-71.725
 20
-39.7
 70
     8
  0
VERTEX
  8
ガラス
 10
-71.7
 20
-39.7
 70
     8
  0
VERTEX
  8
ガラス
 10
-71.675
 20
-39.725
 70
     8
  0
VERTEX
  8
ガラス
 10
-71.65
 20
-39.725
 70
     8
  0
VERTEX
  8
ガラス
 10
-71.625
 20
-39.725
 70
     8
  0
VERTEX
  8
ガラス
 10
-71.6
 20
-39.75
 70
     8
  0
VERTEX
  8
ガラス
 10
-71.575
 20
-39.75
 70
     8
  0
VERTEX
  8
ガラス
 10
-71.55
 20
-39.775
 70
     8
  0
VERTEX
  8
ガラス
 10
-71.525
 20
-39.8
 70
     8
  0
VERTEX
  8
ガラス
 10
-71.5
 20
-39.8
 70
     8
  0
VERTEX
  8
ガラス
 10
-71.475
 20
-39.825
 70
     8
  0
VERTEX
  8
ガラス
 10
-71.45
 20
-39.85
 70
     8
  0
VERTEX
  8
ガラス
 10
-71.425
 20
-39.85
 70
     8
  0
VERTEX
  8
ガラス
 10
-71.4
 20
-39.875
 70
     8
  0
VERTEX
  8
ガラス
 10
-71.375
 20
-39.9
 70
     8
  0
VERTEX
  8
ガラス
 10
-71.35
 20
-39.925
 70
     8
  0
VERTEX
  8
ガラス
 10
-71.35
 20
-39.95
 70
     8
  0
VERTEX
  8
ガラス
 10
-71.325
 20
-39.975
 70
     8
  0
VERTEX
  8
ガラス
 10
-71.3
 20
-39.975
 70
     8
  0
VERTEX
  8
ガラス
 10
-71.275
 20
-40.0
 70
     8
  0
VERTEX
  8
ガラス
 10
-71.25
 20
-40.025
 70
     8
  0
VERTEX
  8
ガラス
 10
-71.225
 20
-40.05
 70
     8
  0
VERTEX
  8
ガラス
 10
-71.225
 20
-40.075
 70
     8
  0
VERTEX
  8
ガラス
 10
-71.2
 20
-40.1
 70
     8
  0
SEQEND
  0
POLYLINE
  8
ガラス
  6
CONTINUOUS
 66
     1
 70
     4
  0
VERTEX
  8
ガラス
 10
-71.2
 20
-40.1
 70
     8
  0
VERTEX
  8
ガラス
 10
-71.225
 20
-40.1
 70
     8
  0
VERTEX
  8
ガラス
 10
-71.225
 20
-40.1
 70
     8
  0
VERTEX
  8
ガラス
 10
-71.25
 20
-40.1
 70
     8
  0
VERTEX
  8
ガラス
 10
-71.275
 20
-40.1
 70
     8
  0
VERTEX
  8
ガラス
 10
-71.3
 20
-40.125
 70
     8
  0
VERTEX
  8
ガラス
 10
-71.325
 20
-40.125
 70
     8
  0
VERTEX
  8
ガラス
 10
-71.35
 20
-40.125
 70
     8
  0
VERTEX
  8
ガラス
 10
-71.35
 20
-40.125
 70
     8
  0
VERTEX
  8
ガラス
 10
-71.375
 20
-40.125
 70
     8
  0
VERTEX
  8
ガラス
 10
-71.4
 20
-40.125
 70
     8
  0
VERTEX
  8
ガラス
 10
-71.425
 20
-40.125
 70
     8
  0
VERTEX
  8
ガラス
 10
-71.45
 20
-40.125
 70
     8
  0
VERTEX
  8
ガラス
 10
-71.45
 20
-40.125
 70
     8
  0
VERTEX
  8
ガラス
 10
-71.475
 20
-40.15
 70
     8
  0
VERTEX
  8
ガラス
 10
-71.5
 20
-40.15
 70
     8
  0
VERTEX
  8
ガラス
 10
-71.525
 20
-40.15
 70
     8
  0
VERTEX
  8
ガラス
 10
-71.55
 20
-40.15
 70
     8
  0
VERTEX
  8
ガラス
 10
-71.55
 20
-40.15
 70
     8
  0
VERTEX
  8
ガラス
 10
-71.575
 20
-40.15
 70
     8
  0
VERTEX
  8
ガラス
 10
-71.6
 20
-40.175
 70
     8
  0
VERTEX
  8
ガラス
 10
-71.625
 20
-40.175
 70
     8
  0
VERTEX
  8
ガラス
 10
-71.65
 20
-40.175
 70
     8
  0
VERTEX
  8
ガラス
 10
-71.65
 20
-40.175
 70
     8
  0
VERTEX
  8
ガラス
 10
-71.675
 20
-40.175
 70
     8
  0
VERTEX
  8
ガラス
 10
-71.7
 20
-40.2
 70
     8
  0
VERTEX
  8
ガラス
 10
-71.725
 20
-40.2
 70
     8
  0
VERTEX
  8
ガラス
 10
-71.725
 20
-40.2
 70
     8
  0
VERTEX
  8
ガラス
 10
-71.75
 20
-40.2
 70
     8
  0
VERTEX
  8
ガラス
 10
-71.775
 20
-40.225
 70
     8
  0
VERTEX
  8
ガラス
 10
-71.8
 20
-40.225
 70
     8
  0
VERTEX
  8
ガラス
 10
-71.8
 20
-40.225
 70
     8
  0
VERTEX
  8
ガラス
 10
-71.825
 20
-40.25
 70
     8
  0
VERTEX
  8
ガラス
 10
-71.85
 20
-40.25
 70
     8
  0
VERTEX
  8
ガラス
 10
-71.875
 20
-40.25
 70
     8
  0
VERTEX
  8
ガラス
 10
-71.9
 20
-40.25
 70
     8
  0
VERTEX
  8
ガラス
 10
-71.9
 20
-40.275
 70
     8
  0
VERTEX
  8
ガラス
 10
-71.925
 20
-40.275
 70
     8
  0
VERTEX
  8
ガラス
 10
-71.95
 20
-40.275
 70
     8
  0
VERTEX
  8
ガラス
 10
-71.975
 20
-40.3
 70
     8
  0
VERTEX
  8
ガラス
 10
-71.975
 20
-40.3
 70
     8
  0
SEQEND
  0
ARC
  8
ガラス
  6
CONTINUOUS
 10
-72.091449
 20
-39.993951
 40
0.318378
 50
112.264588
 51
292.264588
  0
ENDBLK
  0
BLOCK
  2
*GRP_0017
 70
    65
 10
0.0
 20
0.0
  0
POLYLINE
  8
ガラス
  6
CONTINUOUS
 66
     1
 70
     4
  0
VERTEX
  8
ガラス
 10
-59.8
 20
-30.575
 70
     8
  0
VERTEX
  8
ガラス
 10
-59.8
 20
-30.55
 70
     8
  0
VERTEX
  8
ガラス
 10
-59.775
 20
-30.525
 70
     8
  0
VERTEX
  8
ガラス
 10
-59.775
 20
-30.5
 70
     8
  0
VERTEX
  8
ガラス
 10
-59.775
 20
-30.45
 70
     8
  0
VERTEX
  8
ガラス
 10
-59.775
 20
-30.425
 70
     8
  0
VERTEX
  8
ガラス
 10
-59.775
 20
-30.4
 70
     8
  0
VERTEX
  8
ガラス
 10
-59.775
 20
-30.375
 70
     8
  0
VERTEX
  8
ガラス
 10
-59.775
 20
-30.35
 70
     8
  0
VERTEX
  8
ガラス
 10
-59.775
 20
-30.3
 70
     8
  0
VERTEX
  8
ガラス
 10
-59.775
 20
-30.275
 70
     8
  0
VERTEX
  8
ガラス
 10
-59.775
 20
-30.25
 70
     8
  0
VERTEX
  8
ガラス
 10
-59.775
 20
-30.225
 70
     8
  0
VERTEX
  8
ガラス
 10
-59.775
 20
-30.2
 70
     8
  0
VERTEX
  8
ガラス
 10
-59.775
 20
-30.175
 70
     8
  0
VERTEX
  8
ガラス
 10
-59.775
 20
-30.125
 70
     8
  0
VERTEX
  8
ガラス
 10
-59.775
 20
-30.1
 70
     8
  0
VERTEX
  8
ガラス
 10
-59.775
 20
-30.075
 70
     8
  0
VERTEX
  8
ガラス
 10
-59.8
 20
-30.05
 70
     8
  0
VERTEX
  8
ガラス
 10
-59.8
 20
-30.025
 70
     8
  0
VERTEX
  8
ガラス
 10
-59.8
 20
-30.0
 70
     8
  0
VERTEX
  8
ガラス
 10
-59.825
 20
-29.975
 70
     8
  0
VERTEX
  8
ガラス
 10
-59.825
 20
-29.95
 70
     8
  0
VERTEX
  8
ガラス
 10
-59.85
 20
-29.925
 70
     8
  0
VERTEX
  8
ガラス
 10
-59.85
 20
-29.9
 70
     8
  0
VERTEX
  8
ガラス
 10
-59.875
 20
-29.875
 70
     8
  0
VERTEX
  8
ガラス
 10
-59.9
 20
-29.85
 70
     8
  0
VERTEX
  8
ガラス
 10
-59.9
 20
-29.825
 70
     8
  0
VERTEX
  8
ガラス
 10
-59.925
 20
-29.8
 70
     8
  0
VERTEX
  8
ガラス
 10
-59.95
 20
-29.775
 70
     8
  0
VERTEX
  8
ガラス
 10
-59.95
 20
-29.775
 70
     8
  0
VERTEX
  8
ガラス
 10
-59.975
 20
-29.75
 70
     8
  0
VERTEX
  8
ガラス
 10
-60.0
 20
-29.725
 70
     8
  0
VERTEX
  8
ガラス
 10
-60.025
 20
-29.7
 70
     8
  0
VERTEX
  8
ガラス
 10
-60.05
 20
-29.675
 70
     8
  0
VERTEX
  8
ガラス
 10
-60.075
 20
-29.65
 70
     8
  0
VERTEX
  8
ガラス
 10
-60.1
 20
-29.625
 70
     8
  0
VERTEX
  8
ガラス
 10
-60.125
 20
-29.625
 70
     8
  0
VERTEX
  8
ガラス
 10
-60.125
 20
-29.6
 70
     8
  0
VERTEX
  8
ガラス
 10
-60.15
 20
-29.575
 70
     8
  0
VERTEX
  8
ガラス
 10
-60.175
 20
-29.55
 70
     8
  0
SEQEND
  0
POLYLINE
  8
ガラス
  6
CONTINUOUS
 66
     1
 70
     4
  0
VERTEX
  8
ガラス
 10
-60.175
 20
-29.55
 70
     8
  0
VERTEX
  8
ガラス
 10
-60.175
 20
-29.575
 70
     8
  0
VERTEX
  8
ガラス
 10
-60.2
 20
-29.6
 70
     8
  0
VERTEX
  8
ガラス
 10
-60.2
 20
-29.625
 70
     8
  0
VERTEX
  8
ガラス
 10
-60.2
 20
-29.625
 70
     8
  0
VERTEX
  8
ガラス
 10
-60.2
 20
-29.65
 70
     8
  0
VERTEX
  8
ガラス
 10
-60.2
 20
-29.675
 70
     8
  0
VERTEX
  8
ガラス
 10
-60.2
 20
-29.7
 70
     8
  0
VERTEX
  8
ガラス
 10
-60.2
 20
-29.725
 70
     8
  0
VERTEX
  8
ガラス
 10
-60.2
 20
-29.75
 70
     8
  0
VERTEX
  8
ガラス
 10
-60.2
 20
-29.75
 70
     8
  0
VERTEX
  8
ガラス
 10
-60.2
 20
-29.775
 70
     8
  0
VERTEX
  8
ガラス
 10
-60.225
 20
-29.8
 70
     8
  0
VERTEX
  8
ガラス
 10
-60.225
 20
-29.825
 70
     8
  0
VERTEX
  8
ガラス
 10
-60.225
 20
-29.85
 70
     8
  0
VERTEX
  8
ガラス
 10
-60.225
 20
-29.85
 70
     8
  0
VERTEX
  8
ガラス
 10
-60.225
 20
-29.875
 70
     8
  0
VERTEX
  8
ガラス
 10
-60.225
 20
-29.9
 70
     8
  0
VERTEX
  8
ガラス
 10
-60.225
 20
-29.925
 70
     8
  0
VERTEX
  8
ガラス
 10
-60.25
 20
-29.95
 70
     8
  0
VERTEX
  8
ガラス
 10
-60.25
 20
-29.95
 70
     8
  0
VERTEX
  8
ガラス
 10
-60.25
 20
-29.975
 70
     8
  0
VERTEX
  8
ガラス
 10
-60.25
 20
-30.0
 70
     8
  0
VERTEX
  8
ガラス
 10
-60.25
 20
-30.025
 70
     8
  0
VERTEX
  8
ガラス
 10
-60.275
 20
-30.05
 70
     8
  0
VERTEX
  8
ガラス
 10
-60.275
 20
-30.05
 70
     8
  0
VERTEX
  8
ガラス
 10
-60.275
 20
-30.075
 70
     8
  0
VERTEX
  8
ガラス
 10
-60.275
 20
-30.1
 70
     8
  0
VERTEX
  8
ガラス
 10
-60.3
 20
-30.125
 70
     8
  0
VERTEX
  8
ガラス
 10
-60.3
 20
-30.125
 70
     8
  0
VERTEX
  8
ガラス
 10
-60.3
 20
-30.15
 70
     8
  0
VERTEX
  8
ガラス
 10
-60.325
 20
-30.175
 70
     8
  0
VERTEX
  8
ガラス
 10
-60.325
 20
-30.2
 70
     8
  0
VERTEX
  8
ガラス
 10
-60.325
 20
-30.2
 70
     8
  0
VERTEX
  8
ガラス
 10
-60.325
 20
-30.225
 70
     8
  0
VERTEX
  8
ガラス
 10
-60.35
 20
-30.25
 70
     8
  0
VERTEX
  8
ガラス
 10
-60.35
 20
-30.275
 70
     8
  0
VERTEX
  8
ガラス
 10
-60.35
 20
-30.275
 70
     8
  0
VERTEX
  8
ガラス
 10
-60.375
 20
-30.3
 70
     8
  0
VERTEX
  8
ガラス
 10
-60.375
 20
-30.325
 70
     8
  0
VERTEX
  8
ガラス
 10
-60.375
 20
-30.35
 70
     8
  0
SEQEND
  0
ARC
  8
ガラス
  6
CONTINUOUS
 10
-60.075644
 20
-30.451963
 40
0.318378
 50
157.735412
 51
337.735412
  0
ENDBLK
  0
BLOCK
  2
*GRP_0018
 70
    65
 10
0.0
 20
0.0
  0
POLYLINE
  8
ガラス
  6
CONTINUOUS
 66
     1
 70
     4
  0
VERTEX
  8
ガラス
 10
-59.8
 20
-35.825
 70
     8
  0
VERTEX
  8
ガラス
 10
-59.8
 20
-35.8
 70
     8
  0
VERTEX
  8
ガラス
 10
-59.775
 20
-35.75
 70
     8
  0
VERTEX
  8
ガラス
 10
-59.775
 20
-35.725
 70
     8
  0
VERTEX
  8
ガラス
 10
-59.775
 20
-35.7
 70
     8
  0
VERTEX
  8
ガラス
 10
-59.775
 20
-35.675
 70
     8
  0
VERTEX
  8
ガラス
 10
-59.775
 20
-35.625
 70
     8
  0
VERTEX
  8
ガラス
 10
-59.775
 20
-35.6
 70
     8
  0
VERTEX
  8
ガラス
 10
-59.775
 20
-35.575
 70
     8
  0
VERTEX
  8
ガラス
 10
-59.775
 20
-35.55
 70
     8
  0
VERTEX
  8
ガラス
 10
-59.775
 20
-35.525
 70
     8
  0
VERTEX
  8
ガラス
 10
-59.775
 20
-35.475
 70
     8
  0
VERTEX
  8
ガラス
 10
-59.775
 20
-35.45
 70
     8
  0
VERTEX
  8
ガラス
 10
-59.775
 20
-35.425
 70
     8
  0
VERTEX
  8
ガラス
 10
-59.775
 20
-35.4
 70
     8
  0
VERTEX
  8
ガラス
 10
-59.775
 20
-35.375
 70
     8
  0
VERTEX
  8
ガラス
 10
-59.775
 20
-35.35
 70
     8
  0
VERTEX
  8
ガラス
 10
-59.775
 20
-35.325
 70
     8
  0
VERTEX
  8
ガラス
 10
-59.8
 20
-35.3
 70
     8
  0
VERTEX
  8
ガラス
 10
-59.8
 20
-35.25
 70
     8
  0
VERTEX
  8
ガラス
 10
-59.8
 20
-35.225
 70
     8
  0
VERTEX
  8
ガラス
 10
-59.825
 20
-35.2
 70
     8
  0
VERTEX
  8
ガラス
 10
-59.825
 20
-35.175
 70
     8
  0
VERTEX
  8
ガラス
 10
-59.85
 20
-35.15
 70
     8
  0
VERTEX
  8
ガラス
 10
-59.85
 20
-35.125
 70
     8
  0
VERTEX
  8
ガラス
 10
-59.875
 20
-35.1
 70
     8
  0
VERTEX
  8
ガラス
 10
-59.9
 20
-35.1
 70
     8
  0
VERTEX
  8
ガラス
 10
-59.9
 20
-35.075
 70
     8
  0
VERTEX
  8
ガラス
 10
-59.925
 20
-35.05
 70
     8
  0
VERTEX
  8
ガラス
 10
-59.95
 20
-35.025
 70
     8
  0
VERTEX
  8
ガラス
 10
-59.95
 20
-35.0
 70
     8
  0
VERTEX
  8
ガラス
 10
-59.975
 20
-34.975
 70
     8
  0
VERTEX
  8
ガラス
 10
-60.0
 20
-34.95
 70
     8
  0
VERTEX
  8
ガラス
 10
-60.025
 20
-34.925
 70
     8
  0
VERTEX
  8
ガラス
 10
-60.05
 20
-34.925
 70
     8
  0
VERTEX
  8
ガラス
 10
-60.075
 20
-34.9
 70
     8
  0
VERTEX
  8
ガラス
 10
-60.1
 20
-34.875
 70
     8
  0
VERTEX
  8
ガラス
 10
-60.125
 20
-34.85
 70
     8
  0
VERTEX
  8
ガラス
 10
-60.125
 20
-34.825
 70
     8
  0
VERTEX
  8
ガラス
 10
-60.15
 20
-34.8
 70
     8
  0
VERTEX
  8
ガラス
 10
-60.175
 20
-34.8
 70
     8
  0
SEQEND
  0
POLYLINE
  8
ガラス
  6
CONTINUOUS
 66
     1
 70
     4
  0
VERTEX
  8
ガラス
 10
-60.175
 20
-34.8
 70
     8
  0
VERTEX
  8
ガラス
 10
-60.175
 20
-34.8
 70
     8
  0
VERTEX
  8
ガラス
 10
-60.2
 20
-34.825
 70
     8
  0
VERTEX
  8
ガラス
 10
-60.2
 20
-34.85
 70
     8
  0
VERTEX
  8
ガラス
 10
-60.2
 20
-34.875
 70
     8
  0
VERTEX
  8
ガラス
 10
-60.2
 20
-34.9
 70
     8
  0
VERTEX
  8
ガラス
 10
-60.2
 20
-34.925
 70
     8
  0
VERTEX
  8
ガラス
 10
-60.2
 20
-34.925
 70
     8
  0
VERTEX
  8
ガラス
 10
-60.2
 20
-34.95
 70
     8
  0
VERTEX
  8
ガラス
 10
-60.2
 20
-34.975
 70
     8
  0
VERTEX
  8
ガラス
 10
-60.2
 20
-35.0
 70
     8
  0
VERTEX
  8
ガラス
 10
-60.2
 20
-35.025
 70
     8
  0
VERTEX
  8
ガラス
 10
-60.225
 20
-35.025
 70
     8
  0
VERTEX
  8
ガラス
 10
-60.225
 20
-35.05
 70
     8
  0
VERTEX
  8
ガラス
 10
-60.225
 20
-35.075
 70
     8
  0
VERTEX
  8
ガラス
 10
-60.225
 20
-35.1
 70
     8
  0
VERTEX
  8
ガラス
 10
-60.225
 20
-35.125
 70
     8
  0
VERTEX
  8
ガラス
 10
-60.225
 20
-35.125
 70
     8
  0
VERTEX
  8
ガラス
 10
-60.225
 20
-35.15
 70
     8
  0
VERTEX
  8
ガラス
 10
-60.25
 20
-35.175
 70
     8
  0
VERTEX
  8
ガラス
 10
-60.25
 20
-35.2
 70
     8
  0
VERTEX
  8
ガラス
 10
-60.25
 20
-35.225
 70
     8
  0
VERTEX
  8
ガラス
 10
-60.25
 20
-35.225
 70
     8
  0
VERTEX
  8
ガラス
 10
-60.25
 20
-35.25
 70
     8
  0
VERTEX
  8
ガラス
 10
-60.275
 20
-35.275
 70
     8
  0
VERTEX
  8
ガラス
 10
-60.275
 20
-35.3
 70
     8
  0
VERTEX
  8
ガラス
 10
-60.275
 20
-35.3
 70
     8
  0
VERTEX
  8
ガラス
 10
-60.275
 20
-35.325
 70
     8
  0
VERTEX
  8
ガラス
 10
-60.3
 20
-35.35
 70
     8
  0
VERTEX
  8
ガラス
 10
-60.3
 20
-35.375
 70
     8
  0
VERTEX
  8
ガラス
 10
-60.3
 20
-35.4
 70
     8
  0
VERTEX
  8
ガラス
 10
-60.325
 20
-35.4
 70
     8
  0
VERTEX
  8
ガラス
 10
-60.325
 20
-35.425
 70
     8
  0
VERTEX
  8
ガラス
 10
-60.325
 20
-35.45
 70
     8
  0
VERTEX
  8
ガラス
 10
-60.325
 20
-35.475
 70
     8
  0
VERTEX
  8
ガラス
 10
-60.35
 20
-35.475
 70
     8
  0
VERTEX
  8
ガラス
 10
-60.35
 20
-35.5
 70
     8
  0
VERTEX
  8
ガラス
 10
-60.35
 20
-35.525
 70
     8
  0
VERTEX
  8
ガラス
 10
-60.375
 20
-35.55
 70
     8
  0
VERTEX
  8
ガラス
 10
-60.375
 20
-35.55
 70
     8
  0
VERTEX
  8
ガラス
 10
-60.375
 20
-35.575
 70
     8
  0
SEQEND
  0
ARC
  8
ガラス
  6
CONTINUOUS
 10
-60.075644
 20
-35.687368
 40
0.318378
 50
157.735412
 51
337.735412
  0
ENDBLK
  0
BLOCK
  2
*GRP_0019
 70
    65
 10
0.0
 20
0.0
  0
POLYLINE
  8
ガラス
  6
CONTINUOUS
 66
     1
 70
     4
  0
VERTEX
  8
ガラス
 10
54.4
 20
-38.2
 70
     8
  0
VERTEX
  8
ガラス
 10
54.375
 20
-38.2
 70
     8
  0
VERTEX
  8
ガラス
 10
54.35
 20
-38.2
 70
     8
  0
VERTEX
  8
ガラス
 10
54.3
 20
-38.2
 70
     8
  0
VERTEX
  8
ガラス
 10
54.275
 20
-38.175
 70
     8
  0
VERTEX
  8
ガラス
 10
54.25
 20
-38.175
 70
     8
  0
VERTEX
  8
ガラス
 10
54.225
 20
-38.175
 70
     8
  0
VERTEX
  8
ガラス
 10
54.2
 20
-38.175
 70
     8
  0
VERTEX
  8
ガラス
 10
54.15
 20
-38.175
 70
     8
  0
VERTEX
  8
ガラス
 10
54.125
 20
-38.175
 70
     8
  0
VERTEX
  8
ガラス
 10
54.1
 20
-38.175
 70
     8
  0
VERTEX
  8
ガラス
 10
54.075
 20
-38.175
 70
     8
  0
VERTEX
  8
ガラス
 10
54.05
 20
-38.175
 70
     8
  0
VERTEX
  8
ガラス
 10
54.0
 20
-38.175
 70
     8
  0
VERTEX
  8
ガラス
 10
53.975
 20
-38.175
 70
     8
  0
VERTEX
  8
ガラス
 10
53.95
 20
-38.175
 70
     8
  0
VERTEX
  8
ガラス
 10
53.925
 20
-38.175
 70
     8
  0
VERTEX
  8
ガラス
 10
53.9
 20
-38.2
 70
     8
  0
VERTEX
  8
ガラス
 10
53.875
 20
-38.2
 70
     8
  0
VERTEX
  8
ガラス
 10
53.85
 20
-38.2
 70
     8
  0
VERTEX
  8
ガラス
 10
53.825
 20
-38.225
 70
     8
  0
VERTEX
  8
ガラス
 10
53.8
 20
-38.225
 70
     8
  0
VERTEX
  8
ガラス
 10
53.775
 20
-38.225
 70
     8
  0
VERTEX
  8
ガラス
 10
53.75
 20
-38.25
 70
     8
  0
VERTEX
  8
ガラス
 10
53.725
 20
-38.25
 70
     8
  0
VERTEX
  8
ガラス
 10
53.7
 20
-38.275
 70
     8
  0
VERTEX
  8
ガラス
 10
53.675
 20
-38.3
 70
     8
  0
VERTEX
  8
ガラス
 10
53.65
 20
-38.3
 70
     8
  0
VERTEX
  8
ガラス
 10
53.625
 20
-38.325
 70
     8
  0
VERTEX
  8
ガラス
 10
53.6
 20
-38.35
 70
     8
  0
VERTEX
  8
ガラス
 10
53.575
 20
-38.375
 70
     8
  0
VERTEX
  8
ガラス
 10
53.55
 20
-38.375
 70
     8
  0
VERTEX
  8
ガラス
 10
53.55
 20
-38.4
 70
     8
  0
VERTEX
  8
ガラス
 10
53.525
 20
-38.425
 70
     8
  0
VERTEX
  8
ガラス
 10
53.5
 20
-38.45
 70
     8
  0
VERTEX
  8
ガラス
 10
53.475
 20
-38.475
 70
     8
  0
VERTEX
  8
ガラス
 10
53.45
 20
-38.5
 70
     8
  0
VERTEX
  8
ガラス
 10
53.425
 20
-38.525
 70
     8
  0
VERTEX
  8
ガラス
 10
53.425
 20
-38.55
 70
     8
  0
VERTEX
  8
ガラス
 10
53.4
 20
-38.575
 70
     8
  0
VERTEX
  8
ガラス
 10
53.375
 20
-38.6
 70
     8
  0
SEQEND
  0
POLYLINE
  8
ガラス
  6
CONTINUOUS
 66
     1
 70
     4
  0
VERTEX
  8
ガラス
 10
53.375
 20
-38.6
 70
     8
  0
VERTEX
  8
ガラス
 10
53.4
 20
-38.6
 70
     8
  0
VERTEX
  8
ガラス
 10
53.425
 20
-38.6
 70
     8
  0
VERTEX
  8
ガラス
 10
53.425
 20
-38.6
 70
     8
  0
VERTEX
  8
ガラス
 10
53.45
 20
-38.6
 70
     8
  0
VERTEX
  8
ガラス
 10
53.475
 20
-38.6
 70
     8
  0
VERTEX
  8
ガラス
 10
53.5
 20
-38.6
 70
     8
  0
VERTEX
  8
ガラス
 10
53.525
 20
-38.6
 70
     8
  0
VERTEX
  8
ガラス
 10
53.525
 20
-38.6
 70
     8
  0
VERTEX
  8
ガラス
 10
53.55
 20
-38.6
 70
     8
  0
VERTEX
  8
ガラス
 10
53.575
 20
-38.6
 70
     8
  0
VERTEX
  8
ガラス
 10
53.6
 20
-38.625
 70
     8
  0
VERTEX
  8
ガラス
 10
53.625
 20
-38.625
 70
     8
  0
VERTEX
  8
ガラス
 10
53.65
 20
-38.625
 70
     8
  0
VERTEX
  8
ガラス
 10
53.65
 20
-38.625
 70
     8
  0
VERTEX
  8
ガラス
 10
53.675
 20
-38.625
 70
     8
  0
VERTEX
  8
ガラス
 10
53.7
 20
-38.625
 70
     8
  0
VERTEX
  8
ガラス
 10
53.725
 20
-38.625
 70
     8
  0
VERTEX
  8
ガラス
 10
53.75
 20
-38.65
 70
     8
  0
VERTEX
  8
ガラス
 10
53.75
 20
-38.65
 70
     8
  0
VERTEX
  8
ガラス
 10
53.775
 20
-38.65
 70
     8
  0
VERTEX
  8
ガラス
 10
53.8
 20
-38.65
 70
     8
  0
VERTEX
  8
ガラス
 10
53.825
 20
-38.65
 70
     8
  0
VERTEX
  8
ガラス
 10
53.825
 20
-38.675
 70
     8
  0
VERTEX
  8
ガラス
 10
53.85
 20
-38.675
 70
     8
  0
VERTEX
  8
ガラス
 10
53.875
 20
-38.675
 70
     8
  0
VERTEX
  8
ガラス
 10
53.9
 20
-38.675
 70
     8
  0
VERTEX
  8
ガラス
 10
53.925
 20
-38.7
 70
     8
  0
VERTEX
  8
ガラス
 10
53.925
 20
-38.7
 70
     8
  0
VERTEX
  8
ガラス
 10
53.95
 20
-38.7
 70
     8
  0
VERTEX
  8
ガラス
 10
53.975
 20
-38.7
 70
     8
  0
VERTEX
  8
ガラス
 10
54.0
 20
-38.725
 70
     8
  0
VERTEX
  8
ガラス
 10
54.0
 20
-38.725
 70
     8
  0
VERTEX
  8
ガラス
 10
54.025
 20
-38.725
 70
     8
  0
VERTEX
  8
ガラス
 10
54.05
 20
-38.75
 70
     8
  0
VERTEX
  8
ガラス
 10
54.075
 20
-38.75
 70
     8
  0
VERTEX
  8
ガラス
 10
54.075
 20
-38.75
 70
     8
  0
VERTEX
  8
ガラス
 10
54.1
 20
-38.775
 70
     8
  0
VERTEX
  8
ガラス
 10
54.125
 20
-38.775
 70
     8
  0
VERTEX
  8
ガラス
 10
54.15
 20
-38.775
 70
     8
  0
VERTEX
  8
ガラス
 10
54.175
 20
-38.775
 70
     8
  0
SEQEND
  0
ARC
  8
ガラス
  6
CONTINUOUS
 10
54.295826
 20
-38.480242
 40
0.318378
 50
247.735412
 51
427.735412
  0
ENDBLK
  0
BLOCK
  2
*GRP_0020
 70
    65
 10
0.0
 20
0.0
  0
POLYLINE
  8
ガラス
  6
CONTINUOUS
 66
     1
 70
     4
  0
VERTEX
  8
ガラス
 10
58.475
 20
-38.875
 70
     8
  0
VERTEX
  8
ガラス
 10
58.45
 20
-38.875
 70
     8
  0
VERTEX
  8
ガラス
 10
58.4
 20
-38.875
 70
     8
  0
VERTEX
  8
ガラス
 10
58.375
 20
-38.875
 70
     8
  0
VERTEX
  8
ガラス
 10
58.35
 20
-38.875
 70
     8
  0
VERTEX
  8
ガラス
 10
58.325
 20
-38.875
 70
     8
  0
VERTEX
  8
ガラス
 10
58.275
 20
-38.875
 70
     8
  0
VERTEX
  8
ガラス
 10
58.25
 20
-38.875
 70
     8
  0
VERTEX
  8
ガラス
 10
58.225
 20
-38.875
 70
     8
  0
VERTEX
  8
ガラス
 10
58.2
 20
-38.875
 70
     8
  0
VERTEX
  8
ガラス
 10
58.175
 20
-38.85
 70
     8
  0
VERTEX
  8
ガラス
 10
58.125
 20
-38.85
 70
     8
  0
VERTEX
  8
ガラス
 10
58.1
 20
-38.875
 70
     8
  0
VERTEX
  8
ガラス
 10
58.075
 20
-38.875
 70
     8
  0
VERTEX
  8
ガラス
 10
58.05
 20
-38.875
 70
     8
  0
VERTEX
  8
ガラス
 10
58.025
 20
-38.875
 70
     8
  0
VERTEX
  8
ガラス
 10
58.0
 20
-38.875
 70
     8
  0
VERTEX
  8
ガラス
 10
57.975
 20
-38.875
 70
     8
  0
VERTEX
  8
ガラス
 10
57.925
 20
-38.875
 70
     8
  0
VERTEX
  8
ガラス
 10
57.9
 20
-38.9
 70
     8
  0
VERTEX
  8
ガラス
 10
57.875
 20
-38.9
 70
     8
  0
VERTEX
  8
ガラス
 10
57.85
 20
-38.9
 70
     8
  0
VERTEX
  8
ガラス
 10
57.825
 20
-38.925
 70
     8
  0
VERTEX
  8
ガラス
 10
57.8
 20
-38.925
 70
     8
  0
VERTEX
  8
ガラス
 10
57.775
 20
-38.95
 70
     8
  0
VERTEX
  8
ガラス
 10
57.75
 20
-38.975
 70
     8
  0
VERTEX
  8
ガラス
 10
57.725
 20
-38.975
 70
     8
  0
VERTEX
  8
ガラス
 10
57.725
 20
-39.0
 70
     8
  0
VERTEX
  8
ガラス
 10
57.7
 20
-39.025
 70
     8
  0
VERTEX
  8
ガラス
 10
57.675
 20
-39.025
 70
     8
  0
VERTEX
  8
ガラス
 10
57.65
 20
-39.05
 70
     8
  0
VERTEX
  8
ガラス
 10
57.625
 20
-39.075
 70
     8
  0
VERTEX
  8
ガラス
 10
57.6
 20
-39.1
 70
     8
  0
VERTEX
  8
ガラス
 10
57.575
 20
-39.125
 70
     8
  0
VERTEX
  8
ガラス
 10
57.55
 20
-39.15
 70
     8
  0
VERTEX
  8
ガラス
 10
57.55
 20
-39.15
 70
     8
  0
VERTEX
  8
ガラス
 10
57.525
 20
-39.175
 70
     8
  0
VERTEX
  8
ガラス
 10
57.5
 20
-39.2
 70
     8
  0
VERTEX
  8
ガラス
 10
57.475
 20
-39.225
 70
     8
  0
VERTEX
  8
ガラス
 10
57.45
 20
-39.25
 70
     8
  0
VERTEX
  8
ガラス
 10
57.45
 20
-39.275
 70
     8
  0
SEQEND
  0
POLYLINE
  8
ガラス
  6
CONTINUOUS
 66
     1
 70
     4
  0
VERTEX
  8
ガラス
 10
57.45
 20
-39.275
 70
     8
  0
VERTEX
  8
ガラス
 10
57.45
 20
-39.275
 70
     8
  0
VERTEX
  8
ガラス
 10
57.475
 20
-39.275
 70
     8
  0
VERTEX
  8
ガラス
 10
57.5
 20
-39.275
 70
     8
  0
VERTEX
  8
ガラス
 10
57.525
 20
-39.275
 70
     8
  0
VERTEX
  8
ガラス
 10
57.55
 20
-39.3
 70
     8
  0
VERTEX
  8
ガラス
 10
57.55
 20
-39.3
 70
     8
  0
VERTEX
  8
ガラス
 10
57.575
 20
-39.3
 70
     8
  0
VERTEX
  8
ガラス
 10
57.6
 20
-39.3
 70
     8
  0
VERTEX
  8
ガラス
 10
57.625
 20
-39.3
 70
     8
  0
VERTEX
  8
ガラス
 10
57.65
 20
-39.3
 70
     8
  0
VERTEX
  8
ガラス
 10
57.675
 20
-39.3
 70
     8
  0
VERTEX
  8
ガラス
 10
57.675
 20
-39.3
 70
     8
  0
VERTEX
  8
ガラス
 10
57.7
 20
-39.3
 70
     8
  0
VERTEX
  8
ガラス
 10
57.725
 20
-39.325
 70
     8
  0
VERTEX
  8
ガラス
 10
57.75
 20
-39.325
 70
     8
  0
VERTEX
  8
ガラス
 10
57.775
 20
-39.325
 70
     8
  0
VERTEX
  8
ガラス
 10
57.775
 20
-39.325
 70
     8
  0
VERTEX
  8
ガラス
 10
57.8
 20
-39.325
 70
     8
  0
VERTEX
  8
ガラス
 10
57.825
 20
-39.325
 70
     8
  0
VERTEX
  8
ガラス
 10
57.85
 20
-39.35
 70
     8
  0
VERTEX
  8
ガラス
 10
57.875
 20
-39.35
 70
     8
  0
VERTEX
  8
ガラス
 10
57.875
 20
-39.35
 70
     8
  0
VERTEX
  8
ガラス
 10
57.9
 20
-39.35
 70
     8
  0
VERTEX
  8
ガラス
 10
57.925
 20
-39.35
 70
     8
  0
VERTEX
  8
ガラス
 10
57.95
 20
-39.375
 70
     8
  0
VERTEX
  8
ガラス
 10
57.95
 20
-39.375
 70
     8
  0
VERTEX
  8
ガラス
 10
57.975
 20
-39.375
 70
     8
  0
VERTEX
  8
ガラス
 10
58.0
 20
-39.375
 70
     8
  0
VERTEX
  8
ガラス
 10
58.025
 20
-39.4
 70
     8
  0
VERTEX
  8
ガラス
 10
58.025
 20
-39.4
 70
     8
  0
VERTEX
  8
ガラス
 10
58.05
 20
-39.4
 70
     8
  0
VERTEX
  8
ガラス
 10
58.075
 20
-39.425
 70
     8
  0
VERTEX
  8
ガラス
 10
58.1
 20
-39.425
 70
     8
  0
VERTEX
  8
ガラス
 10
58.125
 20
-39.425
 70
     8
  0
VERTEX
  8
ガラス
 10
58.125
 20
-39.425
 70
     8
  0
VERTEX
  8
ガラス
 10
58.15
 20
-39.45
 70
     8
  0
VERTEX
  8
ガラス
 10
58.175
 20
-39.45
 70
     8
  0
VERTEX
  8
ガラス
 10
58.2
 20
-39.45
 70
     8
  0
VERTEX
  8
ガラス
 10
58.2
 20
-39.475
 70
     8
  0
VERTEX
  8
ガラス
 10
58.225
 20
-39.475
 70
     8
  0
SEQEND
  0
ARC
  8
ガラス
  6
CONTINUOUS
 10
58.360676
 20
-39.169178
 40
0.318378
 50
247.735412
 51
427.735412
  0
ENDBLK
  0
BLOCK
  2
*GRP_0021
 70
    65
 10
0.0
 20
0.0
  0
POLYLINE
  8
ガラス
  6
CONTINUOUS
 66
     1
 70
     4
  0
VERTEX
  8
ガラス
 10
63.325
 20
-39.7
 70
     8
  0
VERTEX
  8
ガラス
 10
63.3
 20
-39.7
 70
     8
  0
VERTEX
  8
ガラス
 10
63.275
 20
-39.7
 70
     8
  0
VERTEX
  8
ガラス
 10
63.25
 20
-39.7
 70
     8
  0
VERTEX
  8
ガラス
 10
63.2
 20
-39.7
 70
     8
  0
VERTEX
  8
ガラス
 10
63.175
 20
-39.7
 70
     8
  0
VERTEX
  8
ガラス
 10
63.15
 20
-39.7
 70
     8
  0
VERTEX
  8
ガラス
 10
63.125
 20
-39.7
 70
     8
  0
VERTEX
  8
ガラス
 10
63.1
 20
-39.7
 70
     8
  0
VERTEX
  8
ガラス
 10
63.05
 20
-39.7
 70
     8
  0
VERTEX
  8
ガラス
 10
63.025
 20
-39.675
 70
     8
  0
VERTEX
  8
ガラス
 10
63.0
 20
-39.675
 70
     8
  0
VERTEX
  8
ガラス
 10
62.975
 20
-39.7
 70
     8
  0
VERTEX
  8
ガラス
 10
62.95
 20
-39.7
 70
     8
  0
VERTEX
  8
ガラス
 10
62.925
 20
-39.7
 70
     8
  0
VERTEX
  8
ガラス
 10
62.875
 20
-39.7
 70
     8
  0
VERTEX
  8
ガラス
 10
62.85
 20
-39.7
 70
     8
  0
VERTEX
  8
ガラス
 10
62.825
 20
-39.7
 70
     8
  0
VERTEX
  8
ガラス
 10
62.8
 20
-39.7
 70
     8
  0
VERTEX
  8
ガラス
 10
62.775
 20
-39.725
 70
     8
  0
VERTEX
  8
ガラス
 10
62.75
 20
-39.725
 70
     8
  0
VERTEX
  8
ガラス
 10
62.725
 20
-39.725
 70
     8
  0
VERTEX
  8
ガラス
 10
62.7
 20
-39.75
 70
     8
  0
VERTEX
  8
ガラス
 10
62.675
 20
-39.75
 70
     8
  0
VERTEX
  8
ガラス
 10
62.65
 20
-39.775
 70
     8
  0
VERTEX
  8
ガラス
 10
62.625
 20
-39.8
 70
     8
  0
VERTEX
  8
ガラス
 10
62.6
 20
-39.8
 70
     8
  0
VERTEX
  8
ガラス
 10
62.575
 20
-39.825
 70
     8
  0
VERTEX
  8
ガラス
 10
62.55
 20
-39.85
 70
     8
  0
VERTEX
  8
ガラス
 10
62.525
 20
-39.85
 70
     8
  0
VERTEX
  8
ガラス
 10
62.525
 20
-39.875
 70
     8
  0
VERTEX
  8
ガラス
 10
62.5
 20
-39.9
 70
     8
  0
VERTEX
  8
ガラス
 10
62.475
 20
-39.925
 70
     8
  0
VERTEX
  8
ガラス
 10
62.45
 20
-39.95
 70
     8
  0
VERTEX
  8
ガラス
 10
62.425
 20
-39.975
 70
     8
  0
VERTEX
  8
ガラス
 10
62.4
 20
-39.975
 70
     8
  0
VERTEX
  8
ガラス
 10
62.375
 20
-40.0
 70
     8
  0
VERTEX
  8
ガラス
 10
62.375
 20
-40.025
 70
     8
  0
VERTEX
  8
ガラス
 10
62.35
 20
-40.05
 70
     8
  0
VERTEX
  8
ガラス
 10
62.325
 20
-40.075
 70
     8
  0
VERTEX
  8
ガラス
 10
62.3
 20
-40.1
 70
     8
  0
SEQEND
  0
POLYLINE
  8
ガラス
  6
CONTINUOUS
 66
     1
 70
     4
  0
VERTEX
  8
ガラス
 10
62.3
 20
-40.1
 70
     8
  0
VERTEX
  8
ガラス
 10
62.325
 20
-40.1
 70
     8
  0
VERTEX
  8
ガラス
 10
62.35
 20
-40.1
 70
     8
  0
VERTEX
  8
ガラス
 10
62.375
 20
-40.1
 70
     8
  0
VERTEX
  8
ガラス
 10
62.375
 20
-40.1
 70
     8
  0
VERTEX
  8
ガラス
 10
62.4
 20
-40.125
 70
     8
  0
VERTEX
  8
ガラス
 10
62.425
 20
-40.125
 70
     8
  0
VERTEX
  8
ガラス
 10
62.45
 20
-40.125
 70
     8
  0
VERTEX
  8
ガラス
 10
62.475
 20
-40.125
 70
     8
  0
VERTEX
  8
ガラス
 10
62.5
 20
-40.125
 70
     8
  0
VERTEX
  8
ガラス
 10
62.5
 20
-40.125
 70
     8
  0
VERTEX
  8
ガラス
 10
62.525
 20
-40.125
 70
     8
  0
VERTEX
  8
ガラス
 10
62.55
 20
-40.125
 70
     8
  0
VERTEX
  8
ガラス
 10
62.575
 20
-40.125
 70
     8
  0
VERTEX
  8
ガラス
 10
62.6
 20
-40.15
 70
     8
  0
VERTEX
  8
ガラス
 10
62.6
 20
-40.15
 70
     8
  0
VERTEX
  8
ガラス
 10
62.625
 20
-40.15
 70
     8
  0
VERTEX
  8
ガラス
 10
62.65
 20
-40.15
 70
     8
  0
VERTEX
  8
ガラス
 10
62.675
 20
-40.15
 70
     8
  0
VERTEX
  8
ガラス
 10
62.7
 20
-40.15
 70
     8
  0
VERTEX
  8
ガラス
 10
62.7
 20
-40.175
 70
     8
  0
VERTEX
  8
ガラス
 10
62.725
 20
-40.175
 70
     8
  0
VERTEX
  8
ガラス
 10
62.75
 20
-40.175
 70
     8
  0
VERTEX
  8
ガラス
 10
62.775
 20
-40.175
 70
     8
  0
VERTEX
  8
ガラス
 10
62.8
 20
-40.175
 70
     8
  0
VERTEX
  8
ガラス
 10
62.8
 20
-40.2
 70
     8
  0
VERTEX
  8
ガラス
 10
62.825
 20
-40.2
 70
     8
  0
VERTEX
  8
ガラス
 10
62.85
 20
-40.2
 70
     8
  0
VERTEX
  8
ガラス
 10
62.875
 20
-40.2
 70
     8
  0
VERTEX
  8
ガラス
 10
62.875
 20
-40.225
 70
     8
  0
VERTEX
  8
ガラス
 10
62.9
 20
-40.225
 70
     8
  0
VERTEX
  8
ガラス
 10
62.925
 20
-40.225
 70
     8
  0
VERTEX
  8
ガラス
 10
62.95
 20
-40.25
 70
     8
  0
VERTEX
  8
ガラス
 10
62.95
 20
-40.25
 70
     8
  0
VERTEX
  8
ガラス
 10
62.975
 20
-40.25
 70
     8
  0
VERTEX
  8
ガラス
 10
63.0
 20
-40.25
 70
     8
  0
VERTEX
  8
ガラス
 10
63.025
 20
-40.275
 70
     8
  0
VERTEX
  8
ガラス
 10
63.025
 20
-40.275
 70
     8
  0
VERTEX
  8
ガラス
 10
63.05
 20
-40.275
 70
     8
  0
VERTEX
  8
ガラス
 10
63.075
 20
-40.3
 70
     8
  0
VERTEX
  8
ガラス
 10
63.1
 20
-40.3
 70
     8
  0
SEQEND
  0
ARC
  8
ガラス
  6
CONTINUOUS
 10
63.226989
 20
-39.993951
 40
0.318378
 50
247.735412
 51
427.735412
  0
ENDBLK
  0
BLOCK
  2
*GRP_0022
 70
    65
 10
0.0
 20
0.0
  0
POLYLINE
  8
ガラス
  6
CONTINUOUS
 66
     1
 70
     4
  0
VERTEX
  8
ガラス
 10
50.9
 20
-30.575
 70
     8
  0
VERTEX
  8
ガラス
 10
50.9
 20
-30.55
 70
     8
  0
VERTEX
  8
ガラス
 10
50.9
 20
-30.525
 70
     8
  0
VERTEX
  8
ガラス
 10
50.9
 20
-30.5
 70
     8
  0
VERTEX
  8
ガラス
 10
50.9
 20
-30.45
 70
     8
  0
VERTEX
  8
ガラス
 10
50.9
 20
-30.425
 70
     8
  0
VERTEX
  8
ガラス
 10
50.875
 20
-30.4
 70
     8
  0
VERTEX
  8
ガラス
 10
50.875
 20
-30.375
 70
     8
  0
VERTEX
  8
ガラス
 10
50.875
 20
-30.35
 70
     8
  0
VERTEX
  8
ガラス
 10
50.875
 20
-30.3
 70
     8
  0
VERTEX
  8
ガラス
 10
50.875
 20
-30.275
 70
     8
  0
VERTEX
  8
ガラス
 10
50.875
 20
-30.25
 70
     8
  0
VERTEX
  8
ガラス
 10
50.875
 20
-30.225
 70
     8
  0
VERTEX
  8
ガラス
 10
50.875
 20
-30.2
 70
     8
  0
VERTEX
  8
ガラス
 10
50.875
 20
-30.175
 70
     8
  0
VERTEX
  8
ガラス
 10
50.875
 20
-30.125
 70
     8
  0
VERTEX
  8
ガラス
 10
50.9
 20
-30.1
 70
     8
  0
VERTEX
  8
ガラス
 10
50.9
 20
-30.075
 70
     8
  0
VERTEX
  8
ガラス
 10
50.9
 20
-30.05
 70
     8
  0
VERTEX
  8
ガラス
 10
50.9
 20
-30.025
 70
     8
  0
VERTEX
  8
ガラス
 10
50.925
 20
-30.0
 70
     8
  0
VERTEX
  8
ガラス
 10
50.925
 20
-29.975
 70
     8
  0
VERTEX
  8
ガラス
 10
50.95
 20
-29.95
 70
     8
  0
VERTEX
  8
ガラス
 10
50.95
 20
-29.925
 70
     8
  0
VERTEX
  8
ガラス
 10
50.975
 20
-29.9
 70
     8
  0
VERTEX
  8
ガラス
 10
50.975
 20
-29.875
 70
     8
  0
VERTEX
  8
ガラス
 10
51.0
 20
-29.85
 70
     8
  0
VERTEX
  8
ガラス
 10
51.025
 20
-29.825
 70
     8
  0
VERTEX
  8
ガラス
 10
51.025
 20
-29.8
 70
     8
  0
VERTEX
  8
ガラス
 10
51.05
 20
-29.775
 70
     8
  0
VERTEX
  8
ガラス
 10
51.075
 20
-29.775
 70
     8
  0
VERTEX
  8
ガラス
 10
51.1
 20
-29.75
 70
     8
  0
VERTEX
  8
ガラス
 10
51.1
 20
-29.725
 70
     8
  0
VERTEX
  8
ガラス
 10
51.125
 20
-29.7
 70
     8
  0
VERTEX
  8
ガラス
 10
51.15
 20
-29.675
 70
     8
  0
VERTEX
  8
ガラス
 10
51.175
 20
-29.65
 70
     8
  0
VERTEX
  8
ガラス
 10
51.2
 20
-29.625
 70
     8
  0
VERTEX
  8
ガラス
 10
51.225
 20
-29.625
 70
     8
  0
VERTEX
  8
ガラス
 10
51.25
 20
-29.6
 70
     8
  0
VERTEX
  8
ガラス
 10
51.275
 20
-29.575
 70
     8
  0
VERTEX
  8
ガラス
 10
51.3
 20
-29.55
 70
     8
  0
SEQEND
  0
POLYLINE
  8
ガラス
  6
CONTINUOUS
 66
     1
 70
     4
  0
VERTEX
  8
ガラス
 10
51.3
 20
-29.55
 70
     8
  0
VERTEX
  8
ガラス
 10
51.3
 20
-29.575
 70
     8
  0
VERTEX
  8
ガラス
 10
51.3
 20
-29.6
 70
     8
  0
VERTEX
  8
ガラス
 10
51.3
 20
-29.625
 70
     8
  0
VERTEX
  8
ガラス
 10
51.3
 20
-29.625
 70
     8
  0
VERTEX
  8
ガラス
 10
51.3
 20
-29.65
 70
     8
  0
VERTEX
  8
ガラス
 10
51.3
 20
-29.675
 70
     8
  0
VERTEX
  8
ガラス
 10
51.3
 20
-29.7
 70
     8
  0
VERTEX
  8
ガラス
 10
51.325
 20
-29.725
 70
     8
  0
VERTEX
  8
ガラス
 10
51.325
 20
-29.75
 70
     8
  0
VERTEX
  8
ガラス
 10
51.325
 20
-29.75
 70
     8
  0
VERTEX
  8
ガラス
 10
51.325
 20
-29.775
 70
     8
  0
VERTEX
  8
ガラス
 10
51.325
 20
-29.8
 70
     8
  0
VERTEX
  8
ガラス
 10
51.325
 20
-29.825
 70
     8
  0
VERTEX
  8
ガラス
 10
51.325
 20
-29.85
 70
     8
  0
VERTEX
  8
ガラス
 10
51.325
 20
-29.85
 70
     8
  0
VERTEX
  8
ガラス
 10
51.35
 20
-29.875
 70
     8
  0
VERTEX
  8
ガラス
 10
51.35
 20
-29.9
 70
     8
  0
VERTEX
  8
ガラス
 10
51.35
 20
-29.925
 70
     8
  0
VERTEX
  8
ガラス
 10
51.35
 20
-29.95
 70
     8
  0
VERTEX
  8
ガラス
 10
51.35
 20
-29.95
 70
     8
  0
VERTEX
  8
ガラス
 10
51.35
 20
-29.975
 70
     8
  0
VERTEX
  8
ガラス
 10
51.375
 20
-30.0
 70
     8
  0
VERTEX
  8
ガラス
 10
51.375
 20
-30.025
 70
     8
  0
VERTEX
  8
ガラス
 10
51.375
 20
-30.05
 70
     8
  0
VERTEX
  8
ガラス
 10
51.375
 20
-30.05
 70
     8
  0
VERTEX
  8
ガラス
 10
51.4
 20
-30.075
 70
     8
  0
VERTEX
  8
ガラス
 10
51.4
 20
-30.1
 70
     8
  0
VERTEX
  8
ガラス
 10
51.4
 20
-30.125
 70
     8
  0
VERTEX
  8
ガラス
 10
51.4
 20
-30.125
 70
     8
  0
VERTEX
  8
ガラス
 10
51.425
 20
-30.15
 70
     8
  0
VERTEX
  8
ガラス
 10
51.425
 20
-30.175
 70
     8
  0
VERTEX
  8
ガラス
 10
51.425
 20
-30.2
 70
     8
  0
VERTEX
  8
ガラス
 10
51.45
 20
-30.2
 70
     8
  0
VERTEX
  8
ガラス
 10
51.45
 20
-30.225
 70
     8
  0
VERTEX
  8
ガラス
 10
51.45
 20
-30.25
 70
     8
  0
VERTEX
  8
ガラス
 10
51.45
 20
-30.275
 70
     8
  0
VERTEX
  8
ガラス
 10
51.475
 20
-30.275
 70
     8
  0
VERTEX
  8
ガラス
 10
51.475
 20
-30.3
 70
     8
  0
VERTEX
  8
ガラス
 10
51.475
 20
-30.325
 70
     8
  0
VERTEX
  8
ガラス
 10
51.5
 20
-30.35
 70
     8
  0
SEQEND
  0
ARC
  8
ガラス
  6
CONTINUOUS
 10
51.211184
 20
-30.451963
 40
0.318378
 50
202.264588
 51
382.264588
  0
ENDBLK
  0
BLOCK
  2
*GRP_0023
 70
    65
 10
0.0
 20
0.0
  0
POLYLINE
  8
ガラス
  6
CONTINUOUS
 66
     1
 70
     4
  0
VERTEX
  8
ガラス
 10
50.9
 20
-35.825
 70
     8
  0
VERTEX
  8
ガラス
 10
50.9
 20
-35.8
 70
     8
  0
VERTEX
  8
ガラス
 10
50.9
 20
-35.75
 70
     8
  0
VERTEX
  8
ガラス
 10
50.9
 20
-35.725
 70
     8
  0
VERTEX
  8
ガラス
 10
50.9
 20
-35.7
 70
     8
  0
VERTEX
  8
ガラス
 10
50.9
 20
-35.675
 70
     8
  0
VERTEX
  8
ガラス
 10
50.875
 20
-35.625
 70
     8
  0
VERTEX
  8
ガラス
 10
50.875
 20
-35.6
 70
     8
  0
VERTEX
  8
ガラス
 10
50.875
 20
-35.575
 70
     8
  0
VERTEX
  8
ガラス
 10
50.875
 20
-35.55
 70
     8
  0
VERTEX
  8
ガラス
 10
50.875
 20
-35.525
 70
     8
  0
VERTEX
  8
ガラス
 10
50.875
 20
-35.475
 70
     8
  0
VERTEX
  8
ガラス
 10
50.875
 20
-35.45
 70
     8
  0
VERTEX
  8
ガラス
 10
50.875
 20
-35.425
 70
     8
  0
VERTEX
  8
ガラス
 10
50.875
 20
-35.4
 70
     8
  0
VERTEX
  8
ガラス
 10
50.875
 20
-35.375
 70
     8
  0
VERTEX
  8
ガラス
 10
50.9
 20
-35.35
 70
     8
  0
VERTEX
  8
ガラス
 10
50.9
 20
-35.325
 70
     8
  0
VERTEX
  8
ガラス
 10
50.9
 20
-35.3
 70
     8
  0
VERTEX
  8
ガラス
 10
50.9
 20
-35.25
 70
     8
  0
VERTEX
  8
ガラス
 10
50.925
 20
-35.225
 70
     8
  0
VERTEX
  8
ガラス
 10
50.925
 20
-35.2
 70
     8
  0
VERTEX
  8
ガラス
 10
50.95
 20
-35.175
 70
     8
  0
VERTEX
  8
ガラス
 10
50.95
 20
-35.15
 70
     8
  0
VERTEX
  8
ガラス
 10
50.975
 20
-35.125
 70
     8
  0
VERTEX
  8
ガラス
 10
50.975
 20
-35.1
 70
     8
  0
VERTEX
  8
ガラス
 10
51.0
 20
-35.1
 70
     8
  0
VERTEX
  8
ガラス
 10
51.025
 20
-35.075
 70
     8
  0
VERTEX
  8
ガラス
 10
51.025
 20
-35.05
 70
     8
  0
VERTEX
  8
ガラス
 10
51.05
 20
-35.025
 70
     8
  0
VERTEX
  8
ガラス
 10
51.075
 20
-35.0
 70
     8
  0
VERTEX
  8
ガラス
 10
51.1
 20
-34.975
 70
     8
  0
VERTEX
  8
ガラス
 10
51.1
 20
-34.95
 70
     8
  0
VERTEX
  8
ガラス
 10
51.125
 20
-34.925
 70
     8
  0
VERTEX
  8
ガラス
 10
51.15
 20
-34.925
 70
     8
  0
VERTEX
  8
ガラス
 10
51.175
 20
-34.9
 70
     8
  0
VERTEX
  8
ガラス
 10
51.2
 20
-34.875
 70
     8
  0
VERTEX
  8
ガラス
 10
51.225
 20
-34.85
 70
     8
  0
VERTEX
  8
ガラス
 10
51.25
 20
-34.825
 70
     8
  0
VERTEX
  8
ガラス
 10
51.275
 20
-34.8
 70
     8
  0
VERTEX
  8
ガラス
 10
51.3
 20
-34.8
 70
     8
  0
SEQEND
  0
POLYLINE
  8
ガラス
  6
CONTINUOUS
 66
     1
 70
     4
  0
VERTEX
  8
ガラス
 10
51.3
 20
-34.8
 70
     8
  0
VERTEX
  8
ガラス
 10
51.3
 20
-34.8
 70
     8
  0
VERTEX
  8
ガラス
 10
51.3
 20
-34.825
 70
     8
  0
VERTEX
  8
ガラス
 10
51.3
 20
-34.85
 70
     8
  0
VERTEX
  8
ガラス
 10
51.3
 20
-34.875
 70
     8
  0
VERTEX
  8
ガラス
 10
51.3
 20
-34.9
 70
     8
  0
VERTEX
  8
ガラス
 10
51.3
 20
-34.925
 70
     8
  0
VERTEX
  8
ガラス
 10
51.3
 20
-34.925
 70
     8
  0
VERTEX
  8
ガラス
 10
51.325
 20
-34.95
 70
     8
  0
VERTEX
  8
ガラス
 10
51.325
 20
-34.975
 70
     8
  0
VERTEX
  8
ガラス
 10
51.325
 20
-35.0
 70
     8
  0
VERTEX
  8
ガラス
 10
51.325
 20
-35.025
 70
     8
  0
VERTEX
  8
ガラス
 10
51.325
 20
-35.025
 70
     8
  0
VERTEX
  8
ガラス
 10
51.325
 20
-35.05
 70
     8
  0
VERTEX
  8
ガラス
 10
51.325
 20
-35.075
 70
     8
  0
VERTEX
  8
ガラス
 10
51.325
 20
-35.1
 70
     8
  0
VERTEX
  8
ガラス
 10
51.35
 20
-35.125
 70
     8
  0
VERTEX
  8
ガラス
 10
51.35
 20
-35.125
 70
     8
  0
VERTEX
  8
ガラス
 10
51.35
 20
-35.15
 70
     8
  0
VERTEX
  8
ガラス
 10
51.35
 20
-35.175
 70
     8
  0
VERTEX
  8
ガラス
 10
51.35
 20
-35.2
 70
     8
  0
VERTEX
  8
ガラス
 10
51.35
 20
-35.225
 70
     8
  0
VERTEX
  8
ガラス
 10
51.375
 20
-35.225
 70
     8
  0
VERTEX
  8
ガラス
 10
51.375
 20
-35.25
 70
     8
  0
VERTEX
  8
ガラス
 10
51.375
 20
-35.275
 70
     8
  0
VERTEX
  8
ガラス
 10
51.375
 20
-35.3
 70
     8
  0
VERTEX
  8
ガラス
 10
51.4
 20
-35.3
 70
     8
  0
VERTEX
  8
ガラス
 10
51.4
 20
-35.325
 70
     8
  0
VERTEX
  8
ガラス
 10
51.4
 20
-35.35
 70
     8
  0
VERTEX
  8
ガラス
 10
51.4
 20
-35.375
 70
     8
  0
VERTEX
  8
ガラス
 10
51.425
 20
-35.4
 70
     8
  0
VERTEX
  8
ガラス
 10
51.425
 20
-35.4
 70
     8
  0
VERTEX
  8
ガラス
 10
51.425
 20
-35.425
 70
     8
  0
VERTEX
  8
ガラス
 10
51.45
 20
-35.45
 70
     8
  0
VERTEX
  8
ガラス
 10
51.45
 20
-35.475
 70
     8
  0
VERTEX
  8
ガラス
 10
51.45
 20
-35.475
 70
     8
  0
VERTEX
  8
ガラス
 10
51.45
 20
-35.5
 70
     8
  0
VERTEX
  8
ガラス
 10
51.475
 20
-35.525
 70
     8
  0
VERTEX
  8
ガラス
 10
51.475
 20
-35.55
 70
     8
  0
VERTEX
  8
ガラス
 10
51.475
 20
-35.55
 70
     8
  0
VERTEX
  8
ガラス
 10
51.5
 20
-35.575
 70
     8
  0
SEQEND
  0
ARC
  8
ガラス
  6
CONTINUOUS
 10
51.211184
 20
-35.687368
 40
0.318378
 50
202.264588
 51
382.264588
  0
ENDBLK
  0
BLOCK
  2
*GRP_0024
 70
    65
 10
0.0
 20
0.0
  0
LINE
  8
ゴム等
  6
CONTINUOUS
 10
-64.417468
 20
-27.940387
 11
-61.084135
 21
-27.940387
  0
LINE
  8
ゴム等
  6
CONTINUOUS
 10
-61.084135
 20
-27.940387
 11
-61.084135
 21
-29.607055
  0
LINE
  8
ゴム等
  6
CONTINUOUS
 10
-61.084135
 20
-29.607055
 11
-64.417468
 21
-29.607055
  0
LINE
  8
ゴム等
  6
CONTINUOUS
 10
-64.417468
 20
-27.940387
 11
-64.417468
 21
-29.607055
  0
INSERT
  2
*HAT_0001
  8
ゴム等
 10
0.0
 20
0.0
  0
ENDBLK
  0
BLOCK
  2
*GRP_0025
 70
    65
 10
0.0
 20
0.0
  0
LINE
  8
ゴム等
  6
CONTINUOUS
 10
55.553008
 20
-27.940387
 11
52.219675
 21
-27.940387
  0
LINE
  8
ゴム等
  6
CONTINUOUS
 10
52.219675
 20
-27.940387
 11
52.219675
 21
-29.607055
  0
LINE
  8
ゴム等
  6
CONTINUOUS
 10
52.219675
 20
-29.607055
 11
55.553008
 21
-29.607055
  0
LINE
  8
ゴム等
  6
CONTINUOUS
 10
55.553008
 20
-27.940387
 11
55.553008
 21
-29.607055
  0
INSERT
  2
*HAT_0002
  8
ゴム等
 10
0.0
 20
0.0
  0
ENDBLK
  0
BLOCK
  2
*GRP_0026
 70
    65
 10
0.0
 20
0.0
  0
LINE
  8
ゴム等
  6
CONTINUOUS
 10
49.453095
 20
-23.60714
 11
49.453095
 21
-25.673808
  0
LINE
  8
ゴム等
  6
CONTINUOUS
 10
49.453095
 20
-25.673808
 11
52.786427
 21
-25.673808
  0
LINE
  8
ゴム等
  6
CONTINUOUS
 10
52.786427
 20
-25.673808
 11
52.786427
 21
-23.60714
  0
LINE
  8
ゴム等
  6
CONTINUOUS
 10
49.453095
 20
-23.60714
 11
52.786427
 21
-23.60714
  0
INSERT
  2
*HAT_0003
  8
ゴム等
 10
0.0
 20
0.0
  0
ENDBLK
  0
BLOCK
  2
*GRP_0027
 70
    65
 10
0.0
 20
0.0
  0
LINE
  8
ゴム等
  6
CONTINUOUS
 10
-10.265572
 20
-27.940402
 11
-13.598905
 21
-27.940402
  0
LINE
  8
ゴム等
  6
CONTINUOUS
 10
-13.598905
 20
-27.940402
 11
-13.598905
 21
-29.60707
  0
LINE
  8
ゴム等
  6
CONTINUOUS
 10
-13.598905
 20
-29.60707
 11
-10.265572
 21
-29.60707
  0
LINE
  8
ゴム等
  6
CONTINUOUS
 10
-10.265572
 20
-27.940402
 11
-10.265572
 21
-29.60707
  0
INSERT
  2
*HAT_0004
  8
ゴム等
 10
0.0
 20
0.0
  0
ENDBLK
  0
BLOCK
  2
*GRP_0028
 70
    65
 10
0.0
 20
0.0
  0
LINE
  8
ゴム等
  6
DOT
 10
-15.798895
 20
-23.60707
 11
-15.798895
 21
-25.673737
  0
LINE
  8
ゴム等
  6
DOT
 10
-15.798895
 20
-25.673737
 11
-12.465563
 21
-25.673737
  0
LINE
  8
ゴム等
  6
DOT
 10
-12.465563
 20
-25.673737
 11
-12.465563
 21
-23.60707
  0
LINE
  8
ゴム等
  6
DOT
 10
-15.798895
 20
-23.60707
 11
-12.465563
 21
-23.60707
  0
INSERT
  2
*HAT_0005
  8
ゴム等
 10
0.0
 20
0.0
  0
ENDBLK
  0
BLOCK
  2
*GRP_0029
 70
    65
 10
0.0
 20
0.0
  0
LINE
  8
ゴム等
  6
DOT
 10
6.934435
 20
-23.60707
 11
6.934435
 21
-25.673737
  0
LINE
  8
ゴム等
  6
DOT
 10
6.934435
 20
-25.673737
 11
3.601102
 21
-25.673737
  0
LINE
  8
ゴム等
  6
DOT
 10
3.601102
 20
-25.673737
 11
3.601102
 21
-23.60707
  0
LINE
  8
ゴム等
  6
DOT
 10
6.934435
 20
-23.60707
 11
3.601102
 21
-23.60707
  0
INSERT
  2
*HAT_0006
  8
ゴム等
 10
0.0
 20
0.0
  0
ENDBLK
  0
BLOCK
  2
*GRP_0030
 70
    65
 10
0.0
 20
0.0
  0
LINE
  8
ゴム等
  6
CONTINUOUS
 10
1.401113
 20
-27.940402
 11
4.734445
 21
-27.940402
  0
LINE
  8
ゴム等
  6
CONTINUOUS
 10
4.734445
 20
-27.940402
 11
4.734445
 21
-29.60707
  0
LINE
  8
ゴム等
  6
CONTINUOUS
 10
4.734445
 20
-29.60707
 11
1.401113
 21
-29.60707
  0
LINE
  8
ゴム等
  6
CONTINUOUS
 10
1.401113
 20
-27.940402
 11
1.401113
 21
-29.60707
  0
INSERT
  2
*HAT_0007
  8
ゴム等
 10
0.0
 20
0.0
  0
ENDBLK
  0
BLOCK
  2
*GRP_0031
 70
    65
 10
0.0
 20
0.0
  0
LINE
  8
ボルト／ビス
  6
CONTINUOUS
 62
    64
 10
-93.88421
 20
-51.26689
 11
-94.233598
 21
-51.297458
  0
ARC
  8
ボルト／ビス
  6
CONTINUOUS
 62
    64
 10
-94.18421
 20
-51.861968
 40
0.566667
 50
94.999989
 51
180.0
  0
LINE
  8
ボルト／ビス
  6
CONTINUOUS
 62
    64
 10
-94.750878
 20
-51.861967
 11
-94.750878
 21
-52.433558
  0
LINE
  8
ボルト／ビス
  6
CONTINUOUS
 62
    64
 10
-93.88421
 20
-53.600225
 11
-94.233598
 21
-53.569657
  0
ARC
  8
ボルト／ビス
  6
CONTINUOUS
 62
    64
 10
-94.18421
 20
-53.005146
 40
0.566667
 50
180.0
 51
265.000011
  0
LINE
  8
ボルト／ビス
  6
CONTINUOUS
 62
    64
 10
-94.750878
 20
-53.005148
 11
-94.750878
 21
-52.433558
  0
LINE
  8
ボルト／ビス
  6
CONTINUOUS
 62
    64
 10
-94.622575
 20
-51.634677
 11
-94.703295
 21
-51.634677
  0
LINE
  8
ボルト／ビス
  6
CONTINUOUS
 62
    64
 10
-94.40588
 20
-52.200225
 11
-94.40588
 21
-52.433558
  0
LINE
  8
ボルト／ビス
  6
CONTINUOUS
 62
    64
 10
-94.622575
 20
-52.06689
 11
-94.622575
 21
-51.634677
  0
LINE
  8
ボルト／ビス
  6
CONTINUOUS
 62
    64
 10
-94.40588
 20
-52.200225
 11
-94.489243
 21
-52.200225
  0
ARC
  8
ボルト／ビス
  6
CONTINUOUS
 62
    64
 10
-94.489242
 20
-52.066891
 40
0.133333
 50
180.0
 51
270.0
  0
LINE
  8
ボルト／ビス
  6
CONTINUOUS
 62
    64
 10
-94.622575
 20
-53.232438
 11
-94.703295
 21
-53.232438
  0
LINE
  8
ボルト／ビス
  6
CONTINUOUS
 62
    64
 10
-94.40588
 20
-52.66689
 11
-94.40588
 21
-52.433558
  0
LINE
  8
ボルト／ビス
  6
CONTINUOUS
 62
    64
 10
-94.622575
 20
-52.800225
 11
-94.622575
 21
-53.232438
  0
LINE
  8
ボルト／ビス
  6
CONTINUOUS
 62
    64
 10
-94.40588
 20
-52.66689
 11
-94.489243
 21
-52.66689
  0
ARC
  8
ボルト／ビス
  6
CONTINUOUS
 62
    64
 10
-94.489242
 20
-52.800224
 40
0.133333
 50
90.0
 51
180.0
  0
LINE
  8
ボルト／ビス
  6
CONTINUOUS
 62
    64
 10
-93.88421
 20
-51.26689
 11
-93.88421
 21
-53.600225
  0
LINE
  8
ボルト／ビス
  6
CONTINUOUS
 62
    64
 10
-90.717543
 20
-51.76689
 11
-90.550878
 21
-51.933558
  0
LINE
  8
ボルト／ビス
  6
CONTINUOUS
 62
    64
 10
-90.717543
 20
-53.100225
 11
-90.550878
 21
-52.933558
  0
LINE
  8
ボルト／ビス
  6
CONTINUOUS
 62
    64
 10
-90.717543
 20
-51.76689
 11
-90.717543
 21
-53.100225
  0
LINE
  8
ボルト／ビス
  6
CONTINUOUS
 62
    64
 10
-90.550878
 20
-51.933558
 11
-90.550878
 21
-52.933558
  0
LINE
  8
ボルト／ビス
  6
CONTINUOUS
 62
    64
 10
-95.408005
 20
-52.433558
 11
-90.02592
 21
-52.433558
  0
LINE
  8
ボルト／ビス
  6
CONTINUOUS
 62
    64
 10
-93.88421
 20
-51.76689
 11
-90.717543
 21
-51.76689
  0
LINE
  8
ボルト／ビス
  6
CONTINUOUS
 62
    64
 10
-93.88421
 20
-53.100225
 11
-90.717543
 21
-53.100225
  0
LINE
  8
ボルト／ビス
  6
CONTINUOUS
 62
    64
 10
-93.88421
 20
-52.933558
 11
-90.550878
 21
-52.933558
  0
LINE
  8
ボルト／ビス
  6
CONTINUOUS
 62
    64
 10
-93.88421
 20
-51.933558
 11
-90.550878
 21
-51.933558
  0
ENDBLK
  0
BLOCK
  2
*GRP_0032
 70
    65
 10
0.0
 20
0.0
  0
LINE
  8
ボルト／ビス
  6
CONTINUOUS
 62
    64
 10
85.01975
 20
-51.26689
 11
85.369138
 21
-51.297458
  0
ARC
  8
ボルト／ビス
  6
CONTINUOUS
 62
    64
 10
85.31975
 20
-51.861968
 40
0.566667
 50
0.0
 51
85.000011
  0
LINE
  8
ボルト／ビス
  6
CONTINUOUS
 62
    64
 10
85.886418
 20
-51.861967
 11
85.886418
 21
-52.433558
  0
LINE
  8
ボルト／ビス
  6
CONTINUOUS
 62
    64
 10
85.01975
 20
-53.600225
 11
85.369138
 21
-53.569657
  0
ARC
  8
ボルト／ビス
  6
CONTINUOUS
 62
    64
 10
85.31975
 20
-53.005146
 40
0.566667
 50
274.999989
 51
360.0
  0
LINE
  8
ボルト／ビス
  6
CONTINUOUS
 62
    64
 10
85.886418
 20
-53.005148
 11
85.886418
 21
-52.433558
  0
LINE
  8
ボルト／ビス
  6
CONTINUOUS
 62
    64
 10
85.758115
 20
-51.634677
 11
85.838835
 21
-51.634677
  0
LINE
  8
ボルト／ビス
  6
CONTINUOUS
 62
    64
 10
85.54142
 20
-52.200225
 11
85.54142
 21
-52.433558
  0
LINE
  8
ボルト／ビス
  6
CONTINUOUS
 62
    64
 10
85.758115
 20
-52.06689
 11
85.758115
 21
-51.634677
  0
LINE
  8
ボルト／ビス
  6
CONTINUOUS
 62
    64
 10
85.54142
 20
-52.200225
 11
85.624783
 21
-52.200225
  0
ARC
  8
ボルト／ビス
  6
CONTINUOUS
 62
    64
 10
85.624782
 20
-52.066891
 40
0.133333
 50
270.0
 51
360.0
  0
LINE
  8
ボルト／ビス
  6
CONTINUOUS
 62
    64
 10
85.758115
 20
-53.232438
 11
85.838835
 21
-53.232438
  0
LINE
  8
ボルト／ビス
  6
CONTINUOUS
 62
    64
 10
85.54142
 20
-52.66689
 11
85.54142
 21
-52.433558
  0
LINE
  8
ボルト／ビス
  6
CONTINUOUS
 62
    64
 10
85.758115
 20
-52.800225
 11
85.758115
 21
-53.232438
  0
LINE
  8
ボルト／ビス
  6
CONTINUOUS
 62
    64
 10
85.54142
 20
-52.66689
 11
85.624783
 21
-52.66689
  0
ARC
  8
ボルト／ビス
  6
CONTINUOUS
 62
    64
 10
85.624782
 20
-52.800224
 40
0.133333
 50
0.0
 51
90.0
  0
LINE
  8
ボルト／ビス
  6
CONTINUOUS
 62
    64
 10
85.01975
 20
-51.26689
 11
85.01975
 21
-53.600225
  0
LINE
  8
ボルト／ビス
  6
CONTINUOUS
 62
    64
 10
81.853082
 20
-51.76689
 11
81.686418
 21
-51.933558
  0
LINE
  8
ボルト／ビス
  6
CONTINUOUS
 62
    64
 10
81.853082
 20
-53.100225
 11
81.686418
 21
-52.933558
  0
LINE
  8
ボルト／ビス
  6
CONTINUOUS
 62
    64
 10
81.853082
 20
-51.76689
 11
81.853082
 21
-53.100225
  0
LINE
  8
ボルト／ビス
  6
CONTINUOUS
 62
    64
 10
81.686418
 20
-51.933558
 11
81.686418
 21
-52.933558
  0
LINE
  8
ボルト／ビス
  6
CONTINUOUS
 62
    64
 10
86.543545
 20
-52.433558
 11
81.16146
 21
-52.433558
  0
LINE
  8
ボルト／ビス
  6
CONTINUOUS
 62
    64
 10
85.01975
 20
-51.76689
 11
81.853082
 21
-51.76689
  0
LINE
  8
ボルト／ビス
  6
CONTINUOUS
 62
    64
 10
85.01975
 20
-53.100225
 11
81.853082
 21
-53.100225
  0
LINE
  8
ボルト／ビス
  6
CONTINUOUS
 62
    64
 10
85.01975
 20
-52.933558
 11
81.686418
 21
-52.933558
  0
LINE
  8
ボルト／ビス
  6
CONTINUOUS
 62
    64
 10
85.01975
 20
-51.933558
 11
81.686418
 21
-51.933558
  0
ENDBLK
  0
BLOCK
  2
*GRP_0033
 70
    65
 10
0.0
 20
0.0
  0
LINE
  8
ボルト／ビス
  6
DOT
 62
    64
 10
-69.017468
 20
-33.007065
 11
-68.117468
 21
-32.27373
  0
LINE
  8
ボルト／ビス
  6
DOT
 62
    64
 10
-69.017468
 20
-30.207065
 11
-68.117468
 21
-30.940398
  0
LINE
  8
ボルト／ビス
  6
DOT
 62
    64
 10
-69.017468
 20
-30.207065
 11
-69.017468
 21
-33.007065
  0
LINE
  8
ボルト／ビス
  6
DOT
 62
    64
 10
-68.117468
 20
-30.940398
 11
-68.117468
 21
-32.27373
  0
LINE
  8
ボルト／ビス
  6
DOT
 62
    64
 10
-70.42349
 20
-31.607065
 11
-50.684657
 21
-31.607065
  0
LINE
  8
ボルト／ビス
  6
DOT
 62
    64
 10
-52.517468
 20
-30.940398
 11
-52.3508
 21
-31.107065
  0
LINE
  8
ボルト／ビス
  6
DOT
 62
    64
 10
-52.517468
 20
-32.27373
 11
-52.3508
 21
-32.107065
  0
LINE
  8
ボルト／ビス
  6
DOT
 62
    64
 10
-52.3508
 20
-32.107065
 11
-52.3508
 21
-31.107065
  0
LINE
  8
ボルト／ビス
  6
DOT
 62
    64
 10
-52.517468
 20
-32.27373
 11
-52.517468
 21
-30.940398
  0
LINE
  8
ボルト／ビス
  6
DOT
 62
    64
 10
-68.117468
 20
-31.107065
 11
-52.3508
 21
-31.107065
  0
LINE
  8
ボルト／ビス
  6
DOT
 62
    64
 10
-68.117468
 20
-32.107065
 11
-52.3508
 21
-32.107065
  0
LINE
  8
ボルト／ビス
  6
DOT
 62
    64
 10
-68.117468
 20
-30.940398
 11
-52.517468
 21
-30.940398
  0
LINE
  8
ボルト／ビス
  6
DOT
 62
    64
 10
-68.117468
 20
-32.27373
 11
-52.517468
 21
-32.27373
  0
ENDBLK
  0
BLOCK
  2
*GRP_0034
 70
    65
 10
0.0
 20
0.0
  0
LINE
  8
ボルト／ビス
  6
DOT
 62
    64
 10
60.153008
 20
-33.007065
 11
59.253008
 21
-32.27373
  0
LINE
  8
ボルト／ビス
  6
DOT
 62
    64
 10
60.153008
 20
-30.207065
 11
59.253008
 21
-30.940398
  0
LINE
  8
ボルト／ビス
  6
DOT
 62
    64
 10
60.153008
 20
-30.207065
 11
60.153008
 21
-33.007065
  0
LINE
  8
ボルト／ビス
  6
DOT
 62
    64
 10
59.253008
 20
-30.940398
 11
59.253008
 21
-32.27373
  0
LINE
  8
ボルト／ビス
  6
DOT
 62
    64
 10
61.55903
 20
-31.607065
 11
41.820197
 21
-31.607065
  0
LINE
  8
ボルト／ビス
  6
DOT
 62
    64
 10
43.653008
 20
-30.940398
 11
43.48634
 21
-31.107065
  0
LINE
  8
ボルト／ビス
  6
DOT
 62
    64
 10
43.653008
 20
-32.27373
 11
43.48634
 21
-32.107065
  0
LINE
  8
ボルト／ビス
  6
DOT
 62
    64
 10
43.48634
 20
-32.107065
 11
43.48634
 21
-31.107065
  0
LINE
  8
ボルト／ビス
  6
DOT
 62
    64
 10
43.653008
 20
-32.27373
 11
43.653008
 21
-30.940398
  0
LINE
  8
ボルト／ビス
  6
DOT
 62
    64
 10
59.253008
 20
-31.107065
 11
43.48634
 21
-31.107065
  0
LINE
  8
ボルト／ビス
  6
DOT
 62
    64
 10
59.253008
 20
-32.107065
 11
43.48634
 21
-32.107065
  0
LINE
  8
ボルト／ビス
  6
DOT
 62
    64
 10
59.253008
 20
-30.940398
 11
43.653008
 21
-30.940398
  0
LINE
  8
ボルト／ビス
  6
DOT
 62
    64
 10
59.253008
 20
-32.27373
 11
43.653008
 21
-32.27373
  0
ENDBLK
  0
BLOCK
  2
*GRP_0035
 70
    65
 10
0.0
 20
0.0
  0
POLYLINE
  8
ボルト／ビス
  6
CONTINUOUS
 62
    64
 66
     1
  0
VERTEX
  8
ボルト／ビス
 10
55.985602
 20
-51.67372
  0
VERTEX
  8
ボルト／ビス
 10
55.981603
 20
-51.690045
  0
VERTEX
  8
ボルト／ビス
 10
55.969602
 20
-51.70622
  0
VERTEX
  8
ボルト／ビス
 10
55.949725
 20
-51.7221
  0
VERTEX
  8
ボルト／ビス
 10
55.922172
 20
-51.7375
  0
VERTEX
  8
ボルト／ビス
 10
55.887203
 20
-51.752272
  0
VERTEX
  8
ボルト／ビス
 10
55.845175
 20
-51.7663
  0
VERTEX
  8
ボルト／ビス
 10
55.796445
 20
-51.779445
  0
VERTEX
  8
ボルト／ビス
 10
55.741525
 20
-51.791572
  0
VERTEX
  8
ボルト／ビス
 10
55.680925
 20
-51.802545
  0
VERTEX
  8
ボルト／ビス
 10
55.615245
 20
-51.8123
  0
VERTEX
  8
ボルト／ビス
 10
55.545103
 20
-51.8207
  0
VERTEX
  8
ボルト／ビス
 10
55.471185
 20
-51.8277
  0
VERTEX
  8
ボルト／ビス
 10
55.394175
 20
-51.8332
  0
VERTEX
  8
ボルト／ビス
 10
55.314862
 20
-51.837172
  0
VERTEX
  8
ボルト／ビス
 10
55.233945
 20
-51.839573
  0
VERTEX
  8
ボルト／ビス
 10
55.152285
 20
-51.840373
  0
VERTEX
  8
ボルト／ビス
 10
55.070605
 20
-51.839573
  0
VERTEX
  8
ボルト／ビス
 10
54.989705
 20
-51.837172
  0
VERTEX
  8
ボルト／ビス
 10
54.910385
 20
-51.8332
  0
VERTEX
  8
ボルト／ビス
 10
54.833385
 20
-51.8277
  0
VERTEX
  8
ボルト／ビス
 10
54.759462
 20
-51.8207
  0
VERTEX
  8
ボルト／ビス
 10
54.689305
 20
-51.8123
  0
VERTEX
  8
ボルト／ビス
 10
54.623632
 20
-51.802545
  0
VERTEX
  8
ボルト／ビス
 10
54.563033
 20
-51.791572
  0
VERTEX
  8
ボルト／ビス
 10
54.508105
 20
-51.779445
  0
VERTEX
  8
ボルト／ビス
 10
54.459385
 20
-51.7663
  0
VERTEX
  8
ボルト／ビス
 10
54.417362
 20
-51.752272
  0
VERTEX
  8
ボルト／ビス
 10
54.382385
 20
-51.7375
  0
VERTEX
  8
ボルト／ビス
 10
54.354835
 20
-51.7221
  0
VERTEX
  8
ボルト／ビス
 10
54.334963
 20
-51.70622
  0
VERTEX
  8
ボルト／ビス
 10
54.322945
 20
-51.690045
  0
VERTEX
  8
ボルト／ビス
 10
54.318963
 20
-51.67372
  0
SEQEND
  0
LINE
  8
ボルト／ビス
  6
CONTINUOUS
 62
    64
 10
55.985602
 20
-51.67372
 11
56.152275
 21
-51.23098
  0
LINE
  8
ボルト／ビス
  6
CONTINUOUS
 62
    64
 10
54.322945
 20
-51.690045
 11
54.152285
 21
-51.23098
  0
LINE
  8
ボルト／ビス
  6
CONTINUOUS
 62
    64
 10
54.152285
 20
-51.007045
 11
54.152285
 21
-51.23098
  0
LINE
  8
ボルト／ビス
  6
CONTINUOUS
 62
    64
 10
56.152275
 20
-51.007045
 11
56.152275
 21
-51.23098
  0
ARC
  8
ボルト／ビス
  6
CONTINUOUS
 62
    64
 10
55.152279
 20
-51.563727
 40
0.033333
 50
9.840875
 51
170.159125
  0
LINE
  8
ボルト／ビス
  6
CONTINUOUS
 62
    64
 10
55.220472
 20
-51.76182
 11
55.545103
 21
-51.8207
  0
LINE
  8
ボルト／ビス
  6
CONTINUOUS
 62
    64
 10
55.084085
 20
-51.76182
 11
54.759462
 21
-51.8207
  0
LINE
  8
ボルト／ビス
  6
CONTINUOUS
 62
    64
 10
55.185132
 20
-51.55802
 11
55.220472
 21
-51.76182
  0
LINE
  8
ボルト／ビス
  6
CONTINUOUS
 62
    64
 10
55.119425
 20
-51.55802
 11
55.084085
 21
-51.76182
  0
LINE
  8
ボルト／ビス
  6
CONTINUOUS
 62
    64
 10
56.152275
 20
-51.007045
 11
54.152285
 21
-51.007045
  0
LINE
  8
ボルト／ビス
  6
CONTINUOUS
 62
    64
 10
55.818945
 20
-48.17374
 11
55.652275
 21
-48.007065
  0
LINE
  8
ボルト／ビス
  6
CONTINUOUS
 62
    64
 10
54.652285
 20
-48.007065
 11
54.485605
 21
-48.17374
  0
LINE
  8
ボルト／ビス
  6
CONTINUOUS
 62
    64
 10
54.652285
 20
-51.007045
 11
54.652285
 21
-48.007065
  0
LINE
  8
ボルト／ビス
  6
CONTINUOUS
 62
    64
 10
54.652285
 20
-48.007065
 11
55.652275
 21
-48.007065
  0
LINE
  8
ボルト／ビス
  6
CONTINUOUS
 62
    64
 10
55.652275
 20
-51.007045
 11
55.652275
 21
-48.007065
  0
LINE
  8
ボルト／ビス
  6
CONTINUOUS
 62
    64
 10
55.818945
 20
-51.007045
 11
55.818945
 21
-48.17374
  0
LINE
  8
ボルト／ビス
  6
CONTINUOUS
 62
    64
 10
55.818945
 20
-48.17374
 11
54.485605
 21
-48.17374
  0
LINE
  8
ボルト／ビス
  6
CONTINUOUS
 62
    64
 10
54.485605
 20
-51.007045
 11
54.485605
 21
-48.17374
  0
LINE
  8
ボルト／ビス
  6
CONTINUOUS
 62
    64
 10
55.152285
 20
-53.309965
 11
55.152285
 21
-47.421393
  0
ENDBLK
  0
BLOCK
  2
*GRP_0036
 70
    65
 10
0.0
 20
0.0
  0
POLYLINE
  8
ボルト／ビス
  6
CONTINUOUS
 62
    64
 66
     1
  0
VERTEX
  8
ボルト／ビス
 10
82.986335
 20
-51.67372
  0
VERTEX
  8
ボルト／ビス
 10
82.982332
 20
-51.690045
  0
VERTEX
  8
ボルト／ビス
 10
82.970333
 20
-51.70622
  0
VERTEX
  8
ボルト／ビス
 10
82.950462
 20
-51.7221
  0
VERTEX
  8
ボルト／ビス
 10
82.922905
 20
-51.7375
  0
VERTEX
  8
ボルト／ビス
 10
82.887935
 20
-51.752272
  0
VERTEX
  8
ボルト／ビス
 10
82.845905
 20
-51.7663
  0
VERTEX
  8
ボルト／ビス
 10
82.797183
 20
-51.779445
  0
VERTEX
  8
ボルト／ビス
 10
82.742262
 20
-51.791572
  0
VERTEX
  8
ボルト／ビス
 10
82.681662
 20
-51.802545
  0
VERTEX
  8
ボルト／ビス
 10
82.615983
 20
-51.8123
  0
VERTEX
  8
ボルト／ビス
 10
82.545832
 20
-51.8207
  0
VERTEX
  8
ボルト／ビス
 10
82.471923
 20
-51.8277
  0
VERTEX
  8
ボルト／ビス
 10
82.394905
 20
-51.8332
  0
VERTEX
  8
ボルト／ビス
 10
82.315592
 20
-51.837172
  0
VERTEX
  8
ボルト／ビス
 10
82.234683
 20
-51.839573
  0
VERTEX
  8
ボルト／ビス
 10
82.153023
 20
-51.840373
  0
VERTEX
  8
ボルト／ビス
 10
82.071342
 20
-51.839573
  0
VERTEX
  8
ボルト／ビス
 10
81.990443
 20
-51.837172
  0
VERTEX
  8
ボルト／ビス
 10
81.911123
 20
-51.8332
  0
VERTEX
  8
ボルト／ビス
 10
81.834123
 20
-51.8277
  0
VERTEX
  8
ボルト／ビス
 10
81.760193
 20
-51.8207
  0
VERTEX
  8
ボルト／ビス
 10
81.690042
 20
-51.8123
  0
VERTEX
  8
ボルト／ビス
 10
81.624365
 20
-51.802545
  0
VERTEX
  8
ボルト／ビス
 10
81.563765
 20
-51.791572
  0
VERTEX
  8
ボルト／ビス
 10
81.508842
 20
-51.779445
  0
VERTEX
  8
ボルト／ビス
 10
81.460123
 20
-51.7663
  0
VERTEX
  8
ボルト／ビス
 10
81.418095
 20
-51.752272
  0
VERTEX
  8
ボルト／ビス
 10
81.383122
 20
-51.7375
  0
VERTEX
  8
ボルト／ビス
 10
81.355565
 20
-51.7221
  0
VERTEX
  8
ボルト／ビス
 10
81.335693
 20
-51.70622
  0
VERTEX
  8
ボルト／ビス
 10
81.323682
 20
-51.690045
  0
VERTEX
  8
ボルト／ビス
 10
81.319695
 20
-51.67372
  0
SEQEND
  0
LINE
  8
ボルト／ビス
  6
CONTINUOUS
 62
    64
 10
82.986335
 20
-51.67372
 11
83.153005
 21
-51.23098
  0
LINE
  8
ボルト／ビス
  6
CONTINUOUS
 62
    64
 10
81.323682
 20
-51.690045
 11
81.153023
 21
-51.23098
  0
LINE
  8
ボルト／ビス
  6
CONTINUOUS
 62
    64
 10
81.153023
 20
-51.007045
 11
81.153023
 21
-51.23098
  0
LINE
  8
ボルト／ビス
  6
CONTINUOUS
 62
    64
 10
83.153005
 20
-51.007045
 11
83.153005
 21
-51.23098
  0
ARC
  8
ボルト／ビス
  6
CONTINUOUS
 62
    64
 10
82.153014
 20
-51.563727
 40
0.033333
 50
9.840875
 51
170.159125
  0
LINE
  8
ボルト／ビス
  6
CONTINUOUS
 62
    64
 10
82.221205
 20
-51.76182
 11
82.545832
 21
-51.8207
  0
LINE
  8
ボルト／ビス
  6
CONTINUOUS
 62
    64
 10
82.084822
 20
-51.76182
 11
81.760193
 21
-51.8207
  0
LINE
  8
ボルト／ビス
  6
CONTINUOUS
 62
    64
 10
82.185865
 20
-51.55802
 11
82.221205
 21
-51.76182
  0
LINE
  8
ボルト／ビス
  6
CONTINUOUS
 62
    64
 10
82.120162
 20
-51.55802
 11
82.084822
 21
-51.76182
  0
LINE
  8
ボルト／ビス
  6
CONTINUOUS
 62
    64
 10
83.153005
 20
-51.007045
 11
81.153023
 21
-51.007045
  0
LINE
  8
ボルト／ビス
  6
CONTINUOUS
 62
    64
 10
82.819683
 20
-48.17374
 11
82.653005
 21
-48.007065
  0
LINE
  8
ボルト／ビス
  6
CONTINUOUS
 62
    64
 10
81.653023
 20
-48.007065
 11
81.486342
 21
-48.17374
  0
LINE
  8
ボルト／ビス
  6
CONTINUOUS
 62
    64
 10
81.653023
 20
-51.007045
 11
81.653023
 21
-48.007065
  0
LINE
  8
ボルト／ビス
  6
CONTINUOUS
 62
    64
 10
81.653023
 20
-48.007065
 11
82.653005
 21
-48.007065
  0
LINE
  8
ボルト／ビス
  6
CONTINUOUS
 62
    64
 10
82.653005
 20
-51.007045
 11
82.653005
 21
-48.007065
  0
LINE
  8
ボルト／ビス
  6
CONTINUOUS
 62
    64
 10
82.819683
 20
-51.007045
 11
82.819683
 21
-48.17374
  0
LINE
  8
ボルト／ビス
  6
CONTINUOUS
 62
    64
 10
82.819683
 20
-48.17374
 11
81.486342
 21
-48.17374
  0
LINE
  8
ボルト／ビス
  6
CONTINUOUS
 62
    64
 10
81.486342
 20
-51.007045
 11
81.486342
 21
-48.17374
  0
LINE
  8
ボルト／ビス
  6
CONTINUOUS
 62
    64
 10
82.153023
 20
-53.309965
 11
82.153023
 21
-47.421393
  0
ENDBLK
  0
BLOCK
  2
*GRP_0037
 70
    65
 10
0.0
 20
0.0
  0
LINE
  8
ボルト／ビス
  6
CONTINUOUS
 62
    64
 10
74.870003
 20
-63.691935
 11
74.718235
 21
-64.10891
  0
ARC
  8
ボルト／ビス
  6
CONTINUOUS
 62
    64
 10
73.50528
 20
-63.483447
 40
1.364723
 50
0.0
 51
27.277966
  0
LINE
  8
ボルト／ビス
  6
CONTINUOUS
 62
    64
 10
74.870003
 20
-59.522182
 11
74.718235
 21
-59.105207
  0
ARC
  8
ボルト／ビス
  6
CONTINUOUS
 62
    64
 10
73.50528
 20
-59.730669
 40
1.364723
 50
332.722034
 51
360.0
  0
ARC
  8
ボルト／ビス
  6
CONTINUOUS
 62
    64
 10
69.638759
 20
-61.607058
 40
5.231244
 50
346.165046
 51
373.834954
  0
LINE
  8
ボルト／ビス
  6
CONTINUOUS
 62
    64
 10
73.153335
 20
-64.10891
 11
74.718235
 21
-64.10891
  0
LINE
  8
ボルト／ビス
  6
CONTINUOUS
 62
    64
 10
73.153335
 20
-59.105207
 11
74.718235
 21
-59.105207
  0
LINE
  8
ボルト／ビス
  6
CONTINUOUS
 62
    64
 10
74.870003
 20
-59.522182
 11
74.870003
 21
-63.691935
  0
LINE
  8
ボルト／ビス
  6
CONTINUOUS
 62
    64
 10
74.718235
 20
-60.356132
 11
73.153335
 21
-60.356132
  0
LINE
  8
ボルト／ビス
  6
CONTINUOUS
 62
    64
 10
74.718235
 20
-62.857985
 11
73.153335
 21
-62.857985
  0
LINE
  8
ボルト／ビス
  6
CONTINUOUS
 62
    64
 10
73.153335
 20
-59.105207
 11
73.153335
 21
-64.10891
  0
LINE
  8
ボルト／ビス
  6
CONTINUOUS
 62
    64
 10
72.553335
 20
-64.523725
 11
72.220003
 21
-64.523725
  0
LINE
  8
ボルト／ビス
  6
CONTINUOUS
 62
    64
 10
72.553335
 20
-58.690392
 11
72.220003
 21
-58.690392
  0
LINE
  8
ボルト／ビス
  6
CONTINUOUS
 62
    64
 10
72.553335
 20
-64.523725
 11
72.553335
 21
-58.690392
  0
LINE
  8
ボルト／ビス
  6
CONTINUOUS
 62
    64
 10
72.220003
 20
-64.523725
 11
72.220003
 21
-58.690392
  0
LINE
  8
ボルト／ビス
  6
CONTINUOUS
 62
    64
 10
73.153335
 20
-61.607057
 11
72.553335
 21
-61.607057
  0
LINE
  8
ボルト／ビス
  6
CONTINUOUS
 62
    64
 10
73.153335
 20
-58.973725
 11
72.553335
 21
-58.973725
  0
LINE
  8
ボルト／ビス
  6
CONTINUOUS
 62
    64
 10
73.153335
 20
-64.240392
 11
72.553335
 21
-64.240392
  0
LINE
  8
ボルト／ビス
  6
CONTINUOUS
 62
    64
 10
73.153335
 20
-58.973725
 11
73.153335
 21
-64.240392
  0
LINE
  8
ボルト／ビス
  6
CONTINUOUS
 62
    64
 10
76.536667
 20
-61.607057
 11
63.153335
 21
-61.607057
  0
LINE
  8
ボルト／ビス
  6
CONTINUOUS
 62
    64
 10
64.820003
 20
-60.540392
 11
64.820003
 21
-62.673725
  0
LINE
  8
ボルト／ビス
  6
CONTINUOUS
 62
    64
 10
65.220003
 20
-60.273725
 11
64.820003
 21
-60.540392
  0
LINE
  8
ボルト／ビス
  6
CONTINUOUS
 62
    64
 10
65.220003
 20
-62.940392
 11
64.820003
 21
-62.673725
  0
LINE
  8
ボルト／ビス
  6
CONTINUOUS
 62
    64
 10
64.820003
 20
-60.540392
 11
64.820003
 21
-62.673725
  0
LINE
  8
ボルト／ビス
  6
CONTINUOUS
 62
    64
 10
65.220003
 20
-60.273725
 11
65.220003
 21
-62.940392
  0
LINE
  8
ボルト／ビス
  6
CONTINUOUS
 62
    64
 10
72.220003
 20
-60.273725
 11
65.220003
 21
-60.273725
  0
LINE
  8
ボルト／ビス
  6
CONTINUOUS
 62
    64
 10
72.220003
 20
-62.940392
 11
65.220003
 21
-62.940392
  0
LINE
  8
ボルト／ビス
  6
CONTINUOUS
 62
    64
 10
72.220003
 20
-60.540392
 11
64.820003
 21
-60.540392
  0
LINE
  8
ボルト／ビス
  6
CONTINUOUS
 62
    64
 10
72.220003
 20
-62.673725
 11
64.820003
 21
-62.673725
  0
ENDBLK
  0
BLOCK
  2
*GRP_0038
 70
    65
 10
0.0
 20
0.0
  0
LINE
  8
ボルト／ビス
  6
CONTINUOUS
 62
    64
 10
67.436667
 20
-63.691932
 11
67.588433
 21
-64.108907
  0
ARC
  8
ボルト／ビス
  6
CONTINUOUS
 62
    64
 10
68.80139
 20
-63.483446
 40
1.364723
 50
152.722034
 51
180.0
  0
LINE
  8
ボルト／ビス
  6
CONTINUOUS
 62
    64
 10
67.436667
 20
-59.52218
 11
67.588433
 21
-59.105205
  0
ARC
  8
ボルト／ビス
  6
CONTINUOUS
 62
    64
 10
68.80139
 20
-59.730668
 40
1.364723
 50
180.0
 51
207.277966
  0
ARC
  8
ボルト／ビス
  6
CONTINUOUS
 62
    64
 10
72.667911
 20
-61.607057
 40
5.231244
 50
166.165046
 51
193.834954
  0
LINE
  8
ボルト／ビス
  6
CONTINUOUS
 62
    64
 10
69.153335
 20
-64.108907
 11
67.588433
 21
-64.108907
  0
LINE
  8
ボルト／ビス
  6
CONTINUOUS
 62
    64
 10
69.153335
 20
-59.105205
 11
67.588433
 21
-59.105205
  0
LINE
  8
ボルト／ビス
  6
CONTINUOUS
 62
    64
 10
67.436667
 20
-59.52218
 11
67.436667
 21
-63.691932
  0
LINE
  8
ボルト／ビス
  6
CONTINUOUS
 62
    64
 10
67.588433
 20
-60.35613
 11
69.153335
 21
-60.35613
  0
LINE
  8
ボルト／ビス
  6
CONTINUOUS
 62
    64
 10
67.588433
 20
-62.857982
 11
69.153335
 21
-62.857982
  0
LINE
  8
ボルト／ビス
  6
CONTINUOUS
 62
    64
 10
69.153335
 20
-59.105205
 11
69.153335
 21
-64.108907
  0
LINE
  8
ボルト／ビス
  6
CONTINUOUS
 62
    64
 10
69.753335
 20
-64.523722
 11
70.086667
 21
-64.523722
  0
LINE
  8
ボルト／ビス
  6
CONTINUOUS
 62
    64
 10
69.753335
 20
-58.69039
 11
70.086667
 21
-58.69039
  0
LINE
  8
ボルト／ビス
  6
CONTINUOUS
 62
    64
 10
69.753335
 20
-64.523722
 11
69.753335
 21
-58.69039
  0
LINE
  8
ボルト／ビス
  6
CONTINUOUS
 62
    64
 10
70.086667
 20
-64.523722
 11
70.086667
 21
-58.69039
  0
LINE
  8
ボルト／ビス
  6
CONTINUOUS
 62
    64
 10
69.153335
 20
-61.607055
 11
69.753335
 21
-61.607055
  0
LINE
  8
ボルト／ビス
  6
CONTINUOUS
 62
    64
 10
69.153335
 20
-58.973722
 11
69.753335
 21
-58.973722
  0
LINE
  8
ボルト／ビス
  6
CONTINUOUS
 62
    64
 10
69.153335
 20
-64.24039
 11
69.753335
 21
-64.24039
  0
LINE
  8
ボルト／ビス
  6
CONTINUOUS
 62
    64
 10
69.153335
 20
-58.973722
 11
69.153335
 21
-64.24039
  0
ENDBLK
  0
BLOCK
  2
*GRP_0039
 70
    65
 10
0.0
 20
0.0
  0
POLYLINE
  8
ボルト／ビス
  6
CONTINUOUS
 62
    64
 66
     1
  0
VERTEX
  8
ボルト／ビス
 10
-64.850062
 20
-51.67372
  0
VERTEX
  8
ボルト／ビス
 10
-64.846062
 20
-51.690045
  0
VERTEX
  8
ボルト／ビス
 10
-64.834062
 20
-51.70622
  0
VERTEX
  8
ボルト／ビス
 10
-64.814185
 20
-51.7221
  0
VERTEX
  8
ボルト／ビス
 10
-64.786632
 20
-51.7375
  0
VERTEX
  8
ボルト／ビス
 10
-64.751663
 20
-51.752272
  0
VERTEX
  8
ボルト／ビス
 10
-64.709635
 20
-51.7663
  0
VERTEX
  8
ボルト／ビス
 10
-64.660905
 20
-51.779445
  0
VERTEX
  8
ボルト／ビス
 10
-64.605985
 20
-51.791572
  0
VERTEX
  8
ボルト／ビス
 10
-64.545385
 20
-51.802545
  0
VERTEX
  8
ボルト／ビス
 10
-64.479705
 20
-51.8123
  0
VERTEX
  8
ボルト／ビス
 10
-64.409562
 20
-51.8207
  0
VERTEX
  8
ボルト／ビス
 10
-64.335645
 20
-51.8277
  0
VERTEX
  8
ボルト／ビス
 10
-64.258635
 20
-51.8332
  0
VERTEX
  8
ボルト／ビス
 10
-64.179323
 20
-51.837172
  0
VERTEX
  8
ボルト／ビス
 10
-64.098405
 20
-51.839573
  0
VERTEX
  8
ボルト／ビス
 10
-64.016745
 20
-51.840373
  0
VERTEX
  8
ボルト／ビス
 10
-63.935065
 20
-51.839573
  0
VERTEX
  8
ボルト／ビス
 10
-63.854165
 20
-51.837172
  0
VERTEX
  8
ボルト／ビス
 10
-63.774845
 20
-51.8332
  0
VERTEX
  8
ボルト／ビス
 10
-63.697845
 20
-51.8277
  0
VERTEX
  8
ボルト／ビス
 10
-63.623923
 20
-51.8207
  0
VERTEX
  8
ボルト／ビス
 10
-63.553765
 20
-51.8123
  0
VERTEX
  8
ボルト／ビス
 10
-63.488093
 20
-51.802545
  0
VERTEX
  8
ボルト／ビス
 10
-63.427492
 20
-51.791572
  0
VERTEX
  8
ボルト／ビス
 10
-63.372565
 20
-51.779445
  0
VERTEX
  8
ボルト／ビス
 10
-63.323845
 20
-51.7663
  0
VERTEX
  8
ボルト／ビス
 10
-63.281822
 20
-51.752272
  0
VERTEX
  8
ボルト／ビス
 10
-63.246845
 20
-51.7375
  0
VERTEX
  8
ボルト／ビス
 10
-63.219295
 20
-51.7221
  0
VERTEX
  8
ボルト／ビス
 10
-63.199423
 20
-51.70622
  0
VERTEX
  8
ボルト／ビス
 10
-63.187405
 20
-51.690045
  0
VERTEX
  8
ボルト／ビス
 10
-63.183422
 20
-51.67372
  0
SEQEND
  0
LINE
  8
ボルト／ビス
  6
CONTINUOUS
 62
    64
 10
-64.850062
 20
-51.67372
 11
-65.016735
 21
-51.23098
  0
LINE
  8
ボルト／ビス
  6
CONTINUOUS
 62
    64
 10
-63.187405
 20
-51.690045
 11
-63.016745
 21
-51.23098
  0
LINE
  8
ボルト／ビス
  6
CONTINUOUS
 62
    64
 10
-63.016745
 20
-51.007045
 11
-63.016745
 21
-51.23098
  0
LINE
  8
ボルト／ビス
  6
CONTINUOUS
 62
    64
 10
-65.016735
 20
-51.007045
 11
-65.016735
 21
-51.23098
  0
ARC
  8
ボルト／ビス
  6
CONTINUOUS
 62
    64
 10
-64.016739
 20
-51.563727
 40
0.033333
 50
9.840875
 51
170.159125
  0
LINE
  8
ボルト／ビス
  6
CONTINUOUS
 62
    64
 10
-64.084933
 20
-51.76182
 11
-64.409562
 21
-51.8207
  0
LINE
  8
ボルト／ビス
  6
CONTINUOUS
 62
    64
 10
-63.948545
 20
-51.76182
 11
-63.623923
 21
-51.8207
  0
LINE
  8
ボルト／ビス
  6
CONTINUOUS
 62
    64
 10
-64.049593
 20
-51.55802
 11
-64.084933
 21
-51.76182
  0
LINE
  8
ボルト／ビス
  6
CONTINUOUS
 62
    64
 10
-63.983885
 20
-51.55802
 11
-63.948545
 21
-51.76182
  0
LINE
  8
ボルト／ビス
  6
CONTINUOUS
 62
    64
 10
-65.016735
 20
-51.007045
 11
-63.016745
 21
-51.007045
  0
LINE
  8
ボルト／ビス
  6
CONTINUOUS
 62
    64
 10
-64.683405
 20
-48.17374
 11
-64.516735
 21
-48.007065
  0
LINE
  8
ボルト／ビス
  6
CONTINUOUS
 62
    64
 10
-63.516745
 20
-48.007065
 11
-63.350065
 21
-48.17374
  0
LINE
  8
ボルト／ビス
  6
CONTINUOUS
 62
    64
 10
-63.516745
 20
-51.007045
 11
-63.516745
 21
-48.007065
  0
LINE
  8
ボルト／ビス
  6
CONTINUOUS
 62
    64
 10
-63.516745
 20
-48.007065
 11
-64.516735
 21
-48.007065
  0
LINE
  8
ボルト／ビス
  6
CONTINUOUS
 62
    64
 10
-64.516735
 20
-51.007045
 11
-64.516735
 21
-48.007065
  0
LINE
  8
ボルト／ビス
  6
CONTINUOUS
 62
    64
 10
-64.683405
 20
-51.007045
 11
-64.683405
 21
-48.17374
  0
LINE
  8
ボルト／ビス
  6
CONTINUOUS
 62
    64
 10
-64.683405
 20
-48.17374
 11
-63.350065
 21
-48.17374
  0
LINE
  8
ボルト／ビス
  6
CONTINUOUS
 62
    64
 10
-63.350065
 20
-51.007045
 11
-63.350065
 21
-48.17374
  0
LINE
  8
ボルト／ビス
  6
CONTINUOUS
 62
    64
 10
-64.016745
 20
-53.309965
 11
-64.016745
 21
-47.421393
  0
ENDBLK
  0
BLOCK
  2
*GRP_0040
 70
    65
 10
0.0
 20
0.0
  0
POLYLINE
  8
ボルト／ビス
  6
CONTINUOUS
 62
    64
 66
     1
  0
VERTEX
  8
ボルト／ビス
 10
-91.850795
 20
-51.67372
  0
VERTEX
  8
ボルト／ビス
 10
-91.846792
 20
-51.690045
  0
VERTEX
  8
ボルト／ビス
 10
-91.834793
 20
-51.70622
  0
VERTEX
  8
ボルト／ビス
 10
-91.814923
 20
-51.7221
  0
VERTEX
  8
ボルト／ビス
 10
-91.787365
 20
-51.7375
  0
VERTEX
  8
ボルト／ビス
 10
-91.752395
 20
-51.752272
  0
VERTEX
  8
ボルト／ビス
 10
-91.710365
 20
-51.7663
  0
VERTEX
  8
ボルト／ビス
 10
-91.661643
 20
-51.779445
  0
VERTEX
  8
ボルト／ビス
 10
-91.606722
 20
-51.791572
  0
VERTEX
  8
ボルト／ビス
 10
-91.546122
 20
-51.802545
  0
VERTEX
  8
ボルト／ビス
 10
-91.480443
 20
-51.8123
  0
VERTEX
  8
ボルト／ビス
 10
-91.410293
 20
-51.8207
  0
VERTEX
  8
ボルト／ビス
 10
-91.336383
 20
-51.8277
  0
VERTEX
  8
ボルト／ビス
 10
-91.259365
 20
-51.8332
  0
VERTEX
  8
ボルト／ビス
 10
-91.180052
 20
-51.837172
  0
VERTEX
  8
ボルト／ビス
 10
-91.099143
 20
-51.839573
  0
VERTEX
  8
ボルト／ビス
 10
-91.017483
 20
-51.840373
  0
VERTEX
  8
ボルト／ビス
 10
-90.935803
 20
-51.839573
  0
VERTEX
  8
ボルト／ビス
 10
-90.854903
 20
-51.837172
  0
VERTEX
  8
ボルト／ビス
 10
-90.775583
 20
-51.8332
  0
VERTEX
  8
ボルト／ビス
 10
-90.698582
 20
-51.8277
  0
VERTEX
  8
ボルト／ビス
 10
-90.624652
 20
-51.8207
  0
VERTEX
  8
ボルト／ビス
 10
-90.554503
 20
-51.8123
  0
VERTEX
  8
ボルト／ビス
 10
-90.488825
 20
-51.802545
  0
VERTEX
  8
ボルト／ビス
 10
-90.428225
 20
-51.791572
  0
VERTEX
  8
ボルト／ビス
 10
-90.373303
 20
-51.779445
  0
VERTEX
  8
ボルト／ビス
 10
-90.324582
 20
-51.7663
  0
VERTEX
  8
ボルト／ビス
 10
-90.282555
 20
-51.752272
  0
VERTEX
  8
ボルト／ビス
 10
-90.247583
 20
-51.7375
  0
VERTEX
  8
ボルト／ビス
 10
-90.220025
 20
-51.7221
  0
VERTEX
  8
ボルト／ビス
 10
-90.200152
 20
-51.70622
  0
VERTEX
  8
ボルト／ビス
 10
-90.188142
 20
-51.690045
  0
VERTEX
  8
ボルト／ビス
 10
-90.184155
 20
-51.67372
  0
SEQEND
  0
LINE
  8
ボルト／ビス
  6
CONTINUOUS
 62
    64
 10
-91.850795
 20
-51.67372
 11
-92.017465
 21
-51.23098
  0
LINE
  8
ボルト／ビス
  6
CONTINUOUS
 62
    64
 10
-90.188142
 20
-51.690045
 11
-90.017483
 21
-51.23098
  0
LINE
  8
ボルト／ビス
  6
CONTINUOUS
 62
    64
 10
-90.017483
 20
-51.007045
 11
-90.017483
 21
-51.23098
  0
LINE
  8
ボルト／ビス
  6
CONTINUOUS
 62
    64
 10
-92.017465
 20
-51.007045
 11
-92.017465
 21
-51.23098
  0
ARC
  8
ボルト／ビス
  6
CONTINUOUS
 62
    64
 10
-91.017474
 20
-51.563727
 40
0.033333
 50
9.840875
 51
170.159125
  0
LINE
  8
ボルト／ビス
  6
CONTINUOUS
 62
    64
 10
-91.085665
 20
-51.76182
 11
-91.410293
 21
-51.8207
  0
LINE
  8
ボルト／ビス
  6
CONTINUOUS
 62
    64
 10
-90.949283
 20
-51.76182
 11
-90.624652
 21
-51.8207
  0
LINE
  8
ボルト／ビス
  6
CONTINUOUS
 62
    64
 10
-91.050325
 20
-51.55802
 11
-91.085665
 21
-51.76182
  0
LINE
  8
ボルト／ビス
  6
CONTINUOUS
 62
    64
 10
-90.984623
 20
-51.55802
 11
-90.949283
 21
-51.76182
  0
LINE
  8
ボルト／ビス
  6
CONTINUOUS
 62
    64
 10
-92.017465
 20
-51.007045
 11
-90.017483
 21
-51.007045
  0
LINE
  8
ボルト／ビス
  6
CONTINUOUS
 62
    64
 10
-91.684142
 20
-48.17374
 11
-91.517465
 21
-48.007065
  0
LINE
  8
ボルト／ビス
  6
CONTINUOUS
 62
    64
 10
-90.517483
 20
-48.007065
 11
-90.350803
 21
-48.17374
  0
LINE
  8
ボルト／ビス
  6
CONTINUOUS
 62
    64
 10
-90.517483
 20
-51.007045
 11
-90.517483
 21
-48.007065
  0
LINE
  8
ボルト／ビス
  6
CONTINUOUS
 62
    64
 10
-90.517483
 20
-48.007065
 11
-91.517465
 21
-48.007065
  0
LINE
  8
ボルト／ビス
  6
CONTINUOUS
 62
    64
 10
-91.517465
 20
-51.007045
 11
-91.517465
 21
-48.007065
  0
LINE
  8
ボルト／ビス
  6
CONTINUOUS
 62
    64
 10
-91.684142
 20
-51.007045
 11
-91.684142
 21
-48.17374
  0
LINE
  8
ボルト／ビス
  6
CONTINUOUS
 62
    64
 10
-91.684142
 20
-48.17374
 11
-90.350803
 21
-48.17374
  0
LINE
  8
ボルト／ビス
  6
CONTINUOUS
 62
    64
 10
-90.350803
 20
-51.007045
 11
-90.350803
 21
-48.17374
  0
LINE
  8
ボルト／ビス
  6
CONTINUOUS
 62
    64
 10
-91.017483
 20
-53.309965
 11
-91.017483
 21
-47.421393
  0
ENDBLK
  0
BLOCK
  2
*GRP_0041
 70
    65
 10
0.0
 20
0.0
  0
LINE
  8
ボルト／ビス
  6
CONTINUOUS
 62
    64
 10
-83.734462
 20
-63.691935
 11
-83.582695
 21
-64.10891
  0
ARC
  8
ボルト／ビス
  6
CONTINUOUS
 62
    64
 10
-82.36974
 20
-63.483447
 40
1.364723
 50
152.722034
 51
180.0
  0
LINE
  8
ボルト／ビス
  6
CONTINUOUS
 62
    64
 10
-83.734462
 20
-59.522182
 11
-83.582695
 21
-59.105207
  0
ARC
  8
ボルト／ビス
  6
CONTINUOUS
 62
    64
 10
-82.36974
 20
-59.730669
 40
1.364723
 50
180.0
 51
207.277966
  0
ARC
  8
ボルト／ビス
  6
CONTINUOUS
 62
    64
 10
-78.503219
 20
-61.607058
 40
5.231244
 50
166.165046
 51
193.834954
  0
LINE
  8
ボルト／ビス
  6
CONTINUOUS
 62
    64
 10
-82.017795
 20
-64.10891
 11
-83.582695
 21
-64.10891
  0
LINE
  8
ボルト／ビス
  6
CONTINUOUS
 62
    64
 10
-82.017795
 20
-59.105207
 11
-83.582695
 21
-59.105207
  0
LINE
  8
ボルト／ビス
  6
CONTINUOUS
 62
    64
 10
-83.734462
 20
-59.522182
 11
-83.734462
 21
-63.691935
  0
LINE
  8
ボルト／ビス
  6
CONTINUOUS
 62
    64
 10
-83.582695
 20
-60.356132
 11
-82.017795
 21
-60.356132
  0
LINE
  8
ボルト／ビス
  6
CONTINUOUS
 62
    64
 10
-83.582695
 20
-62.857985
 11
-82.017795
 21
-62.857985
  0
LINE
  8
ボルト／ビス
  6
CONTINUOUS
 62
    64
 10
-82.017795
 20
-59.105207
 11
-82.017795
 21
-64.10891
  0
LINE
  8
ボルト／ビス
  6
CONTINUOUS
 62
    64
 10
-81.417795
 20
-64.523725
 11
-81.084462
 21
-64.523725
  0
LINE
  8
ボルト／ビス
  6
CONTINUOUS
 62
    64
 10
-81.417795
 20
-58.690392
 11
-81.084462
 21
-58.690392
  0
LINE
  8
ボルト／ビス
  6
CONTINUOUS
 62
    64
 10
-81.417795
 20
-64.523725
 11
-81.417795
 21
-58.690392
  0
LINE
  8
ボルト／ビス
  6
CONTINUOUS
 62
    64
 10
-81.084462
 20
-64.523725
 11
-81.084462
 21
-58.690392
  0
LINE
  8
ボルト／ビス
  6
CONTINUOUS
 62
    64
 10
-82.017795
 20
-61.607057
 11
-81.417795
 21
-61.607057
  0
LINE
  8
ボルト／ビス
  6
CONTINUOUS
 62
    64
 10
-82.017795
 20
-58.973725
 11
-81.417795
 21
-58.973725
  0
LINE
  8
ボルト／ビス
  6
CONTINUOUS
 62
    64
 10
-82.017795
 20
-64.240392
 11
-81.417795
 21
-64.240392
  0
LINE
  8
ボルト／ビス
  6
CONTINUOUS
 62
    64
 10
-82.017795
 20
-58.973725
 11
-82.017795
 21
-64.240392
  0
LINE
  8
ボルト／ビス
  6
CONTINUOUS
 62
    64
 10
-85.401127
 20
-61.607057
 11
-72.017795
 21
-61.607057
  0
LINE
  8
ボルト／ビス
  6
CONTINUOUS
 62
    64
 10
-73.684462
 20
-60.540392
 11
-73.684462
 21
-62.673725
  0
LINE
  8
ボルト／ビス
  6
CONTINUOUS
 62
    64
 10
-74.084462
 20
-60.273725
 11
-73.684462
 21
-60.540392
  0
LINE
  8
ボルト／ビス
  6
CONTINUOUS
 62
    64
 10
-74.084462
 20
-62.940392
 11
-73.684462
 21
-62.673725
  0
LINE
  8
ボルト／ビス
  6
CONTINUOUS
 62
    64
 10
-73.684462
 20
-60.540392
 11
-73.684462
 21
-62.673725
  0
LINE
  8
ボルト／ビス
  6
CONTINUOUS
 62
    64
 10
-74.084462
 20
-60.273725
 11
-74.084462
 21
-62.940392
  0
LINE
  8
ボルト／ビス
  6
CONTINUOUS
 62
    64
 10
-81.084462
 20
-60.273725
 11
-74.084462
 21
-60.273725
  0
LINE
  8
ボルト／ビス
  6
CONTINUOUS
 62
    64
 10
-81.084462
 20
-62.940392
 11
-74.084462
 21
-62.940392
  0
LINE
  8
ボルト／ビス
  6
CONTINUOUS
 62
    64
 10
-81.084462
 20
-60.540392
 11
-73.684462
 21
-60.540392
  0
LINE
  8
ボルト／ビス
  6
CONTINUOUS
 62
    64
 10
-81.084462
 20
-62.673725
 11
-73.684462
 21
-62.673725
  0
ENDBLK
  0
BLOCK
  2
*GRP_0042
 70
    65
 10
0.0
 20
0.0
  0
LINE
  8
ボルト／ビス
  6
CONTINUOUS
 62
    64
 10
-76.301127
 20
-63.691932
 11
-76.452892
 21
-64.108907
  0
ARC
  8
ボルト／ビス
  6
CONTINUOUS
 62
    64
 10
-77.66585
 20
-63.483446
 40
1.364723
 50
0.0
 51
27.277966
  0
LINE
  8
ボルト／ビス
  6
CONTINUOUS
 62
    64
 10
-76.301127
 20
-59.52218
 11
-76.452892
 21
-59.105205
  0
ARC
  8
ボルト／ビス
  6
CONTINUOUS
 62
    64
 10
-77.66585
 20
-59.730668
 40
1.364723
 50
332.722034
 51
360.0
  0
ARC
  8
ボルト／ビス
  6
CONTINUOUS
 62
    64
 10
-81.532371
 20
-61.607057
 40
5.231244
 50
346.165046
 51
373.834954
  0
LINE
  8
ボルト／ビス
  6
CONTINUOUS
 62
    64
 10
-78.017795
 20
-64.108907
 11
-76.452892
 21
-64.108907
  0
LINE
  8
ボルト／ビス
  6
CONTINUOUS
 62
    64
 10
-78.017795
 20
-59.105205
 11
-76.452892
 21
-59.105205
  0
LINE
  8
ボルト／ビス
  6
CONTINUOUS
 62
    64
 10
-76.301127
 20
-59.52218
 11
-76.301127
 21
-63.691932
  0
LINE
  8
ボルト／ビス
  6
CONTINUOUS
 62
    64
 10
-76.452892
 20
-60.35613
 11
-78.017795
 21
-60.35613
  0
LINE
  8
ボルト／ビス
  6
CONTINUOUS
 62
    64
 10
-76.452892
 20
-62.857982
 11
-78.017795
 21
-62.857982
  0
LINE
  8
ボルト／ビス
  6
CONTINUOUS
 62
    64
 10
-78.017795
 20
-59.105205
 11
-78.017795
 21
-64.108907
  0
LINE
  8
ボルト／ビス
  6
CONTINUOUS
 62
    64
 10
-78.617795
 20
-64.523722
 11
-78.951127
 21
-64.523722
  0
LINE
  8
ボルト／ビス
  6
CONTINUOUS
 62
    64
 10
-78.617795
 20
-58.69039
 11
-78.951127
 21
-58.69039
  0
LINE
  8
ボルト／ビス
  6
CONTINUOUS
 62
    64
 10
-78.617795
 20
-64.523722
 11
-78.617795
 21
-58.69039
  0
LINE
  8
ボルト／ビス
  6
CONTINUOUS
 62
    64
 10
-78.951127
 20
-64.523722
 11
-78.951127
 21
-58.69039
  0
LINE
  8
ボルト／ビス
  6
CONTINUOUS
 62
    64
 10
-78.017795
 20
-61.607055
 11
-78.617795
 21
-61.607055
  0
LINE
  8
ボルト／ビス
  6
CONTINUOUS
 62
    64
 10
-78.017795
 20
-58.973722
 11
-78.617795
 21
-58.973722
  0
LINE
  8
ボルト／ビス
  6
CONTINUOUS
 62
    64
 10
-78.017795
 20
-64.24039
 11
-78.617795
 21
-64.24039
  0
LINE
  8
ボルト／ビス
  6
CONTINUOUS
 62
    64
 10
-78.017795
 20
-58.973722
 11
-78.017795
 21
-64.24039
  0
ENDBLK
  0
BLOCK
  2
*GRP_0043
 70
    65
 10
0.0
 20
0.0
  0
INSERT
  2
*GRP_0085
  8
補助線
  6
DOT
 62
    64
 10
0.0
 20
0.0
  0
CIRCLE
  8
ボルト／ビス
  6
DOT
 62
    64
 10
-12.83223
 20
-31.60707
 40
1.166668
  0
LINE
  8
ボルト／ビス
  6
DOT
 62
    64
 10
-12.645562
 20
-31.233738
 11
-12.645562
 21
-30.967952
  0
LINE
  8
ボルト／ビス
  6
DOT
 62
    64
 10
-12.458897
 20
-31.420403
 11
-12.19313
 21
-31.420403
  0
ARC
  8
ボルト／ビス
  6
DOT
 62
    64
 10
-12.458897
 20
-31.233731
 40
0.186667
 50
180.0
 51
270.0
  0
LINE
  8
ボルト／ビス
  6
DOT
 62
    64
 10
-12.19313
 20
-31.420403
 11
-12.19313
 21
-31.60707
  0
LINE
  8
ボルト／ビス
  6
DOT
 62
    64
 10
-12.645562
 20
-30.967952
 11
-12.83223
 21
-30.967952
  0
LINE
  8
ボルト／ビス
  6
DOT
 62
    64
 10
-12.645562
 20
-31.980403
 11
-12.645562
 21
-32.24617
  0
LINE
  8
ボルト／ビス
  6
DOT
 62
    64
 10
-12.458897
 20
-31.793738
 11
-12.19313
 21
-31.793738
  0
ARC
  8
ボルト／ビス
  6
DOT
 62
    64
 10
-12.458897
 20
-31.980398
 40
0.186667
 50
90.0
 51
180.0
  0
LINE
  8
ボルト／ビス
  6
DOT
 62
    64
 10
-12.19313
 20
-31.793738
 11
-12.19313
 21
-31.60707
  0
LINE
  8
ボルト／ビス
  6
DOT
 62
    64
 10
-12.645562
 20
-32.24617
 11
-12.83223
 21
-32.24617
  0
LINE
  8
ボルト／ビス
  6
DOT
 62
    64
 10
-13.018898
 20
-31.980403
 11
-13.018898
 21
-32.24617
  0
LINE
  8
ボルト／ビス
  6
DOT
 62
    64
 10
-13.205562
 20
-31.793738
 11
-13.47133
 21
-31.793738
  0
ARC
  8
ボルト／ビス
  6
DOT
 62
    64
 10
-13.205564
 20
-31.980398
 40
0.186667
 50
0.0
 51
90.0
  0
LINE
  8
ボルト／ビス
  6
DOT
 62
    64
 10
-13.47133
 20
-31.793738
 11
-13.47133
 21
-31.60707
  0
LINE
  8
ボルト／ビス
  6
DOT
 62
    64
 10
-13.018898
 20
-32.24617
 11
-12.83223
 21
-32.24617
  0
LINE
  8
ボルト／ビス
  6
DOT
 62
    64
 10
-13.018898
 20
-31.233738
 11
-13.018898
 21
-30.967952
  0
LINE
  8
ボルト／ビス
  6
DOT
 62
    64
 10
-13.205562
 20
-31.420403
 11
-13.47133
 21
-31.420403
  0
ARC
  8
ボルト／ビス
  6
DOT
 62
    64
 10
-13.205564
 20
-31.233731
 40
0.186667
 50
270.0
 51
360.0
  0
LINE
  8
ボルト／ビス
  6
DOT
 62
    64
 10
-13.47133
 20
-31.420403
 11
-13.47133
 21
-31.60707
  0
LINE
  8
ボルト／ビス
  6
DOT
 62
    64
 10
-13.018898
 20
-30.967952
 11
-12.83223
 21
-30.967952
  0
ENDBLK
  0
BLOCK
  2
*GRP_0044
 70
    65
 10
0.0
 20
0.0
  0
INSERT
  2
*GRP_0086
  8
補助線
  6
DOT
 62
    64
 10
0.0
 20
0.0
  0
CIRCLE
  8
ボルト／ビス
  6
DOT
 62
    64
 10
3.96777
 20
-31.60707
 40
1.166668
  0
LINE
  8
ボルト／ビス
  6
DOT
 62
    64
 10
3.781103
 20
-31.233738
 11
3.781103
 21
-30.967952
  0
LINE
  8
ボルト／ビス
  6
DOT
 62
    64
 10
3.594437
 20
-31.420403
 11
3.32867
 21
-31.420403
  0
ARC
  8
ボルト／ビス
  6
DOT
 62
    64
 10
3.594439
 20
-31.233731
 40
0.186667
 50
270.0
 51
360.0
  0
LINE
  8
ボルト／ビス
  6
DOT
 62
    64
 10
3.32867
 20
-31.420403
 11
3.32867
 21
-31.60707
  0
LINE
  8
ボルト／ビス
  6
DOT
 62
    64
 10
3.781103
 20
-30.967952
 11
3.96777
 21
-30.967952
  0
LINE
  8
ボルト／ビス
  6
DOT
 62
    64
 10
3.781103
 20
-31.980403
 11
3.781103
 21
-32.24617
  0
LINE
  8
ボルト／ビス
  6
DOT
 62
    64
 10
3.594437
 20
-31.793738
 11
3.32867
 21
-31.793738
  0
ARC
  8
ボルト／ビス
  6
DOT
 62
    64
 10
3.594439
 20
-31.980398
 40
0.186667
 50
0.0
 51
90.0
  0
LINE
  8
ボルト／ビス
  6
DOT
 62
    64
 10
3.32867
 20
-31.793738
 11
3.32867
 21
-31.60707
  0
LINE
  8
ボルト／ビス
  6
DOT
 62
    64
 10
3.781103
 20
-32.24617
 11
3.96777
 21
-32.24617
  0
LINE
  8
ボルト／ビス
  6
DOT
 62
    64
 10
4.154437
 20
-31.980403
 11
4.154437
 21
-32.24617
  0
LINE
  8
ボルト／ビス
  6
DOT
 62
    64
 10
4.341102
 20
-31.793738
 11
4.60687
 21
-31.793738
  0
ARC
  8
ボルト／ビス
  6
DOT
 62
    64
 10
4.341106
 20
-31.980398
 40
0.186667
 50
90.0
 51
180.0
  0
LINE
  8
ボルト／ビス
  6
DOT
 62
    64
 10
4.60687
 20
-31.793738
 11
4.60687
 21
-31.60707
  0
LINE
  8
ボルト／ビス
  6
DOT
 62
    64
 10
4.154437
 20
-32.24617
 11
3.96777
 21
-32.24617
  0
LINE
  8
ボルト／ビス
  6
DOT
 62
    64
 10
4.154437
 20
-31.233738
 11
4.154437
 21
-30.967952
  0
LINE
  8
ボルト／ビス
  6
DOT
 62
    64
 10
4.341102
 20
-31.420403
 11
4.60687
 21
-31.420403
  0
ARC
  8
ボルト／ビス
  6
DOT
 62
    64
 10
4.341106
 20
-31.233731
 40
0.186667
 50
180.0
 51
270.0
  0
LINE
  8
ボルト／ビス
  6
DOT
 62
    64
 10
4.60687
 20
-31.420403
 11
4.60687
 21
-31.60707
  0
LINE
  8
ボルト／ビス
  6
DOT
 62
    64
 10
4.154437
 20
-30.967952
 11
3.96777
 21
-30.967952
  0
ENDBLK
  0
BLOCK
  2
*DIM_0045
 70
    65
 10
0.0
 20
0.0
  0
LINE
  8
寸法
  6
BYBLOCK
 62
     0
 10
59.486855
 20
8.857978
 11
59.486855
 21
76.309497
  0
LINE
  8
寸法
  6
BYBLOCK
 62
     0
 10
-68.350335
 20
76.309497
 11
59.486855
 21
76.309497
  0
POINT
  8
寸法
 62
     0
 10
59.486855
 20
76.309497
  0
TEXT
  7
TextStyle03
  8
寸法
  6
CONTINUOUS
 62
     0
 10
-19.95
 20
76.7
  1
ドーム呼称寸法
 40
4.0
 72
     5
 11
11.05
 21
76.7
  0
ENDBLK
  0
BLOCK
  2
*DIM_0046
 70
    65
 10
0.0
 20
0.0
  0
LINE
  8
寸法
  6
BYBLOCK
 62
     0
 10
-68.350335
 20
8.857978
 11
-68.350335
 21
76.309497
  0
LINE
  8
寸法
  6
BYBLOCK
 62
     0
 10
-98.350782
 20
-43.940413
 11
-98.350782
 21
76.309497
  0
LINE
  8
寸法
  6
BYBLOCK
 62
     0
 10
-68.350335
 20
76.309497
 11
-98.350782
 21
76.309497
  0
POINT
  8
寸法
 62
     0
 10
-68.350335
 20
76.309497
  0
POINT
  8
寸法
 62
     0
 10
-98.350782
 20
76.309497
  0
TEXT
  7
TextStyle03
  8
寸法
  6
CONTINUOUS
 62
     0
 10
-85.5
 20
76.7
  1
90
 40
4.0
 72
     5
 11
-81.25
 21
76.7
  0
ENDBLK
  0
BLOCK
  2
*DIM_0047
 70
    65
 10
0.0
 20
0.0
  0
LINE
  8
寸法
  6
BYBLOCK
 62
     0
 10
-85.017
 20
61.148187
 11
-98.350782
 21
61.148187
  0
POINT
  8
寸法
 62
     0
 10
-85.017
 20
61.148187
  0
POINT
  8
寸法
 62
     0
 10
-98.350782
 20
61.148187
  0
TEXT
  7
TextStyle03
  8
寸法
  6
CONTINUOUS
 62
     0
 10
-93.825
 20
61.525
  1
40
 40
4.0
 72
     5
 11
-89.575
 21
61.525
  0
ENDBLK
  0
BLOCK
  2
*DIM_0048
 70
    65
 10
0.0
 20
0.0
  0
LINE
  8
寸法
  6
BYBLOCK
 62
     0
 10
89.486322
 20
-43.940413
 11
89.486322
 21
76.309497
  0
LINE
  8
寸法
  6
BYBLOCK
 62
     0
 10
59.486855
 20
76.309497
 11
89.486322
 21
76.309497
  0
POINT
  8
寸法
 62
     0
 10
59.486855
 20
76.309497
  0
POINT
  8
寸法
 62
     0
 10
89.486322
 20
76.309497
  0
TEXT
  7
TextStyle03
  8
寸法
  6
CONTINUOUS
 62
     0
 10
72.35
 20
76.7
  1
90
 40
4.0
 72
     5
 11
76.6
 21
76.7
  0
ENDBLK
  0
BLOCK
  2
*DIM_0049
 70
    65
 10
0.0
 20
0.0
  0
LINE
  8
寸法
  6
BYBLOCK
 62
     0
 10
76.15352
 20
61.148187
 11
89.486322
 21
61.148187
  0
POINT
  8
寸法
 62
     0
 10
76.15352
 20
61.148187
  0
POINT
  8
寸法
 62
     0
 10
89.486322
 20
61.148187
  0
TEXT
  7
TextStyle03
  8
寸法
  6
CONTINUOUS
 62
     0
 10
80.675
 20
61.525
  1
40
 40
4.0
 72
     5
 11
84.925
 21
61.525
  0
ENDBLK
  0
BLOCK
  2
*DIM_0050
 70
    65
 10
0.0
 20
0.0
  0
LINE
  8
寸法
  6
BYBLOCK
 62
     0
 10
-98.350782
 20
68.376872
 11
-98.350782
 21
68.978012
  0
LINE
  8
寸法
  6
BYBLOCK
 62
     0
 10
-58.350845
 20
-35.607075
 11
-58.350845
 21
68.978012
  0
LINE
  8
寸法
  6
BYBLOCK
 62
     0
 10
-98.350782
 20
68.978012
 11
-58.350845
 21
68.978012
  0
POINT
  8
寸法
 62
     0
 10
-98.350782
 20
68.978012
  0
POINT
  8
寸法
 62
     0
 10
-58.350845
 20
68.978012
  0
TEXT
  7
TextStyle03
  8
寸法
  6
CONTINUOUS
 62
     0
 10
-81.625
 20
69.375
  1
120
 40
4.0
 72
     5
 11
-75.125
 21
69.375
  0
ENDBLK
  0
BLOCK
  2
*DIM_0051
 70
    65
 10
0.0
 20
0.0
  0
LINE
  8
寸法
  6
BYBLOCK
 62
     0
 10
49.486385
 20
-35.607075
 11
49.486385
 21
68.978012
  0
LINE
  8
寸法
  6
BYBLOCK
 62
     0
 10
-58.350845
 20
68.978012
 11
49.486385
 21
68.978012
  0
POINT
  8
寸法
 62
     0
 10
49.486385
 20
68.978012
  0
TEXT
  7
TextStyle03
  8
寸法
  6
CONTINUOUS
 62
     0
 10
-13.2
 20
69.375
  1
有効開口
 40
4.0
 72
     5
 11
4.3
 21
69.375
  0
ENDBLK
  0
BLOCK
  2
*DIM_0052
 70
    65
 10
0.0
 20
0.0
  0
LINE
  8
寸法
  6
BYBLOCK
 62
     0
 10
89.486322
 20
-35.607075
 11
89.486322
 21
68.978012
  0
LINE
  8
寸法
  6
BYBLOCK
 62
     0
 10
49.486385
 20
68.978012
 11
89.486322
 21
68.978012
  0
POINT
  8
寸法
 62
     0
 10
89.486322
 20
68.978012
  0
TEXT
  7
TextStyle03
  8
寸法
  6
CONTINUOUS
 62
     0
 10
66.225
 20
69.375
  1
120
 40
4.0
 72
     5
 11
72.725
 21
69.375
  0
ENDBLK
  0
BLOCK
  2
*DIM_0053
 70
    65
 10
0.0
 20
0.0
  0
LINE
  8
寸法
  6
BYBLOCK
 62
     0
 10
-68.350335
 20
61.148187
 11
-58.350845
 21
61.148187
  0
POINT
  8
寸法
 62
     0
 10
-68.350335
 20
61.148187
  0
POINT
  8
寸法
 62
     0
 10
-58.350845
 20
61.148187
  0
TEXT
  7
TextStyle03
  8
寸法
  6
CONTINUOUS
 62
     0
 10
-65.5
 20
61.525
  1
30
 40
4.0
 72
     5
 11
-61.25
 21
61.525
  0
ENDBLK
  0
BLOCK
  2
*DIM_0054
 70
    65
 10
0.0
 20
0.0
  0
LINE
  8
寸法
  6
BYBLOCK
 62
     0
 10
59.485875
 20
61.148187
 11
49.486385
 21
61.148187
  0
POINT
  8
寸法
 62
     0
 10
59.485875
 20
61.148187
  0
POINT
  8
寸法
 62
     0
 10
49.486385
 20
61.148187
  0
TEXT
  7
TextStyle03
  8
寸法
  6
CONTINUOUS
 62
     0
 10
52.35
 20
61.525
  1
30
 40
4.0
 72
     5
 11
56.6
 21
61.525
  0
ENDBLK
  0
BLOCK
  2
*DIM_0055
 70
    65
 10
0.0
 20
0.0
  0
LINE
  8
寸法
  6
BYBLOCK
 62
     0
 10
90.486322
 20
-49.94039
 11
155.715907
 21
-49.94039
  0
LINE
  8
寸法
  6
BYBLOCK
 62
     0
 10
155.715907
 20
-44.940413
 11
155.715907
 21
-49.94039
  0
POINT
  8
寸法
 62
     0
 10
155.715907
 20
-49.94039
  0
TEXT
  7
TextStyle03
  8
寸法
  6
CONTINUOUS
 62
     0
 10
155.325
 20
-49.55
  1
15
 40
4.0
 50
90.0
 72
     5
 11
155.325
 21
-45.3
  0
ENDBLK
  0
BLOCK
  2
*DIM_0056
 70
    65
 10
0.0
 20
0.0
  0
LINE
  8
寸法
  6
BYBLOCK
 62
     0
 10
91.48633
 20
-54.94039
 11
155.715907
 21
-54.94039
  0
LINE
  8
寸法
  6
BYBLOCK
 62
     0
 10
155.715907
 20
-49.94039
 11
155.715907
 21
-54.94039
  0
POINT
  8
寸法
 62
     0
 10
155.715907
 20
-54.94039
  0
TEXT
  7
TextStyle03
  8
寸法
  6
CONTINUOUS
 62
     0
 10
155.325
 20
-54.55
  1
15
 40
4.0
 50
90.0
 72
     5
 11
155.325
 21
-50.3
  0
ENDBLK
  0
BLOCK
  2
*DIM_0057
 70
    65
 10
0.0
 20
0.0
  0
LINE
  8
寸法
  6
BYBLOCK
 62
     0
 10
92.48633
 20
-54.94039
 11
162.690165
 21
-54.94039
  0
LINE
  8
寸法
  6
BYBLOCK
 62
     0
 10
77.15254
 20
-21.273725
 11
162.690165
 21
-21.273725
  0
LINE
  8
寸法
  6
BYBLOCK
 62
     0
 10
162.690165
 20
-54.94039
 11
162.690165
 21
-21.273725
  0
POINT
  8
寸法
 62
     0
 10
162.690165
 20
-54.94039
  0
POINT
  8
寸法
 62
     0
 10
162.690165
 20
-21.273725
  0
TEXT
  7
TextStyle03
  8
寸法
  6
CONTINUOUS
 62
     0
 10
162.3
 20
-41.35
  1
101
 40
4.0
 50
90.0
 72
     5
 11
162.3
 21
-34.85
  0
ENDBLK
  0
BLOCK
  2
*DIM_0058
 70
    65
 10
0.0
 20
0.0
  0
LINE
  8
寸法
  6
BYBLOCK
 62
     0
 10
90.486322
 20
-44.940413
 11
155.715907
 21
-44.940413
  0
LINE
  8
寸法
  6
BYBLOCK
 62
     0
 10
78.15254
 20
-21.273725
 11
155.715907
 21
-21.273725
  0
LINE
  8
寸法
  6
BYBLOCK
 62
     0
 10
155.715907
 20
-44.940413
 11
155.715907
 21
-21.273725
  0
POINT
  8
寸法
 62
     0
 10
155.715907
 20
-44.940413
  0
POINT
  8
寸法
 62
     0
 10
155.715907
 20
-21.273725
  0
TEXT
  7
TextStyle03
  8
寸法
  6
CONTINUOUS
 62
     0
 10
155.325
 20
-35.225
  1
71
 40
4.0
 50
90.0
 72
     5
 11
155.325
 21
-30.975
  0
ENDBLK
  0
BLOCK
  2
*GRP_0059
 70
    65
 10
0.0
 20
0.0
  0
POLYLINE
  8
寸法
  6
BYBLOCK
 62
     0
 66
     1
  0
VERTEX
  8
寸法
 10
-107.834213
 20
-54.377167
  0
VERTEX
  8
寸法
 10
-105.236135
 20
-55.877167
  0
VERTEX
  8
寸法
 10
-106.736135
 20
-53.27909
  0
SEQEND
  0
POLYLINE
  8
寸法
  6
BYBLOCK
 62
     0
 66
     1
  0
VERTEX
  8
寸法
 10
-105.236135
 20
-55.877167
  0
VERTEX
  8
寸法
 10
-114.274377
 20
-46.838925
  0
VERTEX
  8
寸法
 10
-117.19589
 20
-46.838925
  0
SEQEND
  0
ENDBLK
  0
BLOCK
  2
*DIM_0060
 70
    65
 10
0.0
 20
0.0
  0
LINE
  8
寸法
  6
BYBLOCK
 62
     0
 10
49.486385
 20
-50.94039
 11
49.486385
 21
-102.641758
  0
LINE
  8
寸法
  6
BYBLOCK
 62
     0
 10
51.153205
 20
-89.014215
 11
51.153205
 21
-102.641758
  0
LINE
  8
寸法
  6
BYBLOCK
 62
     0
 10
49.486385
 20
-102.641758
 11
51.153205
 21
-102.641758
  0
POINT
  8
寸法
 62
     0
 10
49.486385
 20
-102.641758
  0
POINT
  8
寸法
 62
     0
 10
51.153205
 20
-102.641758
  0
TEXT
  7
TextStyle03
  8
寸法
  6
CONTINUOUS
 62
     0
 10
47.875
 20
-102.25
  1
5
 40
3.0
 72
     5
 11
49.375
 21
-102.25
  0
ENDBLK
  0
BLOCK
  2
*DIM_0061
 70
    65
 10
0.0
 20
0.0
  0
LINE
  8
寸法
  6
BYBLOCK
 62
     0
 10
62.81987
 20
-89.014215
 11
62.81987
 21
-102.641758
  0
LINE
  8
寸法
  6
BYBLOCK
 62
     0
 10
51.153205
 20
-102.641758
 11
62.81987
 21
-102.641758
  0
POINT
  8
寸法
 62
     0
 10
62.81987
 20
-102.641758
  0
TEXT
  7
TextStyle03
  8
寸法
  6
CONTINUOUS
 62
     0
 10
55.38125
 20
-102.25
  1
35
 40
3.0
 72
     5
 11
58.56875
 21
-102.25
  0
ENDBLK
  0
BLOCK
  2
*DIM_0062
 70
    65
 10
0.0
 20
0.0
  0
LINE
  8
寸法
  6
BYBLOCK
 62
     0
 10
112.81991
 20
-89.014215
 11
112.81991
 21
-102.641758
  0
LINE
  8
寸法
  6
BYBLOCK
 62
     0
 10
62.81987
 20
-102.641758
 11
112.81991
 21
-102.641758
  0
POINT
  8
寸法
 62
     0
 10
112.81991
 20
-102.641758
  0
TEXT
  7
TextStyle03
  8
寸法
  6
CONTINUOUS
 62
     0
 10
85.3625
 20
-102.25
  1
150
 40
3.0
 72
     5
 11
90.2375
 21
-102.25
  0
ENDBLK
  0
BLOCK
  2
*DIM_0063
 70
    65
 10
0.0
 20
0.0
  0
LINE
  8
寸法
  6
BYBLOCK
 62
     0
 10
116.15324
 20
-89.014215
 11
116.15324
 21
-102.641758
  0
LINE
  8
寸法
  6
BYBLOCK
 62
     0
 10
112.81991
 20
-102.641758
 11
116.15324
 21
-102.641758
  0
POINT
  8
寸法
 62
     0
 10
116.15324
 20
-102.641758
  0
TEXT
  7
TextStyle03
  8
寸法
  6
CONTINUOUS
 62
     0
 10
112.88125
 20
-105.625
  1
10
 40
3.0
 72
     5
 11
116.06875
 21
-105.625
  0
ENDBLK
  0
BLOCK
  2
*DIM_0064
 70
    65
 10
0.0
 20
0.0
  0
LINE
  8
寸法
  6
BYBLOCK
 62
     0
 10
122.81979
 20
-80.475545
 11
122.81979
 21
-102.641758
  0
LINE
  8
寸法
  6
BYBLOCK
 62
     0
 10
116.15324
 20
-102.641758
 11
122.81979
 21
-102.641758
  0
POINT
  8
寸法
 62
     0
 10
122.81979
 20
-102.641758
  0
TEXT
  7
TextStyle03
  8
寸法
  6
CONTINUOUS
 62
     0
 10
117.88125
 20
-102.25
  1
20
 40
3.0
 72
     5
 11
121.06875
 21
-102.25
  0
ENDBLK
  0
BLOCK
  2
*DIM_0065
 70
    65
 10
0.0
 20
0.0
  0
LINE
  8
寸法
  6
BYBLOCK
 62
     0
 10
-75.017003
 20
-15.990293
 11
-75.017003
 21
61.148187
  0
LINE
  8
寸法
  6
BYBLOCK
 62
     0
 10
-68.350335
 20
61.148187
 11
-75.017003
 21
61.148187
  0
POINT
  8
寸法
 62
     0
 10
-68.350335
 20
61.148187
  0
POINT
  8
寸法
 62
     0
 10
-75.017003
 20
61.148187
  0
TEXT
  7
TextStyle03
  8
寸法
  6
CONTINUOUS
 62
     0
 10
-73.29375
 20
61.525
  1
20
 40
3.0
 72
     5
 11
-70.10625
 21
61.525
  0
ENDBLK
  0
BLOCK
  2
*DIM_0066
 70
    65
 10
0.0
 20
0.0
  0
LINE
  8
寸法
  6
BYBLOCK
 62
     0
 10
-85.017
 20
-20.273725
 11
-85.017
 21
61.148187
  0
LINE
  8
寸法
  6
BYBLOCK
 62
     0
 10
-75.017003
 20
61.148187
 11
-85.017
 21
61.148187
  0
POINT
  8
寸法
 62
     0
 10
-85.017
 20
61.148187
  0
TEXT
  7
TextStyle03
  8
寸法
  6
CONTINUOUS
 62
     0
 10
-81.61875
 20
61.525
  1
30
 40
3.0
 72
     5
 11
-78.43125
 21
61.525
  0
ENDBLK
  0
BLOCK
  2
*DIM_0067
 70
    65
 10
0.0
 20
0.0
  0
LINE
  8
寸法
  6
BYBLOCK
 62
     0
 10
66.152542
 20
-15.990293
 11
66.152542
 21
61.148187
  0
LINE
  8
寸法
  6
BYBLOCK
 62
     0
 10
59.485875
 20
61.148187
 11
66.152542
 21
61.148187
  0
POINT
  8
寸法
 62
     0
 10
59.485875
 20
61.148187
  0
POINT
  8
寸法
 62
     0
 10
66.152542
 20
61.148187
  0
TEXT
  7
TextStyle03
  8
寸法
  6
CONTINUOUS
 62
     0
 10
61.20625
 20
61.525
  1
20
 40
3.0
 72
     5
 11
64.39375
 21
61.525
  0
ENDBLK
  0
BLOCK
  2
*DIM_0068
 70
    65
 10
0.0
 20
0.0
  0
LINE
  8
寸法
  6
BYBLOCK
 62
     0
 10
76.15254
 20
-20.273725
 11
76.15254
 21
61.148187
  0
LINE
  8
寸法
  6
BYBLOCK
 62
     0
 10
66.152542
 20
61.148187
 11
76.15254
 21
61.148187
  0
POINT
  8
寸法
 62
     0
 10
76.15254
 20
61.148187
  0
TEXT
  7
TextStyle03
  8
寸法
  6
CONTINUOUS
 62
     0
 10
69.55625
 20
61.525
  1
30
 40
3.0
 72
     5
 11
72.74375
 21
61.525
  0
ENDBLK
  0
BLOCK
  2
*DIM_0069
 70
    65
 10
0.0
 20
0.0
  0
LINE
  8
寸法
  6
BYBLOCK
 62
     0
 10
-60.017665
 20
-89.014215
 11
-60.017665
 21
-102.641758
  0
LINE
  8
寸法
  6
BYBLOCK
 62
     0
 10
-71.68433
 20
-89.014215
 11
-71.68433
 21
-102.641758
  0
LINE
  8
寸法
  6
BYBLOCK
 62
     0
 10
-60.017665
 20
-102.641758
 11
-71.68433
 21
-102.641758
  0
POINT
  8
寸法
 62
     0
 10
-71.68433
 20
-102.641758
  0
TEXT
  7
TextStyle03
  8
寸法
  6
CONTINUOUS
 62
     0
 10
-67.46875
 20
-102.25
  1
35
 40
3.0
 72
     5
 11
-64.28125
 21
-102.25
  0
ENDBLK
  0
BLOCK
  2
*DIM_0070
 70
    65
 10
0.0
 20
0.0
  0
LINE
  8
寸法
  6
BYBLOCK
 62
     0
 10
-71.68433
 20
-89.014215
 11
-71.68433
 21
-102.641758
  0
LINE
  8
寸法
  6
BYBLOCK
 62
     0
 10
-121.68437
 20
-89.014215
 11
-121.68437
 21
-102.641758
  0
LINE
  8
寸法
  6
BYBLOCK
 62
     0
 10
-71.68433
 20
-102.641758
 11
-121.68437
 21
-102.641758
  0
POINT
  8
寸法
 62
     0
 10
-121.68437
 20
-102.641758
  0
TEXT
  7
TextStyle03
  8
寸法
  6
CONTINUOUS
 62
     0
 10
-99.1375
 20
-102.25
  1
150
 40
3.0
 72
     5
 11
-94.2625
 21
-102.25
  0
ENDBLK
  0
BLOCK
  2
*DIM_0071
 70
    65
 10
0.0
 20
0.0
  0
LINE
  8
寸法
  6
BYBLOCK
 62
     0
 10
-121.68437
 20
-89.014215
 11
-121.68437
 21
-102.641758
  0
LINE
  8
寸法
  6
BYBLOCK
 62
     0
 10
-125.0177
 20
-89.014215
 11
-125.0177
 21
-102.641758
  0
LINE
  8
寸法
  6
BYBLOCK
 62
     0
 10
-121.68437
 20
-102.641758
 11
-125.0177
 21
-102.641758
  0
POINT
  8
寸法
 62
     0
 10
-125.0177
 20
-102.641758
  0
TEXT
  7
TextStyle03
  8
寸法
  6
CONTINUOUS
 62
     0
 10
-124.96875
 20
-105.625
  1
10
 40
3.0
 72
     5
 11
-121.78125
 21
-105.625
  0
ENDBLK
  0
BLOCK
  2
*DIM_0072
 70
    65
 10
0.0
 20
0.0
  0
LINE
  8
寸法
  6
BYBLOCK
 62
     0
 10
-125.0177
 20
-89.014215
 11
-125.0177
 21
-102.641758
  0
LINE
  8
寸法
  6
BYBLOCK
 62
     0
 10
-131.68425
 20
-80.475545
 11
-131.68425
 21
-102.641758
  0
LINE
  8
寸法
  6
BYBLOCK
 62
     0
 10
-125.0177
 20
-102.641758
 11
-131.68425
 21
-102.641758
  0
POINT
  8
寸法
 62
     0
 10
-131.68425
 20
-102.641758
  0
TEXT
  7
TextStyle03
  8
寸法
  6
CONTINUOUS
 62
     0
 10
-129.96875
 20
-102.25
  1
20
 40
3.0
 72
     5
 11
-126.78125
 21
-102.25
  0
ENDBLK
  0
BLOCK
  2
*GRP_0073
 70
    65
 10
0.0
 20
0.0
  0
POLYLINE
  8
寸法
  6
CONTINUOUS
 66
     1
  0
VERTEX
  8
寸法
 10
119.230142
 20
-73.65233
  0
VERTEX
  8
寸法
 10
127.878655
 20
-65.00382
  0
VERTEX
  8
寸法
 10
133.481285
 20
-65.00382
  0
SEQEND
  0
ENDBLK
  0
BLOCK
  2
*GRP_0074
 70
    65
 10
0.0
 20
0.0
  0
LINE
  8
ボルト／ビス
  6
CONTINUOUS
 62
    64
 10
84.486667
 20
-62.80655
 11
84.486667
 21
-86.05345
  0
LINE
  8
ボルト／ビス
  6
CONTINUOUS
 62
    64
 10
83.32005
 20
-65.442775
 11
83.555725
 21
-65.206935
  0
LINE
  8
ボルト／ビス
  6
CONTINUOUS
 62
    64
 10
83.32005
 20
-65.442775
 11
83.32005
 21
-67.54026
  0
LINE
  8
ボルト／ビス
  6
CONTINUOUS
 62
    64
 10
83.32005
 20
-65.442775
 11
83.084375
 21
-65.206935
  0
LINE
  8
ボルト／ビス
  6
CONTINUOUS
 62
    64
 10
83.389085
 20
-63.540343
 11
83.389085
 21
-65.206935
  0
LINE
  8
ボルト／ビス
  6
CONTINUOUS
 62
    64
 10
81.820035
 20
-67.54026
 11
81.820035
 21
-68.373635
  0
LINE
  8
ボルト／ビス
  6
CONTINUOUS
 62
    64
 10
83.15331
 20
-75.206975
 11
83.389085
 21
-74.9713
  0
LINE
  8
ボルト／ビス
  6
CONTINUOUS
 62
    64
 10
83.389085
 20
-68.873725
 11
83.389085
 21
-74.9713
  0
LINE
  8
ボルト／ビス
  6
CONTINUOUS
 62
    64
 10
83.15331
 20
-78.340075
 11
81.859243
 21
-83.169743
  0
LINE
  8
ボルト／ビス
  6
CONTINUOUS
 62
    64
 10
83.15331
 20
-68.873725
 11
83.15331
 21
-78.340075
  0
LINE
  8
ボルト／ビス
  6
CONTINUOUS
 62
    64
 10
83.32005
 20
-65.442775
 11
83.555725
 21
-65.206935
  0
LINE
  8
ボルト／ビス
  6
CONTINUOUS
 62
    64
 10
85.633135
 20
-65.442775
 11
85.86881
 21
-65.206935
  0
LINE
  8
ボルト／ビス
  6
CONTINUOUS
 62
    64
 10
85.633135
 20
-65.442775
 11
85.633135
 21
-67.54026
  0
LINE
  8
ボルト／ビス
  6
CONTINUOUS
 62
    64
 10
85.633135
 20
-65.442775
 11
85.39746
 21
-65.206935
  0
LINE
  8
ボルト／ビス
  6
CONTINUOUS
 62
    64
 10
85.58431
 20
-63.540343
 11
85.58431
 21
-65.206935
  0
LINE
  8
ボルト／ビス
  6
CONTINUOUS
 62
    64
 10
87.1534
 20
-67.54026
 11
87.1534
 21
-68.373635
  0
LINE
  8
ボルト／ビス
  6
CONTINUOUS
 62
    64
 10
85.819993
 20
-75.206975
 11
85.58431
 21
-74.9713
  0
LINE
  8
ボルト／ビス
  6
CONTINUOUS
 62
    64
 10
85.58431
 20
-68.873725
 11
85.58431
 21
-74.9713
  0
LINE
  8
ボルト／ビス
  6
CONTINUOUS
 62
    64
 10
85.819993
 20
-78.340075
 11
87.114092
 21
-83.169743
  0
LINE
  8
ボルト／ビス
  6
CONTINUOUS
 62
    64
 10
85.819993
 20
-68.873725
 11
85.819993
 21
-78.340075
  0
LINE
  8
ボルト／ビス
  6
CONTINUOUS
 62
    64
 10
85.819993
 20
-63.776018
 11
85.58431
 21
-63.540343
  0
LINE
  8
ボルト／ビス
  6
CONTINUOUS
 62
    64
 10
85.819993
 20
-65.206935
 11
85.819993
 21
-63.776018
  0
LINE
  8
ボルト／ビス
  6
CONTINUOUS
 62
    64
 10
85.58431
 20
-63.540343
 11
83.389085
 21
-63.540343
  0
LINE
  8
ボルト／ビス
  6
CONTINUOUS
 62
    64
 10
83.389085
 20
-63.540343
 11
83.15331
 21
-63.776018
  0
LINE
  8
ボルト／ビス
  6
CONTINUOUS
 62
    64
 10
85.819993
 20
-63.776018
 11
83.15331
 21
-63.776018
  0
LINE
  8
ボルト／ビス
  6
CONTINUOUS
 62
    64
 10
83.15331
 20
-65.206935
 11
83.15331
 21
-63.776018
  0
LINE
  8
ボルト／ビス
  6
CONTINUOUS
 62
    64
 10
81.553375
 20
-65.442775
 11
81.78905
 21
-65.206935
  0
LINE
  8
ボルト／ビス
  6
CONTINUOUS
 62
    64
 10
81.553375
 20
-65.442775
 11
81.553375
 21
-67.54026
  0
LINE
  8
ボルト／ビス
  6
CONTINUOUS
 62
    64
 10
81.78905
 20
-65.206935
 11
87.184285
 21
-65.206935
  0
LINE
  8
ボルト／ビス
  6
CONTINUOUS
 62
    64
 10
87.41996
 20
-65.442775
 11
87.184285
 21
-65.206935
  0
LINE
  8
ボルト／ビス
  6
CONTINUOUS
 62
    64
 10
87.41996
 20
-65.442775
 11
87.41996
 21
-67.54026
  0
LINE
  8
ボルト／ビス
  6
CONTINUOUS
 62
    64
 10
81.553375
 20
-67.54026
 11
87.41996
 21
-67.54026
  0
LINE
  8
ボルト／ビス
  6
CONTINUOUS
 62
    64
 10
87.736725
 20
-68.373635
 11
87.736725
 21
-68.873725
  0
LINE
  8
ボルト／ビス
  6
CONTINUOUS
 62
    64
 10
87.736725
 20
-68.373635
 11
81.236667
 21
-68.373635
  0
LINE
  8
ボルト／ビス
  6
CONTINUOUS
 62
    64
 10
81.236667
 20
-68.373635
 11
81.236667
 21
-68.873725
  0
LINE
  8
ボルト／ビス
  6
CONTINUOUS
 62
    64
 10
87.736725
 20
-68.873725
 11
81.236667
 21
-68.873725
  0
LINE
  8
ボルト／ビス
  6
CONTINUOUS
 62
    64
 10
84.486667
 20
-78.559567
 11
85.81531
 21
-83.517792
  0
LINE
  8
ボルト／ビス
  6
CONTINUOUS
 62
    64
 10
87.114092
 20
-83.169743
 11
85.81531
 21
-83.517792
  0
LINE
  8
ボルト／ビス
  6
CONTINUOUS
 62
    64
 10
84.486667
 20
-78.559567
 11
83.158117
 21
-83.517792
  0
LINE
  8
ボルト／ビス
  6
CONTINUOUS
 62
    64
 10
81.859243
 20
-83.169743
 11
83.158117
 21
-83.517792
  0
LINE
  8
ボルト／ビス
  6
CONTINUOUS
 62
    64
 10
83.15331
 20
-84.206925
 11
83.58331
 21
-81.768225
  0
LINE
  8
ボルト／ビス
  6
CONTINUOUS
 62
    64
 10
85.819993
 20
-84.206925
 11
85.390025
 21
-81.768225
  0
LINE
  8
ボルト／ビス
  6
CONTINUOUS
 62
    64
 10
83.15331
 20
-84.206925
 11
85.819993
 21
-84.206925
  0
LINE
  8
ボルト／ビス
  6
CONTINUOUS
 62
    64
 10
83.58331
 20
-81.768225
 11
85.390025
 21
-81.768225
  0
ENDBLK
  0
BLOCK
  2
*GRP_0075
 70
    65
 10
0.0
 20
0.0
  0
LINE
  8
ボルト／ビス
  6
CONTINUOUS
 62
    64
 10
-93.351127
 20
-62.80655
 11
-93.351127
 21
-86.05345
  0
LINE
  8
ボルト／ビス
  6
CONTINUOUS
 62
    64
 10
-94.517745
 20
-65.442775
 11
-94.28207
 21
-65.206935
  0
LINE
  8
ボルト／ビス
  6
CONTINUOUS
 62
    64
 10
-94.517745
 20
-65.442775
 11
-94.517745
 21
-67.54026
  0
LINE
  8
ボルト／ビス
  6
CONTINUOUS
 62
    64
 10
-94.517745
 20
-65.442775
 11
-94.75342
 21
-65.206935
  0
LINE
  8
ボルト／ビス
  6
CONTINUOUS
 62
    64
 10
-94.44871
 20
-63.540343
 11
-94.44871
 21
-65.206935
  0
LINE
  8
ボルト／ビス
  6
CONTINUOUS
 62
    64
 10
-96.01776
 20
-67.54026
 11
-96.01776
 21
-68.373635
  0
LINE
  8
ボルト／ビス
  6
CONTINUOUS
 62
    64
 10
-94.684485
 20
-75.206975
 11
-94.44871
 21
-74.9713
  0
LINE
  8
ボルト／ビス
  6
CONTINUOUS
 62
    64
 10
-94.44871
 20
-68.873725
 11
-94.44871
 21
-74.9713
  0
LINE
  8
ボルト／ビス
  6
CONTINUOUS
 62
    64
 10
-94.684485
 20
-78.340075
 11
-95.978553
 21
-83.169743
  0
LINE
  8
ボルト／ビス
  6
CONTINUOUS
 62
    64
 10
-94.684485
 20
-68.873725
 11
-94.684485
 21
-78.340075
  0
LINE
  8
ボルト／ビス
  6
CONTINUOUS
 62
    64
 10
-94.517745
 20
-65.442775
 11
-94.28207
 21
-65.206935
  0
LINE
  8
ボルト／ビス
  6
CONTINUOUS
 62
    64
 10
-92.20466
 20
-65.442775
 11
-91.968985
 21
-65.206935
  0
LINE
  8
ボルト／ビス
  6
CONTINUOUS
 62
    64
 10
-92.20466
 20
-65.442775
 11
-92.20466
 21
-67.54026
  0
LINE
  8
ボルト／ビス
  6
CONTINUOUS
 62
    64
 10
-92.20466
 20
-65.442775
 11
-92.440335
 21
-65.206935
  0
LINE
  8
ボルト／ビス
  6
CONTINUOUS
 62
    64
 10
-92.253485
 20
-63.540343
 11
-92.253485
 21
-65.206935
  0
LINE
  8
ボルト／ビス
  6
CONTINUOUS
 62
    64
 10
-90.684395
 20
-67.54026
 11
-90.684395
 21
-68.373635
  0
LINE
  8
ボルト／ビス
  6
CONTINUOUS
 62
    64
 10
-92.017803
 20
-75.206975
 11
-92.253485
 21
-74.9713
  0
LINE
  8
ボルト／ビス
  6
CONTINUOUS
 62
    64
 10
-92.253485
 20
-68.873725
 11
-92.253485
 21
-74.9713
  0
LINE
  8
ボルト／ビス
  6
CONTINUOUS
 62
    64
 10
-92.017803
 20
-78.340075
 11
-90.723703
 21
-83.169743
  0
LINE
  8
ボルト／ビス
  6
CONTINUOUS
 62
    64
 10
-92.017803
 20
-68.873725
 11
-92.017803
 21
-78.340075
  0
LINE
  8
ボルト／ビス
  6
CONTINUOUS
 62
    64
 10
-92.017803
 20
-63.776018
 11
-92.253485
 21
-63.540343
  0
LINE
  8
ボルト／ビス
  6
CONTINUOUS
 62
    64
 10
-92.017803
 20
-65.206935
 11
-92.017803
 21
-63.776018
  0
LINE
  8
ボルト／ビス
  6
CONTINUOUS
 62
    64
 10
-92.253485
 20
-63.540343
 11
-94.44871
 21
-63.540343
  0
LINE
  8
ボルト／ビス
  6
CONTINUOUS
 62
    64
 10
-94.44871
 20
-63.540343
 11
-94.684485
 21
-63.776018
  0
LINE
  8
ボルト／ビス
  6
CONTINUOUS
 62
    64
 10
-92.017803
 20
-63.776018
 11
-94.684485
 21
-63.776018
  0
LINE
  8
ボルト／ビス
  6
CONTINUOUS
 62
    64
 10
-94.684485
 20
-65.206935
 11
-94.684485
 21
-63.776018
  0
LINE
  8
ボルト／ビス
  6
CONTINUOUS
 62
    64
 10
-96.28442
 20
-65.442775
 11
-96.048745
 21
-65.206935
  0
LINE
  8
ボルト／ビス
  6
CONTINUOUS
 62
    64
 10
-96.28442
 20
-65.442775
 11
-96.28442
 21
-67.54026
  0
LINE
  8
ボルト／ビス
  6
CONTINUOUS
 62
    64
 10
-96.048745
 20
-65.206935
 11
-90.65351
 21
-65.206935
  0
LINE
  8
ボルト／ビス
  6
CONTINUOUS
 62
    64
 10
-90.417835
 20
-65.442775
 11
-90.65351
 21
-65.206935
  0
LINE
  8
ボルト／ビス
  6
CONTINUOUS
 62
    64
 10
-90.417835
 20
-65.442775
 11
-90.417835
 21
-67.54026
  0
LINE
  8
ボルト／ビス
  6
CONTINUOUS
 62
    64
 10
-96.28442
 20
-67.54026
 11
-90.417835
 21
-67.54026
  0
LINE
  8
ボルト／ビス
  6
CONTINUOUS
 62
    64
 10
-90.10107
 20
-68.373635
 11
-90.10107
 21
-68.873725
  0
LINE
  8
ボルト／ビス
  6
CONTINUOUS
 62
    64
 10
-90.10107
 20
-68.373635
 11
-96.601127
 21
-68.373635
  0
LINE
  8
ボルト／ビス
  6
CONTINUOUS
 62
    64
 10
-96.601127
 20
-68.373635
 11
-96.601127
 21
-68.873725
  0
LINE
  8
ボルト／ビス
  6
CONTINUOUS
 62
    64
 10
-90.10107
 20
-68.873725
 11
-96.601127
 21
-68.873725
  0
LINE
  8
ボルト／ビス
  6
CONTINUOUS
 62
    64
 10
-93.351127
 20
-78.559567
 11
-92.022485
 21
-83.517792
  0
LINE
  8
ボルト／ビス
  6
CONTINUOUS
 62
    64
 10
-90.723703
 20
-83.169743
 11
-92.022485
 21
-83.517792
  0
LINE
  8
ボルト／ビス
  6
CONTINUOUS
 62
    64
 10
-93.351127
 20
-78.559567
 11
-94.679677
 21
-83.517792
  0
LINE
  8
ボルト／ビス
  6
CONTINUOUS
 62
    64
 10
-95.978553
 20
-83.169743
 11
-94.679677
 21
-83.517792
  0
LINE
  8
ボルト／ビス
  6
CONTINUOUS
 62
    64
 10
-94.684485
 20
-84.206925
 11
-94.254485
 21
-81.768225
  0
LINE
  8
ボルト／ビス
  6
CONTINUOUS
 62
    64
 10
-92.017803
 20
-84.206925
 11
-92.44777
 21
-81.768225
  0
LINE
  8
ボルト／ビス
  6
CONTINUOUS
 62
    64
 10
-94.684485
 20
-84.206925
 11
-92.017803
 21
-84.206925
  0
LINE
  8
ボルト／ビス
  6
CONTINUOUS
 62
    64
 10
-94.254485
 20
-81.768225
 11
-92.44777
 21
-81.768225
  0
ENDBLK
  0
BLOCK
  2
*GRP_0076
 70
    65
 10
0.0
 20
0.0
  0
ARC
  8
ゴム等
  6
CONTINUOUS
 62
   127
 10
-70.510248
 20
-22.773713
 40
0.5
 50
270.0
 51
360.0
  0
LINE
  8
ゴム等
  6
CONTINUOUS
 62
   127
 10
-70.010247
 20
-22.773712
 11
-70.010247
 21
-22.773712
  0
ARC
  8
ゴム等
  6
CONTINUOUS
 62
   127
 10
-70.510248
 20
-22.773713
 40
0.5
 50
0.0
 51
90.0
  0
LINE
  8
ゴム等
  6
CONTINUOUS
 62
   127
 10
-79.510247
 20
-23.273712
 11
-70.510247
 21
-23.273712
  0
ARC
  8
ゴム等
  6
CONTINUOUS
 62
   127
 10
-79.510248
 20
-22.773713
 40
0.5
 50
180.0
 51
270.0
  0
LINE
  8
ゴム等
  6
CONTINUOUS
 62
   127
 10
-80.010247
 20
-22.773712
 11
-80.010247
 21
-22.773712
  0
LINE
  8
ゴム等
  6
CONTINUOUS
 62
   127
 10
-79.510247
 20
-22.273712
 11
-70.510247
 21
-22.273712
  0
ARC
  8
ゴム等
  6
CONTINUOUS
 62
   127
 10
-79.510248
 20
-22.773713
 40
0.5
 50
90.0
 51
180.0
  0
ENDBLK
  0
BLOCK
  2
*GRP_0077
 70
    65
 10
0.0
 20
0.0
  0
ARC
  8
ゴム等
  6
CONTINUOUS
 62
   127
 10
61.645788
 20
-22.773713
 40
0.5
 50
180.0
 51
270.0
  0
LINE
  8
ゴム等
  6
CONTINUOUS
 62
   127
 10
61.145788
 20
-22.773712
 11
61.145788
 21
-22.773712
  0
ARC
  8
ゴム等
  6
CONTINUOUS
 62
   127
 10
61.645788
 20
-22.773713
 40
0.5
 50
90.0
 51
180.0
  0
LINE
  8
ゴム等
  6
CONTINUOUS
 62
   127
 10
70.645788
 20
-23.273712
 11
61.645788
 21
-23.273712
  0
ARC
  8
ゴム等
  6
CONTINUOUS
 62
   127
 10
70.645788
 20
-22.773713
 40
0.5
 50
-90.0
 51
0.0
  0
LINE
  8
ゴム等
  6
CONTINUOUS
 62
   127
 10
71.145788
 20
-22.773712
 11
71.145788
 21
-22.773712
  0
LINE
  8
ゴム等
  6
CONTINUOUS
 62
   127
 10
70.645788
 20
-22.273712
 11
61.645788
 21
-22.273712
  0
ARC
  8
ゴム等
  6
CONTINUOUS
 62
   127
 10
70.645788
 20
-22.773713
 40
0.5
 50
0.0
 51
90.0
  0
ENDBLK
  0
BLOCK
  2
*GRP_0078
 70
    65
 10
0.0
 20
0.0
  0
ARC
  8
St
  6
CONTINUOUS
 62
   127
 10
70.086668
 20
-51.007056
 40
1.066667
 50
360.0
 51
450.0
  0
LINE
  8
St
  6
CONTINUOUS
 62
   127
 10
83.81969
 20
-49.94039
 11
53.819982
 21
-49.94039
  0
LINE
  8
St
  6
CONTINUOUS
 62
   127
 10
83.81969
 20
-51.007055
 11
53.819982
 21
-51.007055
  0
LINE
  8
St
  6
CONTINUOUS
 62
   127
 10
53.819982
 20
-49.94039
 11
53.819982
 21
-51.007055
  0
LINE
  8
St
  6
CONTINUOUS
 10
56.421912
 20
-49.94039
 11
57.488578
 21
-51.007055
  0
LINE
  8
St
  6
CONTINUOUS
 10
56.18621
 20
-49.94039
 11
57.252875
 21
-51.007055
  0
LINE
  8
St
  6
CONTINUOUS
 10
77.497703
 20
-49.94039
 11
78.564367
 21
-51.007055
  0
LINE
  8
St
  6
CONTINUOUS
 10
77.262
 20
-49.94039
 11
78.328665
 21
-51.007055
  0
LINE
  8
St
  6
CONTINUOUS
 62
   127
 10
71.153335
 20
-66.607055
 11
70.08667
 21
-66.607055
  0
LINE
  8
St
  6
CONTINUOUS
 62
   127
 10
70.08667
 20
-51.007055
 11
70.08667
 21
-66.607055
  0
LINE
  8
St
  6
CONTINUOUS
 62
   127
 10
71.153335
 20
-51.007055
 11
71.153335
 21
-66.607055
  0
LINE
  8
St
  6
CONTINUOUS
 10
83.81969
 20
-49.94039
 11
83.81969
 21
-51.007055
  0
LINE
  8
St
  6
CONTINUOUS
 10
55.902422
 20
-49.940377
 11
55.902422
 21
-51.007045
  0
LINE
  8
St
  6
CONTINUOUS
 10
54.402422
 20
-49.940377
 11
54.402422
 21
-51.007045
  0
LINE
  8
St
  6
CONTINUOUS
 10
54.402422
 20
-50.207045
 11
55.902422
 21
-50.207045
  0
LINE
  8
St
  6
CONTINUOUS
 10
54.402422
 20
-50.47371
 11
55.902422
 21
-50.47371
  0
LINE
  8
St
  6
CONTINUOUS
 10
54.402422
 20
-50.740377
 11
55.902422
 21
-50.740377
  0
LINE
  8
St
  6
CONTINUOUS
 10
55.152422
 20
-52.024003
 11
55.152422
 21
-48.866457
  0
LINE
  8
St
  6
CONTINUOUS
 10
82.903023
 20
-49.940377
 11
82.903023
 21
-51.007045
  0
LINE
  8
St
  6
CONTINUOUS
 10
81.403023
 20
-49.940377
 11
81.403023
 21
-51.007045
  0
LINE
  8
St
  6
CONTINUOUS
 10
81.403023
 20
-50.207045
 11
82.903023
 21
-50.207045
  0
LINE
  8
St
  6
CONTINUOUS
 10
81.403023
 20
-50.47371
 11
82.903023
 21
-50.47371
  0
LINE
  8
St
  6
CONTINUOUS
 10
81.403023
 20
-50.740377
 11
82.903023
 21
-50.740377
  0
LINE
  8
St
  6
CONTINUOUS
 10
82.153023
 20
-52.024003
 11
82.153023
 21
-48.866457
  0
LINE
  8
St
  6
CONTINUOUS
 10
70.08667
 20
-63.273725
 11
71.153335
 21
-63.273725
  0
LINE
  8
St
  6
CONTINUOUS
 10
70.08667
 20
-59.94039
 11
71.153335
 21
-59.94039
  0
LINE
  8
St
  6
CONTINUOUS
 10
70.353338
 20
-59.94039
 11
70.353338
 21
-63.273725
  0
LINE
  8
St
  6
CONTINUOUS
 10
70.620003
 20
-59.94039
 11
70.620003
 21
-63.273725
  0
LINE
  8
St
  6
CONTINUOUS
 10
70.88667
 20
-59.94039
 11
70.88667
 21
-63.273725
  0
LINE
  8
St
  6
CONTINUOUS
 10
69.109245
 20
-61.607057
 11
72.089072
 21
-61.607057
  0
ENDBLK
  0
BLOCK
  2
*GRP_0079
 70
    65
 10
0.0
 20
0.0
  0
ARC
  8
St
  6
CONTINUOUS
 62
   127
 10
-78.951128
 20
-51.007056
 40
1.066667
 50
90.0
 51
180.0
  0
LINE
  8
St
  6
CONTINUOUS
 62
   127
 10
-92.68415
 20
-49.94039
 11
-62.684443
 21
-49.94039
  0
LINE
  8
St
  6
CONTINUOUS
 62
   127
 10
-92.68415
 20
-51.007055
 11
-62.684443
 21
-51.007055
  0
LINE
  8
St
  6
CONTINUOUS
 62
   127
 10
-62.684443
 20
-49.94039
 11
-62.684443
 21
-51.007055
  0
LINE
  8
St
  6
CONTINUOUS
 10
-65.286373
 20
-49.94039
 11
-66.353038
 21
-51.007055
  0
LINE
  8
St
  6
CONTINUOUS
 10
-65.05067
 20
-49.94039
 11
-66.117335
 21
-51.007055
  0
LINE
  8
St
  6
CONTINUOUS
 10
-86.362162
 20
-49.94039
 11
-87.428827
 21
-51.007055
  0
LINE
  8
St
  6
CONTINUOUS
 10
-86.12646
 20
-49.94039
 11
-87.193125
 21
-51.007055
  0
LINE
  8
St
  6
CONTINUOUS
 62
   127
 10
-80.017795
 20
-66.607055
 11
-78.95113
 21
-66.607055
  0
LINE
  8
St
  6
CONTINUOUS
 62
   127
 10
-78.95113
 20
-51.007055
 11
-78.95113
 21
-66.607055
  0
LINE
  8
St
  6
CONTINUOUS
 62
   127
 10
-80.017795
 20
-51.007055
 11
-80.017795
 21
-66.607055
  0
LINE
  8
St
  6
CONTINUOUS
 10
-92.68415
 20
-49.94039
 11
-92.68415
 21
-51.007055
  0
LINE
  8
St
  6
CONTINUOUS
 10
-64.766882
 20
-49.940377
 11
-64.766882
 21
-51.007045
  0
LINE
  8
St
  6
CONTINUOUS
 10
-63.266882
 20
-49.940377
 11
-63.266882
 21
-51.007045
  0
LINE
  8
St
  6
CONTINUOUS
 10
-63.266882
 20
-50.207045
 11
-64.766882
 21
-50.207045
  0
LINE
  8
St
  6
CONTINUOUS
 10
-63.266882
 20
-50.47371
 11
-64.766882
 21
-50.47371
  0
LINE
  8
St
  6
CONTINUOUS
 10
-63.266882
 20
-50.740377
 11
-64.766882
 21
-50.740377
  0
LINE
  8
St
  6
CONTINUOUS
 10
-64.016882
 20
-52.024003
 11
-64.016882
 21
-48.866457
  0
LINE
  8
St
  6
CONTINUOUS
 10
-91.767483
 20
-49.940377
 11
-91.767483
 21
-51.007045
  0
LINE
  8
St
  6
CONTINUOUS
 10
-90.267483
 20
-49.940377
 11
-90.267483
 21
-51.007045
  0
LINE
  8
St
  6
CONTINUOUS
 10
-90.267483
 20
-50.207045
 11
-91.767483
 21
-50.207045
  0
LINE
  8
St
  6
CONTINUOUS
 10
-90.267483
 20
-50.47371
 11
-91.767483
 21
-50.47371
  0
LINE
  8
St
  6
CONTINUOUS
 10
-90.267483
 20
-50.740377
 11
-91.767483
 21
-50.740377
  0
LINE
  8
St
  6
CONTINUOUS
 10
-91.017483
 20
-52.024003
 11
-91.017483
 21
-48.866457
  0
LINE
  8
St
  6
CONTINUOUS
 10
-78.95113
 20
-63.273725
 11
-80.017795
 21
-63.273725
  0
LINE
  8
St
  6
CONTINUOUS
 10
-78.95113
 20
-59.94039
 11
-80.017795
 21
-59.94039
  0
LINE
  8
St
  6
CONTINUOUS
 10
-79.217797
 20
-59.94039
 11
-79.217797
 21
-63.273725
  0
LINE
  8
St
  6
CONTINUOUS
 10
-79.484462
 20
-59.94039
 11
-79.484462
 21
-63.273725
  0
LINE
  8
St
  6
CONTINUOUS
 10
-79.75113
 20
-59.94039
 11
-79.75113
 21
-63.273725
  0
LINE
  8
St
  6
CONTINUOUS
 10
-77.973705
 20
-61.607057
 11
-80.953532
 21
-61.607057
  0
ENDBLK
  0
BLOCK
  2
*GRP_0080
 70
    65
 10
0.0
 20
0.0
  0
ARC
  8
St
  6
CONTINUOUS
 62
   127
 10
72.220007
 20
-68.873721
 40
1.066667
 50
180.0
 51
270.0
  0
LINE
  8
St
  6
CONTINUOUS
 10
100.367205
 20
-68.873722
 11
101.43387
 21
-69.94039
  0
LINE
  8
St
  6
CONTINUOUS
 10
100.60291
 20
-68.873722
 11
101.669575
 21
-69.94039
  0
LINE
  8
St
  6
CONTINUOUS
 62
   127
 10
72.220003
 20
-68.873722
 11
104.486667
 21
-68.873722
  0
LINE
  8
St
  6
CONTINUOUS
 10
104.486667
 20
-68.873722
 11
104.486667
 21
-69.94039
  0
LINE
  8
St
  6
CONTINUOUS
 62
   127
 10
72.220003
 20
-69.94039
 11
104.486667
 21
-69.94039
  0
LINE
  8
St
  6
CONTINUOUS
 10
79.285013
 20
-69.94039
 11
78.218347
 21
-68.873722
  0
LINE
  8
St
  6
CONTINUOUS
 10
79.520717
 20
-69.94039
 11
78.454053
 21
-68.873722
  0
LINE
  8
St
  6
CONTINUOUS
 10
72.220003
 20
-58.524283
 11
71.153335
 21
-57.457612
  0
LINE
  8
St
  6
CONTINUOUS
 10
72.220003
 20
-58.288577
 11
71.153335
 21
-57.221908
  0
LINE
  8
St
  6
CONTINUOUS
 10
72.220003
 20
-56.607055
 11
71.153335
 21
-56.607055
  0
LINE
  8
St
  6
CONTINUOUS
 62
   127
 10
71.153335
 20
-68.873722
 11
71.153335
 21
-56.607055
  0
LINE
  8
St
  6
CONTINUOUS
 62
   127
 10
72.220003
 20
-68.873722
 11
72.220003
 21
-56.607055
  0
LINE
  8
St
  6
DOT
 10
69.537628
 20
-61.607055
 11
73.753875
 21
-61.607055
  0
LINE
  8
St
  6
DOT
 62
   127
 10
88.4084
 20
-70.805518
 11
88.4084
 21
-70.805515
  0
LINE
  8
St
  6
DOT
 10
81.153335
 20
-68.873722
 11
81.153335
 21
-69.94039
  0
LINE
  8
St
  6
DOT
 10
87.82
 20
-68.873722
 11
87.82
 21
-69.94039
  0
LINE
  8
St
  6
DOT
 10
92.82
 20
-68.873722
 11
92.82
 21
-69.94039
  0
LINE
  8
St
  6
DOT
 10
96.153335
 20
-68.873722
 11
96.153335
 21
-69.94039
  0
LINE
  8
St
  6
DOT
 10
84.486667
 20
-67.519078
 11
84.486667
 21
-71.345277
  0
LINE
  8
St
  6
DOT
 62
   127
 10
87.82
 20
-69.14039
 11
81.153335
 21
-69.14039
  0
LINE
  8
St
  6
DOT
 62
   127
 10
87.82
 20
-69.407055
 11
81.153335
 21
-69.407055
  0
LINE
  8
St
  6
DOT
 62
   127
 10
87.82
 20
-69.673722
 11
81.153335
 21
-69.673722
  0
LINE
  8
St
  6
DOT
 10
92.82
 20
-69.14039
 11
96.153335
 21
-69.14039
  0
LINE
  8
St
  6
DOT
 10
92.82
 20
-69.407055
 11
96.153335
 21
-69.407055
  0
LINE
  8
St
  6
DOT
 10
92.82
 20
-69.673722
 11
96.153335
 21
-69.673722
  0
LINE
  8
St
  6
DOT
 10
94.486667
 20
-67.519078
 11
94.486667
 21
-71.345277
  0
LINE
  8
St
  6
DOT
 10
71.153335
 20
-68.873722
 11
72.220003
 21
-68.873722
  0
LINE
  8
St
  6
DOT
 10
71.153335
 20
-58.27372
 11
72.220003
 21
-58.27372
  0
LINE
  8
St
  6
DOT
 10
72.220003
 20
-62.607055
 11
71.153335
 21
-62.607055
  0
LINE
  8
St
  6
DOT
 10
72.220003
 20
-60.607055
 11
71.153335
 21
-60.607055
  0
LINE
  8
St
  6
DOT
 62
   127
 10
71.953335
 20
-68.873722
 11
71.953335
 21
-58.27372
  0
LINE
  8
St
  6
DOT
 62
   127
 10
71.68667
 20
-68.873722
 11
71.68667
 21
-58.27372
  0
LINE
  8
St
  6
DOT
 62
   127
 10
71.420003
 20
-68.873722
 11
71.420003
 21
-58.27372
  0
ENDBLK
  0
BLOCK
  2
*GRP_0081
 70
    65
 10
0.0
 20
0.0
  0
ARC
  8
St
  6
CONTINUOUS
 62
   127
 10
-81.084467
 20
-68.873721
 40
1.066667
 50
-90.0
 51
0.0
  0
LINE
  8
St
  6
CONTINUOUS
 10
-109.231665
 20
-68.873722
 11
-110.29833
 21
-69.94039
  0
LINE
  8
St
  6
CONTINUOUS
 10
-109.46737
 20
-68.873722
 11
-110.534035
 21
-69.94039
  0
LINE
  8
St
  6
CONTINUOUS
 62
   127
 10
-81.084462
 20
-68.873722
 11
-113.351127
 21
-68.873722
  0
LINE
  8
St
  6
CONTINUOUS
 10
-113.351127
 20
-68.873722
 11
-113.351127
 21
-69.94039
  0
LINE
  8
St
  6
CONTINUOUS
 62
   127
 10
-81.084462
 20
-69.94039
 11
-113.351127
 21
-69.94039
  0
LINE
  8
St
  6
CONTINUOUS
 10
-88.149472
 20
-69.94039
 11
-87.082808
 21
-68.873722
  0
LINE
  8
St
  6
CONTINUOUS
 10
-88.385178
 20
-69.94039
 11
-87.318512
 21
-68.873722
  0
LINE
  8
St
  6
CONTINUOUS
 10
-81.084462
 20
-58.524283
 11
-80.017795
 21
-57.457612
  0
LINE
  8
St
  6
CONTINUOUS
 10
-81.084462
 20
-58.288577
 11
-80.017795
 21
-57.221908
  0
LINE
  8
St
  6
CONTINUOUS
 10
-81.084462
 20
-56.607055
 11
-80.017795
 21
-56.607055
  0
LINE
  8
St
  6
CONTINUOUS
 62
   127
 10
-80.017795
 20
-68.873722
 11
-80.017795
 21
-56.607055
  0
LINE
  8
St
  6
CONTINUOUS
 62
   127
 10
-81.084462
 20
-68.873722
 11
-81.084462
 21
-56.607055
  0
LINE
  8
St
  6
DOT
 10
-78.402088
 20
-61.607055
 11
-82.618335
 21
-61.607055
  0
LINE
  8
St
  6
DOT
 62
   127
 10
-97.27286
 20
-70.805518
 11
-97.27286
 21
-70.805515
  0
LINE
  8
St
  6
DOT
 10
-90.017795
 20
-68.873722
 11
-90.017795
 21
-69.94039
  0
LINE
  8
St
  6
DOT
 10
-96.68446
 20
-68.873722
 11
-96.68446
 21
-69.94039
  0
LINE
  8
St
  6
DOT
 10
-101.68446
 20
-68.873722
 11
-101.68446
 21
-69.94039
  0
LINE
  8
St
  6
DOT
 10
-105.017795
 20
-68.873722
 11
-105.017795
 21
-69.94039
  0
LINE
  8
St
  6
DOT
 10
-93.351127
 20
-67.519078
 11
-93.351127
 21
-71.345277
  0
LINE
  8
St
  6
DOT
 62
   127
 10
-96.68446
 20
-69.14039
 11
-90.017795
 21
-69.14039
  0
LINE
  8
St
  6
DOT
 62
   127
 10
-96.68446
 20
-69.407055
 11
-90.017795
 21
-69.407055
  0
LINE
  8
St
  6
DOT
 62
   127
 10
-96.68446
 20
-69.673722
 11
-90.017795
 21
-69.673722
  0
LINE
  8
St
  6
DOT
 10
-101.68446
 20
-69.14039
 11
-105.017795
 21
-69.14039
  0
LINE
  8
St
  6
DOT
 10
-101.68446
 20
-69.407055
 11
-105.017795
 21
-69.407055
  0
LINE
  8
St
  6
DOT
 10
-101.68446
 20
-69.673722
 11
-105.017795
 21
-69.673722
  0
LINE
  8
St
  6
DOT
 10
-103.351127
 20
-67.519078
 11
-103.351127
 21
-71.345277
  0
LINE
  8
St
  6
DOT
 10
-80.017795
 20
-68.873722
 11
-81.084462
 21
-68.873722
  0
LINE
  8
St
  6
DOT
 10
-80.017795
 20
-58.27372
 11
-81.084462
 21
-58.27372
  0
LINE
  8
St
  6
DOT
 10
-81.084462
 20
-62.607055
 11
-80.017795
 21
-62.607055
  0
LINE
  8
St
  6
DOT
 10
-81.084462
 20
-60.607055
 11
-80.017795
 21
-60.607055
  0
LINE
  8
St
  6
DOT
 62
   127
 10
-80.817795
 20
-68.873722
 11
-80.817795
 21
-58.27372
  0
LINE
  8
St
  6
DOT
 62
   127
 10
-80.55113
 20
-68.873722
 11
-80.55113
 21
-58.27372
  0
LINE
  8
St
  6
DOT
 62
   127
 10
-80.284462
 20
-68.873722
 11
-80.284462
 21
-58.27372
  0
ENDBLK
  0
BLOCK
  2
*GRP_0082
 70
    65
 10
0.0
 20
0.0
  0
ARC
  8
投影線02
  6
CONTINUOUS
 62
   127
 10
2.434412
 20
-30.973738
 40
0.533333
 50
0.0
 51
90.0
  0
LINE
  8
投影線02
  6
CONTINUOUS
 62
   127
 10
-4.432237
 20
-30.97373
 11
2.43443
 21
-30.97373
  0
LINE
  8
投影線02
  6
CONTINUOUS
 62
   127
 10
-4.432237
 20
-30.440405
 11
2.43443
 21
-30.440405
  0
ARC
  8
投影線02
  6
CONTINUOUS
 62
   127
 10
-11.298914
 20
-30.973738
 40
0.533333
 50
90.0
 51
180.0
  0
LINE
  8
投影線02
  6
CONTINUOUS
 62
   127
 10
-4.432237
 20
-30.97373
 11
-11.298905
 21
-30.97373
  0
LINE
  8
投影線02
  6
CONTINUOUS
 62
   127
 10
-4.432237
 20
-30.440405
 11
-11.298905
 21
-30.440405
  0
LINE
  8
投影線02
  6
CONTINUOUS
 62
   127
 10
2.43443
 20
-34.27373
 11
2.43443
 21
-30.97373
  0
LINE
  8
投影線02
  6
CONTINUOUS
 62
   127
 10
2.967763
 20
-34.27373
 11
2.967763
 21
-30.97373
  0
LINE
  8
投影線02
  6
CONTINUOUS
 62
   127
 10
-11.832237
 20
-34.27373
 11
-11.832237
 21
-30.97373
  0
LINE
  8
投影線02
  6
CONTINUOUS
 62
   127
 10
-11.298905
 20
-34.27373
 11
-11.298905
 21
-30.97373
  0
LINE
  8
投影線02
  6
CONTINUOUS
 62
   127
 10
-11.832237
 20
-33.401223
 11
-11.298905
 21
-32.867887
  0
LINE
  8
投影線02
  6
CONTINUOUS
 62
   127
 10
-9.404745
 20
-30.97373
 11
-8.87142
 21
-30.440405
  0
LINE
  8
投影線02
  6
CONTINUOUS
 62
   127
 10
-11.832237
 20
-33.636923
 11
-11.298905
 21
-33.103587
  0
LINE
  8
投影線02
  6
CONTINUOUS
 62
   127
 10
-9.169045
 20
-30.97373
 11
-8.63572
 21
-30.440405
  0
LINE
  8
投影線02
  6
CONTINUOUS
 62
   127
 10
2.43443
 20
-33.401223
 11
2.967763
 21
-32.867887
  0
LINE
  8
投影線02
  6
CONTINUOUS
 62
   127
 10
2.43443
 20
-33.636923
 11
2.967763
 21
-33.103587
  0
LINE
  8
投影線02
  6
CONTINUOUS
 62
   127
 10
-1.10932
 20
-30.97373
 11
-0.575987
 21
-30.440405
  0
LINE
  8
投影線02
  6
CONTINUOUS
 62
   127
 10
-0.87362
 20
-30.97373
 11
-0.340287
 21
-30.440405
  0
LINE
  8
投影線02
  6
CONTINUOUS
 62
   127
 10
-11.832237
 20
-34.27373
 11
-11.298905
 21
-34.27373
  0
LINE
  8
投影線02
  6
CONTINUOUS
 62
   127
 10
2.43443
 20
-34.27373
 11
2.967763
 21
-34.27373
  0
ENDBLK
  0
BLOCK
  2
*GRP_0083
 70
    65
 10
0.0
 20
0.0
  0
LINE
  8
ボルト／ビス
  6
CONTINUOUS
 10
-76.620755
 20
-18.707057
 11
-76.941505
 21
-18.823802
  0
ARC
  8
ボルト／ビス
  6
CONTINUOUS
 10
-76.460381
 20
-19.756841
 40
1.049784
 50
62.721967
 51
90.0
  0
ARC
  8
ボルト／ビス
  6
CONTINUOUS
 10
-75.017005
 20
-22.73108
 40
4.024022
 50
76.165002
 51
103.834985
  0
LINE
  8
ボルト／ビス
  6
CONTINUOUS
 10
-73.413252
 20
-18.707057
 11
-73.092502
 21
-18.823802
  0
ARC
  8
ボルト／ビス
  6
CONTINUOUS
 10
-73.573629
 20
-19.756841
 40
1.049784
 50
90.0
 51
117.278033
  0
LINE
  8
ボルト／ビス
  6
CONTINUOUS
 10
-76.620755
 20
-18.707057
 11
-73.413252
 21
-18.707057
  0
LINE
  8
ボルト／ビス
  6
CONTINUOUS
 10
-73.092502
 20
-18.823802
 11
-73.092502
 21
-20.040392
  0
LINE
  8
ボルト／ビス
  6
CONTINUOUS
 10
-74.054752
 20
-18.823802
 11
-74.054752
 21
-20.040392
  0
LINE
  8
ボルト／ビス
  6
CONTINUOUS
 10
-76.941505
 20
-18.823802
 11
-76.941505
 21
-20.040392
  0
LINE
  8
ボルト／ビス
  6
CONTINUOUS
 10
-75.979252
 20
-18.823802
 11
-75.979252
 21
-20.040392
  0
LINE
  8
ボルト／ビス
  6
CONTINUOUS
 10
-75.017003
 20
-20.540392
 11
-75.017003
 21
-20.040392
  0
LINE
  8
ボルト／ビス
  6
CONTINUOUS
 10
-75.017003
 20
-17.040392
 11
-75.017003
 21
-28.373725
  0
LINE
  8
ボルト／ビス
  6
CONTINUOUS
 10
-74.017003
 20
-26.373725
 11
-74.250335
 21
-26.707057
  0
LINE
  8
ボルト／ビス
  6
CONTINUOUS
 10
-76.017003
 20
-26.373725
 11
-75.78367
 21
-26.707057
  0
LINE
  8
ボルト／ビス
  6
CONTINUOUS
 10
-76.017003
 20
-26.373725
 11
-74.017003
 21
-26.373725
  0
LINE
  8
ボルト／ビス
  6
CONTINUOUS
 10
-75.78367
 20
-26.707057
 11
-74.250335
 21
-26.707057
  0
LINE
  8
ボルト／ビス
  6
CONTINUOUS
 10
-73.092502
 20
-20.040392
 11
-76.941505
 21
-20.040392
  0
LINE
  8
ボルト／ビス
  6
CONTINUOUS
 10
-76.017003
 20
-26.373725
 11
-76.017003
 21
-20.040392
  0
LINE
  8
ボルト／ビス
  6
CONTINUOUS
 10
-75.78367
 20
-26.707057
 11
-75.78367
 21
-20.040392
  0
LINE
  8
ボルト／ビス
  6
CONTINUOUS
 10
-74.017003
 20
-26.373725
 11
-74.017003
 21
-20.040392
  0
LINE
  8
ボルト／ビス
  6
CONTINUOUS
 10
-74.250335
 20
-26.707057
 11
-74.250335
 21
-20.040392
  0
ENDBLK
  0
BLOCK
  2
*GRP_0084
 70
    65
 10
0.0
 20
0.0
  0
LINE
  8
ボルト／ビス
  6
CONTINUOUS
 10
67.756295
 20
-18.707057
 11
68.077045
 21
-18.823802
  0
ARC
  8
ボルト／ビス
  6
CONTINUOUS
 10
67.595921
 20
-19.756841
 40
1.049784
 50
90.0
 51
117.278033
  0
ARC
  8
ボルト／ビス
  6
CONTINUOUS
 10
66.152545
 20
-22.73108
 40
4.024022
 50
76.165015
 51
103.834998
  0
LINE
  8
ボルト／ビス
  6
CONTINUOUS
 10
64.548792
 20
-18.707057
 11
64.228043
 21
-18.823802
  0
ARC
  8
ボルト／ビス
  6
CONTINUOUS
 10
64.709169
 20
-19.756841
 40
1.049784
 50
62.721967
 51
90.0
  0
LINE
  8
ボルト／ビス
  6
CONTINUOUS
 10
67.756295
 20
-18.707057
 11
64.548792
 21
-18.707057
  0
LINE
  8
ボルト／ビス
  6
CONTINUOUS
 10
64.228043
 20
-18.823802
 11
64.228043
 21
-20.040392
  0
LINE
  8
ボルト／ビス
  6
CONTINUOUS
 10
65.190293
 20
-18.823802
 11
65.190293
 21
-20.040392
  0
LINE
  8
ボルト／ビス
  6
CONTINUOUS
 10
68.077045
 20
-18.823802
 11
68.077045
 21
-20.040392
  0
LINE
  8
ボルト／ビス
  6
CONTINUOUS
 10
67.114792
 20
-18.823802
 11
67.114792
 21
-20.040392
  0
LINE
  8
ボルト／ビス
  6
CONTINUOUS
 10
66.152542
 20
-20.540392
 11
66.152542
 21
-20.040392
  0
LINE
  8
ボルト／ビス
  6
CONTINUOUS
 10
66.152542
 20
-17.040392
 11
66.152542
 21
-28.373725
  0
LINE
  8
ボルト／ビス
  6
CONTINUOUS
 10
65.152542
 20
-26.373725
 11
65.385875
 21
-26.707057
  0
LINE
  8
ボルト／ビス
  6
CONTINUOUS
 10
67.152542
 20
-26.373725
 11
66.91921
 21
-26.707057
  0
LINE
  8
ボルト／ビス
  6
CONTINUOUS
 10
67.152542
 20
-26.373725
 11
65.152542
 21
-26.373725
  0
LINE
  8
ボルト／ビス
  6
CONTINUOUS
 10
66.91921
 20
-26.707057
 11
65.385875
 21
-26.707057
  0
LINE
  8
ボルト／ビス
  6
CONTINUOUS
 10
64.228043
 20
-20.040392
 11
68.077045
 21
-20.040392
  0
LINE
  8
ボルト／ビス
  6
CONTINUOUS
 10
67.152542
 20
-26.373725
 11
67.152542
 21
-20.040392
  0
LINE
  8
ボルト／ビス
  6
CONTINUOUS
 10
66.91921
 20
-26.707057
 11
66.91921
 21
-20.040392
  0
LINE
  8
ボルト／ビス
  6
CONTINUOUS
 10
65.152542
 20
-26.373725
 11
65.152542
 21
-20.040392
  0
LINE
  8
ボルト／ビス
  6
CONTINUOUS
 10
65.385875
 20
-26.707057
 11
65.385875
 21
-20.040392
  0
ENDBLK
  0
BLOCK
  2
*GRP_0085
 70
    65
 10
0.0
 20
0.0
  0
LINE
  8
補助線
  6
DOT
 62
    64
 10
-11.098898
 20
-31.60707
 11
-14.565563
 21
-31.60707
  0
LINE
  8
補助線
  6
DOT
 62
    64
 10
-12.83223
 20
-29.873737
 11
-12.83223
 21
-33.340402
  0
ENDBLK
  0
BLOCK
  2
*GRP_0086
 70
    65
 10
0.0
 20
0.0
  0
LINE
  8
補助線
  6
DOT
 62
    64
 10
2.234438
 20
-31.60707
 11
5.701102
 21
-31.60707
  0
LINE
  8
補助線
  6
DOT
 62
    64
 10
3.96777
 20
-29.873737
 11
3.96777
 21
-33.340402
  0
ENDBLK
  0
BLOCK
  2
*DIM_0087
 70
    65
 10
0.0
 20
0.0
  0
LINE
  8
寸法
  6
CONTINUOUS
 10
-171.343318
 20
118.183128
 11
-174.33379
 21
118.183128
  0
LINE
  8
寸法
  6
CONTINUOUS
 10
-171.343318
 20
102.183128
 11
-174.33379
 21
102.183128
  0
LINE
  8
寸法
  6
CONTINUOUS
 10
-174.33379
 20
118.183128
 11
-174.33379
 21
102.183128
  0
POINT
  8
寸法
 10
-174.33379
 20
118.183128
  0
POINT
  8
寸法
 10
-174.33379
 20
102.183128
  0
TEXT
  7
TextStyle03
  8
寸法
  6
CONTINUOUS
 10
-174.725
 20
105.20625
  1
□1600
 40
3.0
 50
90.0
 72
     5
 11
-174.725
 21
115.14375
  0
ENDBLK
  0
BLOCK
  2
*GRP_0088
 70
    65
 10
0.0
 20
0.0
  0
POLYLINE
  8
寸法
  6
CONTINUOUS
 66
     1
  0
VERTEX
  8
寸法
 10
-161.29809
 20
109.269028
  0
VERTEX
  8
寸法
 10
-158.343318
 20
108.750067
  0
VERTEX
  8
寸法
 10
-160.642745
 20
110.676885
  0
SEQEND
  0
LINE
  8
寸法
  6
CONTINUOUS
 10
-158.343318
 20
108.750067
 11
-163.18778
 21
111.005115
  0
ENDBLK
  0
BLOCK
  2
*DIM_0089
 70
    65
 10
0.0
 20
0.0
  0
LINE
  8
寸法
  6
CONTINUOUS
 10
-131.332975
 20
102.183128
 11
-136.44739
 21
102.183128
  0
LINE
  8
寸法
  6
CONTINUOUS
 10
-131.332975
 20
120.183128
 11
-136.44739
 21
120.183128
  0
LINE
  8
寸法
  6
CONTINUOUS
 10
-136.44739
 20
102.183128
 11
-136.44739
 21
120.183128
  0
POINT
  8
寸法
 10
-136.44739
 20
102.183128
  0
POINT
  8
寸法
 10
-136.44739
 20
120.183128
  0
TEXT
  7
TextStyle03
  8
寸法
  6
CONTINUOUS
 10
-136.825
 20
106.23125
  1
□1800
 40
3.0
 50
90.0
 72
     5
 11
-136.825
 21
116.16875
  0
ENDBLK
  0
BLOCK
  2
*GRP_0090
 70
    65
 10
0.0
 20
0.0
  0
POLYLINE
  8
寸法
  6
CONTINUOUS
 66
     1
  0
VERTEX
  8
寸法
 10
-120.287748
 20
114.435395
  0
VERTEX
  8
寸法
 10
-117.332975
 20
113.916435
  0
VERTEX
  8
寸法
 10
-119.632402
 20
115.843253
  0
SEQEND
  0
LINE
  8
寸法
  6
CONTINUOUS
 10
-117.332975
 20
113.916435
 11
-122.177438
 21
116.171482
  0
ENDBLK
  0
BLOCK
  2
*GRP_0091
 70
    65
 10
0.0
 20
0.0
  0
POLYLINE
  8
寸法
  6
CONTINUOUS
 66
     1
  0
VERTEX
  8
寸法
 10
-112.125363
 20
109.095785
  0
VERTEX
  8
寸法
 10
-114.280125
 20
111.183128
  0
VERTEX
  8
寸法
 10
-113.457715
 20
108.298055
  0
SEQEND
  0
LINE
  8
寸法
  6
CONTINUOUS
 10
-114.280125
 20
111.183128
 11
-111.754068
 21
106.964155
  0
ENDBLK
  0
BLOCK
  2
*GRP_0092
 70
    65
 10
0.0
 20
0.0
  0
POLYLINE
  8
寸法
  6
CONTINUOUS
 66
     1
  0
VERTEX
  8
寸法
 10
-121.894988
 20
109.095785
  0
VERTEX
  8
寸法
 10
-124.04975
 20
111.183128
  0
VERTEX
  8
寸法
 10
-123.22734
 20
108.298055
  0
SEQEND
  0
LINE
  8
寸法
  6
CONTINUOUS
 10
-124.04975
 20
111.183128
 11
-121.523693
 21
106.964155
  0
ENDBLK
  0
BLOCK
  2
*DIM_0093
 70
    65
 10
0.0
 20
0.0
  0
LINE
  8
寸法
  6
CONTINUOUS
 10
-90.77589
 20
102.183128
 11
-94.670677
 21
102.183128
  0
LINE
  8
寸法
  6
CONTINUOUS
 10
-90.77589
 20
122.183128
 11
-94.670677
 21
122.183128
  0
LINE
  8
寸法
  6
CONTINUOUS
 10
-94.670677
 20
102.183128
 11
-94.670677
 21
122.183128
  0
POINT
  8
寸法
 10
-94.670677
 20
102.183128
  0
POINT
  8
寸法
 10
-94.670677
 20
122.183128
  0
TEXT
  7
TextStyle03
  8
寸法
  6
CONTINUOUS
 10
-95.075
 20
107.20625
  1
□2000
 40
3.0
 50
90.0
 72
     5
 11
-95.075
 21
117.14375
  0
ENDBLK
  0
BLOCK
  2
*GRP_0094
 70
    65
 10
0.0
 20
0.0
  0
POLYLINE
  8
寸法
  6
CONTINUOUS
 66
     1
  0
VERTEX
  8
寸法
 10
-70.519065
 20
110.095785
  0
VERTEX
  8
寸法
 10
-72.673827
 20
112.183128
  0
VERTEX
  8
寸法
 10
-71.851418
 20
109.298055
  0
SEQEND
  0
LINE
  8
寸法
  6
CONTINUOUS
 10
-72.673827
 20
112.183128
 11
-70.14777
 21
107.964155
  0
ENDBLK
  0
BLOCK
  2
*GRP_0095
 70
    65
 10
0.0
 20
0.0
  0
POLYLINE
  8
寸法
  6
CONTINUOUS
 66
     1
  0
VERTEX
  8
寸法
 10
-80.528185
 20
110.095785
  0
VERTEX
  8
寸法
 10
-82.682947
 20
112.183128
  0
VERTEX
  8
寸法
 10
-81.860538
 20
109.298055
  0
SEQEND
  0
LINE
  8
寸法
  6
CONTINUOUS
 10
-82.682947
 20
112.183128
 11
-80.15689
 21
107.964155
  0
ENDBLK
  0
BLOCK
  2
*GRP_0096
 70
    65
 10
0.0
 20
0.0
  0
POLYLINE
  8
寸法
  6
CONTINUOUS
 66
     1
  0
VERTEX
  8
寸法
 10
-78.730663
 20
116.187838
  0
VERTEX
  8
寸法
 10
-75.77589
 20
115.668878
  0
VERTEX
  8
寸法
 10
-78.075317
 20
117.595695
  0
SEQEND
  0
LINE
  8
寸法
  6
CONTINUOUS
 10
-75.77589
 20
115.668878
 11
-80.620352
 21
117.923925
  0
ENDBLK
  0
BLOCK
  2
*DIM_0097
 70
    65
 10
0.0
 20
0.0
  0
LINE
  8
寸法
  6
CONTINUOUS
 10
-171.556818
 20
79.135852
 11
-174.33304
 21
79.135852
  0
LINE
  8
寸法
  6
CONTINUOUS
 10
-171.556818
 20
73.135852
 11
-174.33304
 21
73.135852
  0
LINE
  8
寸法
  6
CONTINUOUS
 10
-174.33304
 20
79.135852
 11
-174.33304
 21
73.135852
  0
POINT
  8
寸法
 10
-174.33304
 20
79.135852
  0
POINT
  8
寸法
 10
-174.33304
 20
73.135852
  0
TEXT
  7
TextStyle03
  8
寸法
  6
CONTINUOUS
 10
-174.7
 20
73.6625
  1
600
 40
3.0
 50
90.0
 72
     5
 11
-174.7
 21
78.5375
  0
ENDBLK
  0
BLOCK
  2
*DIM_0098
 70
    65
 10
0.0
 20
0.0
  0
LINE
  8
寸法
  6
CONTINUOUS
 10
-171.556818
 20
57.52999
 11
-174.33304
 21
57.52999
  0
LINE
  8
寸法
  6
CONTINUOUS
 10
-171.556818
 20
48.52999
 11
-174.33304
 21
48.52999
  0
LINE
  8
寸法
  6
CONTINUOUS
 10
-174.33304
 20
57.52999
 11
-174.33304
 21
48.52999
  0
POINT
  8
寸法
 10
-174.33304
 20
57.52999
  0
POINT
  8
寸法
 10
-174.33304
 20
48.52999
  0
TEXT
  7
TextStyle03
  8
寸法
  6
CONTINUOUS
 10
-174.7
 20
50.5625
  1
900
 40
3.0
 50
90.0
 72
     5
 11
-174.7
 21
55.4375
  0
ENDBLK
  0
BLOCK
  2
*DIM_0099
 70
    65
 10
0.0
 20
0.0
  0
LINE
  8
寸法
  6
CONTINUOUS
 10
-171.556818
 20
31.731942
 11
-174.33304
 21
31.731942
  0
LINE
  8
寸法
  6
CONTINUOUS
 10
-171.556818
 20
18.731942
 11
-174.33304
 21
18.731942
  0
LINE
  8
寸法
  6
CONTINUOUS
 10
-174.33304
 20
31.731942
 11
-174.33304
 21
18.731942
  0
POINT
  8
寸法
 10
-174.33304
 20
31.731942
  0
POINT
  8
寸法
 10
-174.33304
 20
18.731942
  0
TEXT
  7
TextStyle03
  8
寸法
  6
CONTINUOUS
 10
-174.7
 20
21.94375
  1
1300
 40
3.0
 50
90.0
 72
     5
 11
-174.7
 21
28.50625
  0
ENDBLK
  0
BLOCK
  2
*DIM_0100
 70
    65
 10
0.0
 20
0.0
  0
LINE
  8
寸法
  6
CONTINUOUS
 10
-171.556818
 20
2.064187
 11
-174.33304
 21
2.064187
  0
LINE
  8
寸法
  6
CONTINUOUS
 10
-171.556818
 20
-17.935812
 11
-174.33304
 21
-17.935812
  0
LINE
  8
寸法
  6
CONTINUOUS
 10
-174.33304
 20
2.064187
 11
-174.33304
 21
-17.935812
  0
POINT
  8
寸法
 10
-174.33304
 20
2.064187
  0
POINT
  8
寸法
 10
-174.33304
 20
-17.935812
  0
TEXT
  7
TextStyle03
  8
寸法
  6
CONTINUOUS
 10
-174.7
 20
-11.20625
  1
2000
 40
3.0
 50
90.0
 72
     5
 11
-174.7
 21
-4.64375
  0
ENDBLK
  0
BLOCK
  2
*GRP_0101
 70
    65
 10
0.0
 20
0.0
  0
POLYLINE
  8
寸法
  6
CONTINUOUS
 66
     1
  0
VERTEX
  8
寸法
 10
-159.51159
 20
74.884293
  0
VERTEX
  8
寸法
 10
-156.556818
 20
74.365332
  0
VERTEX
  8
寸法
 10
-158.856245
 20
76.29215
  0
SEQEND
  0
LINE
  8
寸法
  6
CONTINUOUS
 10
-156.556818
 20
74.365332
 11
-161.40128
 21
76.62038
  0
ENDBLK
  0
BLOCK
  2
*GRP_0102
 70
    65
 10
0.0
 20
0.0
  0
POLYLINE
  8
寸法
  6
CONTINUOUS
 66
     1
  0
VERTEX
  8
寸法
 10
-149.51159
 20
74.884293
  0
VERTEX
  8
寸法
 10
-146.556818
 20
74.365332
  0
VERTEX
  8
寸法
 10
-148.856245
 20
76.29215
  0
SEQEND
  0
LINE
  8
寸法
  6
CONTINUOUS
 10
-146.556818
 20
74.365332
 11
-151.40128
 21
76.62038
  0
ENDBLK
  0
BLOCK
  2
*GRP_0103
 70
    65
 10
0.0
 20
0.0
  0
POLYLINE
  8
寸法
  6
CONTINUOUS
 66
     1
  0
VERTEX
  8
寸法
 10
-139.51159
 20
74.884293
  0
VERTEX
  8
寸法
 10
-136.556818
 20
74.365332
  0
VERTEX
  8
寸法
 10
-138.856245
 20
76.29215
  0
SEQEND
  0
LINE
  8
寸法
  6
CONTINUOUS
 10
-136.556818
 20
74.365332
 11
-141.40128
 21
76.62038
  0
ENDBLK
  0
BLOCK
  2
*GRP_0104
 70
    65
 10
0.0
 20
0.0
  0
POLYLINE
  8
寸法
  6
CONTINUOUS
 66
     1
  0
VERTEX
  8
寸法
 10
-159.51159
 20
52.47224
  0
VERTEX
  8
寸法
 10
-156.556818
 20
51.95328
  0
VERTEX
  8
寸法
 10
-158.856245
 20
53.880098
  0
SEQEND
  0
LINE
  8
寸法
  6
CONTINUOUS
 10
-156.556818
 20
51.95328
 11
-161.40128
 21
54.208328
  0
ENDBLK
  0
BLOCK
  2
*GRP_0105
 70
    65
 10
0.0
 20
0.0
  0
POLYLINE
  8
寸法
  6
CONTINUOUS
 66
     1
  0
VERTEX
  8
寸法
 10
-149.51159
 20
52.47224
  0
VERTEX
  8
寸法
 10
-146.556818
 20
51.95328
  0
VERTEX
  8
寸法
 10
-148.856245
 20
53.880098
  0
SEQEND
  0
LINE
  8
寸法
  6
CONTINUOUS
 10
-146.556818
 20
51.95328
 11
-151.40128
 21
54.208328
  0
ENDBLK
  0
BLOCK
  2
*GRP_0106
 70
    65
 10
0.0
 20
0.0
  0
POLYLINE
  8
寸法
  6
CONTINUOUS
 66
     1
  0
VERTEX
  8
寸法
 10
-139.51159
 20
52.47224
  0
VERTEX
  8
寸法
 10
-136.556818
 20
51.95328
  0
VERTEX
  8
寸法
 10
-138.856245
 20
53.880098
  0
SEQEND
  0
LINE
  8
寸法
  6
CONTINUOUS
 10
-136.556818
 20
51.95328
 11
-141.40128
 21
54.208328
  0
ENDBLK
  0
BLOCK
  2
*GRP_0107
 70
    65
 10
0.0
 20
0.0
  0
POLYLINE
  8
寸法
  6
CONTINUOUS
 66
     1
  0
VERTEX
  8
寸法
 10
-159.51159
 20
23.933152
  0
VERTEX
  8
寸法
 10
-156.556818
 20
23.414192
  0
VERTEX
  8
寸法
 10
-158.856245
 20
25.34101
  0
SEQEND
  0
LINE
  8
寸法
  6
CONTINUOUS
 10
-156.556818
 20
23.414192
 11
-161.40128
 21
25.66924
  0
ENDBLK
  0
BLOCK
  2
*GRP_0108
 70
    65
 10
0.0
 20
0.0
  0
POLYLINE
  8
寸法
  6
CONTINUOUS
 66
     1
  0
VERTEX
  8
寸法
 10
-149.51159
 20
23.933152
  0
VERTEX
  8
寸法
 10
-146.556818
 20
23.414192
  0
VERTEX
  8
寸法
 10
-148.856245
 20
25.34101
  0
SEQEND
  0
LINE
  8
寸法
  6
CONTINUOUS
 10
-146.556818
 20
23.414192
 11
-151.40128
 21
25.66924
  0
ENDBLK
  0
BLOCK
  2
*GRP_0109
 70
    65
 10
0.0
 20
0.0
  0
POLYLINE
  8
寸法
  6
CONTINUOUS
 66
     1
  0
VERTEX
  8
寸法
 10
-139.51159
 20
23.933152
  0
VERTEX
  8
寸法
 10
-136.556818
 20
23.414192
  0
VERTEX
  8
寸法
 10
-138.856245
 20
25.34101
  0
SEQEND
  0
LINE
  8
寸法
  6
CONTINUOUS
 10
-136.556818
 20
23.414192
 11
-141.40128
 21
25.66924
  0
ENDBLK
  0
BLOCK
  2
*GRP_0110
 70
    65
 10
0.0
 20
0.0
  0
POLYLINE
  8
寸法
  6
CONTINUOUS
 66
     1
  0
VERTEX
  8
寸法
 10
-159.51159
 20
-3.960985
  0
VERTEX
  8
寸法
 10
-156.556818
 20
-4.479945
  0
VERTEX
  8
寸法
 10
-158.856245
 20
-2.553128
  0
SEQEND
  0
LINE
  8
寸法
  6
CONTINUOUS
 10
-156.556818
 20
-4.479945
 11
-161.40128
 21
-2.224898
  0
ENDBLK
  0
BLOCK
  2
*GRP_0111
 70
    65
 10
0.0
 20
0.0
  0
POLYLINE
  8
寸法
  6
CONTINUOUS
 66
     1
  0
VERTEX
  8
寸法
 10
-149.51159
 20
-3.960985
  0
VERTEX
  8
寸法
 10
-146.556818
 20
-4.479945
  0
VERTEX
  8
寸法
 10
-148.856245
 20
-2.553128
  0
SEQEND
  0
LINE
  8
寸法
  6
CONTINUOUS
 10
-146.556818
 20
-4.479945
 11
-151.40128
 21
-2.224898
  0
ENDBLK
  0
BLOCK
  2
*GRP_0112
 70
    65
 10
0.0
 20
0.0
  0
POLYLINE
  8
寸法
  6
CONTINUOUS
 66
     1
  0
VERTEX
  8
寸法
 10
-139.51159
 20
-3.960985
  0
VERTEX
  8
寸法
 10
-136.556818
 20
-4.479945
  0
VERTEX
  8
寸法
 10
-138.856245
 20
-2.553128
  0
SEQEND
  0
LINE
  8
寸法
  6
CONTINUOUS
 10
-136.556818
 20
-4.479945
 11
-141.40128
 21
-2.224898
  0
ENDBLK
  0
BLOCK
  2
*GRP_0113
 70
    65
 10
0.0
 20
0.0
  0
POLYLINE
  8
寸法
  6
CONTINUOUS
 66
     1
  0
VERTEX
  8
寸法
 10
-161.399938
 20
-10.023155
  0
VERTEX
  8
寸法
 10
-163.5547
 20
-7.935812
  0
VERTEX
  8
寸法
 10
-162.73229
 20
-10.820885
  0
SEQEND
  0
LINE
  8
寸法
  6
CONTINUOUS
 10
-163.5547
 20
-7.935812
 11
-161.028643
 21
-12.154785
  0
ENDBLK
  0
BLOCK
  2
*GRP_0114
 70
    65
 10
0.0
 20
0.0
  0
POLYLINE
  8
寸法
  6
CONTINUOUS
 66
     1
  0
VERTEX
  8
寸法
 10
-151.940655
 20
-10.023155
  0
VERTEX
  8
寸法
 10
-154.095418
 20
-7.935812
  0
VERTEX
  8
寸法
 10
-153.273008
 20
-10.820885
  0
SEQEND
  0
LINE
  8
寸法
  6
CONTINUOUS
 10
-154.095418
 20
-7.935812
 11
-151.56936
 21
-12.154785
  0
ENDBLK
  0
BLOCK
  2
*GRP_0115
 70
    65
 10
0.0
 20
0.0
  0
POLYLINE
  8
寸法
  6
CONTINUOUS
 66
     1
  0
VERTEX
  8
寸法
 10
-142.095215
 20
-10.023155
  0
VERTEX
  8
寸法
 10
-144.249978
 20
-7.935812
  0
VERTEX
  8
寸法
 10
-143.427567
 20
-10.820885
  0
SEQEND
  0
LINE
  8
寸法
  6
CONTINUOUS
 10
-144.249978
 20
-7.935812
 11
-141.72392
 21
-12.154785
  0
ENDBLK
  0
BLOCK
  2
*GRP_0116
 70
    65
 10
0.0
 20
0.0
  0
POLYLINE
  8
寸法
  6
CONTINUOUS
 66
     1
  0
VERTEX
  8
寸法
 10
-131.67453
 20
-10.023155
  0
VERTEX
  8
寸法
 10
-133.829292
 20
-7.935812
  0
VERTEX
  8
寸法
 10
-133.006883
 20
-10.820885
  0
SEQEND
  0
LINE
  8
寸法
  6
CONTINUOUS
 10
-133.829292
 20
-7.935812
 11
-131.303235
 21
-12.154785
  0
ENDBLK
  0
BLOCK
  2
*GRP_0117
 70
    65
 10
0.0
 20
0.0
  0
INSERT
  2
*GRP_0121
  8
補助線
  6
CONTINUOUS
 62
    64
 10
0.0
 20
0.0
  0
CIRCLE
  8
ボルト／ビス
  6
CONTINUOUS
 62
    64
 10
-18.43223
 20
-31.60707
 40
1.166668
  0
LINE
  8
ボルト／ビス
  6
CONTINUOUS
 62
    64
 10
-18.245562
 20
-31.233738
 11
-18.245562
 21
-30.967965
  0
LINE
  8
ボルト／ビス
  6
CONTINUOUS
 62
    64
 10
-18.058897
 20
-31.420403
 11
-17.793125
 21
-31.420403
  0
ARC
  8
ボルト／ビス
  6
CONTINUOUS
 62
    64
 10
-18.058898
 20
-31.233735
 40
0.186667
 50
180.0
 51
270.0
  0
LINE
  8
ボルト／ビス
  6
CONTINUOUS
 62
    64
 10
-17.793125
 20
-31.420403
 11
-17.793125
 21
-31.60707
  0
LINE
  8
ボルト／ビス
  6
CONTINUOUS
 62
    64
 10
-18.245562
 20
-30.967965
 11
-18.43223
 21
-30.967965
  0
LINE
  8
ボルト／ビス
  6
CONTINUOUS
 62
    64
 10
-18.245562
 20
-31.980403
 11
-18.245562
 21
-32.246175
  0
LINE
  8
ボルト／ビス
  6
CONTINUOUS
 62
    64
 10
-18.058897
 20
-31.793738
 11
-17.793125
 21
-31.793738
  0
ARC
  8
ボルト／ビス
  6
CONTINUOUS
 62
    64
 10
-18.058898
 20
-31.980402
 40
0.186667
 50
90.0
 51
180.0
  0
LINE
  8
ボルト／ビス
  6
CONTINUOUS
 62
    64
 10
-17.793125
 20
-31.793738
 11
-17.793125
 21
-31.60707
  0
LINE
  8
ボルト／ビス
  6
CONTINUOUS
 62
    64
 10
-18.245562
 20
-32.246175
 11
-18.43223
 21
-32.246175
  0
LINE
  8
ボルト／ビス
  6
CONTINUOUS
 62
    64
 10
-18.618898
 20
-31.980403
 11
-18.618898
 21
-32.246175
  0
LINE
  8
ボルト／ビス
  6
CONTINUOUS
 62
    64
 10
-18.805562
 20
-31.793738
 11
-19.071335
 21
-31.793738
  0
ARC
  8
ボルト／ビス
  6
CONTINUOUS
 62
    64
 10
-18.805565
 20
-31.980402
 40
0.186667
 50
0.0
 51
90.0
  0
LINE
  8
ボルト／ビス
  6
CONTINUOUS
 62
    64
 10
-19.071335
 20
-31.793738
 11
-19.071335
 21
-31.60707
  0
LINE
  8
ボルト／ビス
  6
CONTINUOUS
 62
    64
 10
-18.618898
 20
-32.246175
 11
-18.43223
 21
-32.246175
  0
LINE
  8
ボルト／ビス
  6
CONTINUOUS
 62
    64
 10
-18.618898
 20
-31.233738
 11
-18.618898
 21
-30.967965
  0
LINE
  8
ボルト／ビス
  6
CONTINUOUS
 62
    64
 10
-18.805562
 20
-31.420403
 11
-19.071335
 21
-31.420403
  0
ARC
  8
ボルト／ビス
  6
CONTINUOUS
 62
    64
 10
-18.805565
 20
-31.233735
 40
0.186667
 50
270.0
 51
360.0
  0
LINE
  8
ボルト／ビス
  6
CONTINUOUS
 62
    64
 10
-19.071335
 20
-31.420403
 11
-19.071335
 21
-31.60707
  0
LINE
  8
ボルト／ビス
  6
CONTINUOUS
 62
    64
 10
-18.618898
 20
-30.967965
 11
-18.43223
 21
-30.967965
  0
ENDBLK
  0
BLOCK
  2
*GRP_0118
 70
    65
 10
0.0
 20
0.0
  0
INSERT
  2
*GRP_0122
  8
補助線
  6
CONTINUOUS
 62
    64
 10
0.0
 20
0.0
  0
CIRCLE
  8
ボルト／ビス
  6
CONTINUOUS
 62
    64
 10
9.56777
 20
-31.60707
 40
1.166668
  0
LINE
  8
ボルト／ビス
  6
CONTINUOUS
 62
    64
 10
9.381103
 20
-31.233738
 11
9.381103
 21
-30.967965
  0
LINE
  8
ボルト／ビス
  6
CONTINUOUS
 62
    64
 10
9.194437
 20
-31.420403
 11
8.928665
 21
-31.420403
  0
ARC
  8
ボルト／ビス
  6
CONTINUOUS
 62
    64
 10
9.194435
 20
-31.233735
 40
0.186667
 50
270.0
 51
360.0
  0
LINE
  8
ボルト／ビス
  6
CONTINUOUS
 62
    64
 10
8.928665
 20
-31.420403
 11
8.928665
 21
-31.60707
  0
LINE
  8
ボルト／ビス
  6
CONTINUOUS
 62
    64
 10
9.381103
 20
-30.967965
 11
9.56777
 21
-30.967965
  0
LINE
  8
ボルト／ビス
  6
CONTINUOUS
 62
    64
 10
9.381103
 20
-31.980403
 11
9.381103
 21
-32.246175
  0
LINE
  8
ボルト／ビス
  6
CONTINUOUS
 62
    64
 10
9.194437
 20
-31.793738
 11
8.928665
 21
-31.793738
  0
ARC
  8
ボルト／ビス
  6
CONTINUOUS
 62
    64
 10
9.194435
 20
-31.980402
 40
0.186667
 50
0.0
 51
90.0
  0
LINE
  8
ボルト／ビス
  6
CONTINUOUS
 62
    64
 10
8.928665
 20
-31.793738
 11
8.928665
 21
-31.60707
  0
LINE
  8
ボルト／ビス
  6
CONTINUOUS
 62
    64
 10
9.381103
 20
-32.246175
 11
9.56777
 21
-32.246175
  0
LINE
  8
ボルト／ビス
  6
CONTINUOUS
 62
    64
 10
9.754437
 20
-31.980403
 11
9.754437
 21
-32.246175
  0
LINE
  8
ボルト／ビス
  6
CONTINUOUS
 62
    64
 10
9.941102
 20
-31.793738
 11
10.206875
 21
-31.793738
  0
ARC
  8
ボルト／ビス
  6
CONTINUOUS
 62
    64
 10
9.941102
 20
-31.980402
 40
0.186667
 50
90.0
 51
180.0
  0
LINE
  8
ボルト／ビス
  6
CONTINUOUS
 62
    64
 10
10.206875
 20
-31.793738
 11
10.206875
 21
-31.60707
  0
LINE
  8
ボルト／ビス
  6
CONTINUOUS
 62
    64
 10
9.754437
 20
-32.246175
 11
9.56777
 21
-32.246175
  0
LINE
  8
ボルト／ビス
  6
CONTINUOUS
 62
    64
 10
9.754437
 20
-31.233738
 11
9.754437
 21
-30.967965
  0
LINE
  8
ボルト／ビス
  6
CONTINUOUS
 62
    64
 10
9.941102
 20
-31.420403
 11
10.206875
 21
-31.420403
  0
ARC
  8
ボルト／ビス
  6
CONTINUOUS
 62
    64
 10
9.941102
 20
-31.233735
 40
0.186667
 50
180.0
 51
270.0
  0
LINE
  8
ボルト／ビス
  6
CONTINUOUS
 62
    64
 10
10.206875
 20
-31.420403
 11
10.206875
 21
-31.60707
  0
LINE
  8
ボルト／ビス
  6
CONTINUOUS
 62
    64
 10
9.754437
 20
-30.967965
 11
9.56777
 21
-30.967965
  0
ENDBLK
  0
BLOCK
  2
*GRP_0119
 70
    65
 10
0.0
 20
0.0
  0
INSERT
  2
*GRP_0123
  8
補助線
  6
CONTINUOUS
 62
    64
 10
0.0
 20
0.0
  0
CIRCLE
  8
ボルト／ビス
  6
CONTINUOUS
 62
    64
 10
-12.832233
 20
-31.60707
 40
1.166668
  0
LINE
  8
ボルト／ビス
  6
CONTINUOUS
 62
    64
 10
-12.645565
 20
-31.233738
 11
-12.645565
 21
-30.967965
  0
LINE
  8
ボルト／ビス
  6
CONTINUOUS
 62
    64
 10
-12.4589
 20
-31.420403
 11
-12.193127
 21
-31.420403
  0
ARC
  8
ボルト／ビス
  6
CONTINUOUS
 62
    64
 10
-12.458901
 20
-31.233735
 40
0.186667
 50
180.0
 51
270.0
  0
LINE
  8
ボルト／ビス
  6
CONTINUOUS
 62
    64
 10
-12.193127
 20
-31.420403
 11
-12.193127
 21
-31.60707
  0
LINE
  8
ボルト／ビス
  6
CONTINUOUS
 62
    64
 10
-12.645565
 20
-30.967965
 11
-12.832233
 21
-30.967965
  0
LINE
  8
ボルト／ビス
  6
CONTINUOUS
 62
    64
 10
-12.645565
 20
-31.980403
 11
-12.645565
 21
-32.246175
  0
LINE
  8
ボルト／ビス
  6
CONTINUOUS
 62
    64
 10
-12.4589
 20
-31.793738
 11
-12.193127
 21
-31.793738
  0
ARC
  8
ボルト／ビス
  6
CONTINUOUS
 62
    64
 10
-12.458901
 20
-31.980402
 40
0.186667
 50
90.0
 51
180.0
  0
LINE
  8
ボルト／ビス
  6
CONTINUOUS
 62
    64
 10
-12.193127
 20
-31.793738
 11
-12.193127
 21
-31.60707
  0
LINE
  8
ボルト／ビス
  6
CONTINUOUS
 62
    64
 10
-12.645565
 20
-32.246175
 11
-12.832233
 21
-32.246175
  0
LINE
  8
ボルト／ビス
  6
CONTINUOUS
 62
    64
 10
-13.0189
 20
-31.980403
 11
-13.0189
 21
-32.246175
  0
LINE
  8
ボルト／ビス
  6
CONTINUOUS
 62
    64
 10
-13.205565
 20
-31.793738
 11
-13.471338
 21
-31.793738
  0
ARC
  8
ボルト／ビス
  6
CONTINUOUS
 62
    64
 10
-13.205568
 20
-31.980402
 40
0.186667
 50
0.0
 51
90.0
  0
LINE
  8
ボルト／ビス
  6
CONTINUOUS
 62
    64
 10
-13.471338
 20
-31.793738
 11
-13.471338
 21
-31.60707
  0
LINE
  8
ボルト／ビス
  6
CONTINUOUS
 62
    64
 10
-13.0189
 20
-32.246175
 11
-12.832233
 21
-32.246175
  0
LINE
  8
ボルト／ビス
  6
CONTINUOUS
 62
    64
 10
-13.0189
 20
-31.233738
 11
-13.0189
 21
-30.967965
  0
LINE
  8
ボルト／ビス
  6
CONTINUOUS
 62
    64
 10
-13.205565
 20
-31.420403
 11
-13.471338
 21
-31.420403
  0
ARC
  8
ボルト／ビス
  6
CONTINUOUS
 62
    64
 10
-13.205568
 20
-31.233735
 40
0.186667
 50
270.0
 51
360.0
  0
LINE
  8
ボルト／ビス
  6
CONTINUOUS
 62
    64
 10
-13.471338
 20
-31.420403
 11
-13.471338
 21
-31.60707
  0
LINE
  8
ボルト／ビス
  6
CONTINUOUS
 62
    64
 10
-13.0189
 20
-30.967965
 11
-12.832233
 21
-30.967965
  0
ENDBLK
  0
BLOCK
  2
*GRP_0120
 70
    65
 10
0.0
 20
0.0
  0
INSERT
  2
*GRP_0124
  8
補助線
  6
CONTINUOUS
 62
    64
 10
0.0
 20
0.0
  0
CIRCLE
  8
ボルト／ビス
  6
CONTINUOUS
 62
    64
 10
3.967772
 20
-31.60707
 40
1.166668
  0
LINE
  8
ボルト／ビス
  6
CONTINUOUS
 62
    64
 10
4.15444
 20
-31.233738
 11
4.15444
 21
-30.967965
  0
LINE
  8
ボルト／ビス
  6
CONTINUOUS
 62
    64
 10
4.341105
 20
-31.420403
 11
4.606877
 21
-31.420403
  0
ARC
  8
ボルト／ビス
  6
CONTINUOUS
 62
    64
 10
4.341104
 20
-31.233735
 40
0.186667
 50
180.0
 51
270.0
  0
LINE
  8
ボルト／ビス
  6
CONTINUOUS
 62
    64
 10
4.606877
 20
-31.420403
 11
4.606877
 21
-31.60707
  0
LINE
  8
ボルト／ビス
  6
CONTINUOUS
 62
    64
 10
4.15444
 20
-30.967965
 11
3.967772
 21
-30.967965
  0
LINE
  8
ボルト／ビス
  6
CONTINUOUS
 62
    64
 10
4.15444
 20
-31.980403
 11
4.15444
 21
-32.246175
  0
LINE
  8
ボルト／ビス
  6
CONTINUOUS
 62
    64
 10
4.341105
 20
-31.793738
 11
4.606877
 21
-31.793738
  0
ARC
  8
ボルト／ビス
  6
CONTINUOUS
 62
    64
 10
4.341104
 20
-31.980402
 40
0.186667
 50
90.0
 51
180.0
  0
LINE
  8
ボルト／ビス
  6
CONTINUOUS
 62
    64
 10
4.606877
 20
-31.793738
 11
4.606877
 21
-31.60707
  0
LINE
  8
ボルト／ビス
  6
CONTINUOUS
 62
    64
 10
4.15444
 20
-32.246175
 11
3.967772
 21
-32.246175
  0
LINE
  8
ボルト／ビス
  6
CONTINUOUS
 62
    64
 10
3.781105
 20
-31.980403
 11
3.781105
 21
-32.246175
  0
LINE
  8
ボルト／ビス
  6
CONTINUOUS
 62
    64
 10
3.59444
 20
-31.793738
 11
3.328667
 21
-31.793738
  0
ARC
  8
ボルト／ビス
  6
CONTINUOUS
 62
    64
 10
3.594437
 20
-31.980402
 40
0.186667
 50
0.0
 51
90.0
  0
LINE
  8
ボルト／ビス
  6
CONTINUOUS
 62
    64
 10
3.328667
 20
-31.793738
 11
3.328667
 21
-31.60707
  0
LINE
  8
ボルト／ビス
  6
CONTINUOUS
 62
    64
 10
3.781105
 20
-32.246175
 11
3.967772
 21
-32.246175
  0
LINE
  8
ボルト／ビス
  6
CONTINUOUS
 62
    64
 10
3.781105
 20
-31.233738
 11
3.781105
 21
-30.967965
  0
LINE
  8
ボルト／ビス
  6
CONTINUOUS
 62
    64
 10
3.59444
 20
-31.420403
 11
3.328667
 21
-31.420403
  0
ARC
  8
ボルト／ビス
  6
CONTINUOUS
 62
    64
 10
3.594437
 20
-31.233735
 40
0.186667
 50
270.0
 51
360.0
  0
LINE
  8
ボルト／ビス
  6
CONTINUOUS
 62
    64
 10
3.328667
 20
-31.420403
 11
3.328667
 21
-31.60707
  0
LINE
  8
ボルト／ビス
  6
CONTINUOUS
 62
    64
 10
3.781105
 20
-30.967965
 11
3.967772
 21
-30.967965
  0
ENDBLK
  0
BLOCK
  2
*GRP_0121
 70
    65
 10
0.0
 20
0.0
  0
LINE
  8
補助線
  6
BYBLOCK
 62
    64
 10
-16.698898
 20
-31.60707
 11
-20.165563
 21
-31.60707
  0
LINE
  8
補助線
  6
BYBLOCK
 62
    64
 10
-18.43223
 20
-29.873737
 11
-18.43223
 21
-33.340402
  0
ENDBLK
  0
BLOCK
  2
*GRP_0122
 70
    65
 10
0.0
 20
0.0
  0
LINE
  8
補助線
  6
BYBLOCK
 62
    64
 10
7.834438
 20
-31.60707
 11
11.301102
 21
-31.60707
  0
LINE
  8
補助線
  6
BYBLOCK
 62
    64
 10
9.56777
 20
-29.873737
 11
9.56777
 21
-33.340402
  0
ENDBLK
  0
BLOCK
  2
*GRP_0123
 70
    65
 10
0.0
 20
0.0
  0
LINE
  8
補助線
  6
BYBLOCK
 62
    64
 10
-11.0989
 20
-31.60707
 11
-14.565565
 21
-31.60707
  0
LINE
  8
補助線
  6
BYBLOCK
 62
    64
 10
-12.832233
 20
-29.873737
 11
-12.832233
 21
-33.340402
  0
ENDBLK
  0
BLOCK
  2
*GRP_0124
 70
    65
 10
0.0
 20
0.0
  0
LINE
  8
補助線
  6
BYBLOCK
 62
    64
 10
5.701105
 20
-31.60707
 11
2.23444
 21
-31.60707
  0
LINE
  8
補助線
  6
BYBLOCK
 62
    64
 10
3.967772
 20
-29.873737
 11
3.967772
 21
-33.340402
  0
ENDBLK
  0
BLOCK
  2
*GRP_0125
 70
    65
 10
0.0
 20
0.0
  0
POLYLINE
  8
寸法
  6
CONTINUOUS
 66
     1
  0
VERTEX
  8
寸法
 10
-59.269842
 20
-45.196255
  0
VERTEX
  8
寸法
 10
-54.481433
 20
-54.83461
  0
VERTEX
  8
寸法
 10
-51.310423
 20
-54.83461
  0
SEQEND
  0
ENDBLK
  0
BLOCK
  2
*DIM_0126
 70
    65
 10
0.0
 20
0.0
  0
LINE
  8
寸法
  6
CONTINUOUS
 10
8.06777
 20
-40.273737
 11
8.06777
 21
-57.28277
  0
LINE
  8
寸法
  6
CONTINUOUS
 10
5.134438
 20
-54.940405
 11
5.134438
 21
-57.28277
  0
LINE
  8
寸法
  6
CONTINUOUS
 10
8.06777
 20
-57.28277
 11
5.134438
 21
-57.28277
  0
POINT
  8
寸法
 10
8.06777
 20
-57.28277
  0
POINT
  8
寸法
 10
5.134438
 20
-57.28277
  0
TEXT
  7
TextStyle03
  8
寸法
  6
CONTINUOUS
 10
9.1875
 20
-56.9
  1
8.8
 40
3.0
 72
     5
 11
14.0625
 21
-56.9
  0
ENDBLK
  0
BLOCK
  2
*DIM_0127
 70
    65
 10
0.0
 20
0.0
  0
LINE
  8
寸法
  6
CONTINUOUS
 10
-13.998905
 20
-54.940405
 11
-13.998905
 21
-57.28277
  0
LINE
  8
寸法
  6
CONTINUOUS
 10
5.134438
 20
-57.28277
 11
-13.998905
 21
-57.28277
  0
POINT
  8
寸法
 10
-13.998905
 20
-57.28277
  0
TEXT
  7
TextStyle03
  8
寸法
  6
CONTINUOUS
 10
-7.73125
 20
-56.9
  1
57.4
 40
3.0
 72
     5
 11
-1.16875
 21
-56.9
  0
ENDBLK
  0
BLOCK
  2
*DIM_0128
 70
    65
 10
0.0
 20
0.0
  0
LINE
  8
寸法
  6
CONTINUOUS
 10
-16.93223
 20
-40.273737
 11
-16.93223
 21
-57.28277
  0
LINE
  8
寸法
  6
CONTINUOUS
 10
-13.998905
 20
-57.28277
 11
-16.93223
 21
-57.28277
  0
POINT
  8
寸法
 10
-16.93223
 20
-57.28277
  0
TEXT
  7
TextStyle03
  8
寸法
  6
CONTINUOUS
 10
-22.9625
 20
-56.9
  1
8.8
 40
3.0
 72
     5
 11
-18.0875
 21
-56.9
  0
ENDBLK
  0
BLOCK
  2
*DIM_0129
 70
    65
 10
0.0
 20
0.0
  0
LINE
  8
寸法
  6
CONTINUOUS
 10
8.06777
 20
-40.273737
 11
8.06777
 21
-63.234215
  0
LINE
  8
寸法
  6
CONTINUOUS
 10
-16.93223
 20
-40.273737
 11
-16.93223
 21
-63.234215
  0
LINE
  8
寸法
  6
CONTINUOUS
 10
8.06777
 20
-63.234215
 11
-16.93223
 21
-63.234215
  0
POINT
  8
寸法
 10
8.06777
 20
-63.234215
  0
POINT
  8
寸法
 10
-16.93223
 20
-63.234215
  0
TEXT
  7
TextStyle03
  8
寸法
  6
CONTINUOUS
 10
-6.01875
 20
-62.85
  1
75
 40
3.0
 72
     5
 11
-2.83125
 21
-62.85
  0
ENDBLK
  0
BLOCK
  2
*GRP_0130
 70
    65
 10
0.0
 20
0.0
  0
LINE
  8
型材断面
  6
CONTINUOUS
 10
-1.0311
 20
-77.495972
 11
-1.0311
 21
-82.829307
  0
LINE
  8
型材断面
  6
CONTINUOUS
 10
6.835565
 20
-77.495972
 11
-1.0311
 21
-77.495972
  0
ARC
  8
型材断面
  6
CONTINUOUS
 10
7.135568
 20
-76.929303
 40
0.1
 50
0.0
 51
90.0
  0
LINE
  8
型材断面
  6
CONTINUOUS
 10
6.835565
 20
-77.495972
 11
6.835565
 21
-77.729307
  0
ARC
  8
型材断面
  6
CONTINUOUS
 10
6.935568
 20
-77.729303
 40
0.1
 50
180.0
 51
270.0
  0
LINE
  8
型材断面
  6
CONTINUOUS
 10
7.135565
 20
-77.829307
 11
6.935565
 21
-77.829307
  0
LINE
  8
型材断面
  6
CONTINUOUS
 10
7.235565
 20
-77.729307
 11
7.235565
 21
-76.929307
  0
ARC
  8
型材断面
  6
CONTINUOUS
 10
7.135568
 20
-77.729303
 40
0.1
 50
270.0
 51
360.0
  0
LINE
  8
型材断面
  6
CONTINUOUS
 10
7.135565
 20
-76.829307
 11
-1.597768
 21
-76.829307
  0
LINE
  8
型材断面
  6
CONTINUOUS
 10
-1.697768
 20
-76.929307
 11
-1.697768
 21
-78.329307
  0
ARC
  8
型材断面
  6
CONTINUOUS
 10
-1.597766
 20
-76.929303
 40
0.1
 50
90.0
 51
180.0
  0
LINE
  8
型材断面
  6
CONTINUOUS
 10
-1.697768
 20
-78.829307
 11
-1.697768
 21
-83.395972
  0
ARC
  8
型材断面
  6
CONTINUOUS
 10
-1.597766
 20
-83.395969
 40
0.1
 50
180.0
 51
270.0
  0
LINE
  8
型材断面
  6
CONTINUOUS
 10
-0.2311
 20
-83.495972
 11
-1.597768
 21
-83.495972
  0
ARC
  8
型材断面
  6
CONTINUOUS
 10
-0.231099
 20
-83.395969
 40
0.1
 50
270.0
 51
360.0
  0
LINE
  8
型材断面
  6
CONTINUOUS
 10
-0.1311
 20
-82.929307
 11
-0.1311
 21
-83.395972
  0
LINE
  8
型材断面
  6
CONTINUOUS
 10
-0.2311
 20
-82.829307
 11
-1.0311
 21
-82.829307
  0
ARC
  8
型材断面
  6
CONTINUOUS
 10
-0.231099
 20
-82.929303
 40
0.1
 50
0.0
 51
90.0
  0
LINE
  8
型材断面
  6
CONTINUOUS
 10
-2.197768
 20
-78.329307
 11
-1.697768
 21
-78.329307
  0
ARC
  8
型材断面
  6
CONTINUOUS
 10
-2.197766
 20
-78.429303
 40
0.1
 50
90.0
 51
180.0
  0
LINE
  8
型材断面
  6
CONTINUOUS
 10
-2.297768
 20
-78.429307
 11
-2.297768
 21
-78.729307
  0
LINE
  8
型材断面
  6
CONTINUOUS
 10
-2.197768
 20
-78.829307
 11
-1.697768
 21
-78.829307
  0
ARC
  8
型材断面
  6
CONTINUOUS
 10
-2.197766
 20
-78.729303
 40
0.1
 50
180.0
 51
270.0
  0
ENDBLK
  0
BLOCK
  2
*GRP_0131
 70
    65
 10
0.0
 20
0.0
  0
LINE
  8
型材断面
  6
CONTINUOUS
 10
-7.833345
 20
-77.495972
 11
-7.833345
 21
-82.829307
  0
LINE
  8
型材断面
  6
CONTINUOUS
 10
-15.70001
 20
-77.495972
 11
-7.833345
 21
-77.495972
  0
ARC
  8
型材断面
  6
CONTINUOUS
 10
-16.000015
 20
-76.929303
 40
0.1
 50
90.0
 51
180.0
  0
LINE
  8
型材断面
  6
CONTINUOUS
 10
-15.70001
 20
-77.495972
 11
-15.70001
 21
-77.729307
  0
ARC
  8
型材断面
  6
CONTINUOUS
 10
-15.800015
 20
-77.729303
 40
0.1
 50
270.0
 51
360.0
  0
LINE
  8
型材断面
  6
CONTINUOUS
 10
-16.00001
 20
-77.829307
 11
-15.80001
 21
-77.829307
  0
LINE
  8
型材断面
  6
CONTINUOUS
 10
-16.10001
 20
-77.729307
 11
-16.10001
 21
-76.929307
  0
ARC
  8
型材断面
  6
CONTINUOUS
 10
-16.000015
 20
-77.729303
 40
0.1
 50
180.0
 51
270.0
  0
LINE
  8
型材断面
  6
CONTINUOUS
 10
-16.00001
 20
-76.829307
 11
-7.266677
 21
-76.829307
  0
LINE
  8
型材断面
  6
CONTINUOUS
 10
-7.166677
 20
-76.929307
 11
-7.166677
 21
-78.329307
  0
ARC
  8
型材断面
  6
CONTINUOUS
 10
-7.266682
 20
-76.929303
 40
0.1
 50
0.0
 51
90.0
  0
LINE
  8
型材断面
  6
CONTINUOUS
 10
-7.166677
 20
-78.829307
 11
-7.166677
 21
-83.395972
  0
ARC
  8
型材断面
  6
CONTINUOUS
 10
-7.266682
 20
-83.395969
 40
0.1
 50
270.0
 51
360.0
  0
LINE
  8
型材断面
  6
CONTINUOUS
 10
-8.633345
 20
-83.495972
 11
-7.266677
 21
-83.495972
  0
ARC
  8
型材断面
  6
CONTINUOUS
 10
-8.633349
 20
-83.395969
 40
0.1
 50
180.0
 51
270.0
  0
LINE
  8
型材断面
  6
CONTINUOUS
 10
-8.733345
 20
-82.929307
 11
-8.733345
 21
-83.395972
  0
LINE
  8
型材断面
  6
CONTINUOUS
 10
-8.633345
 20
-82.829307
 11
-7.833345
 21
-82.829307
  0
ARC
  8
型材断面
  6
CONTINUOUS
 10
-8.633349
 20
-82.929303
 40
0.1
 50
90.0
 51
180.0
  0
LINE
  8
型材断面
  6
CONTINUOUS
 10
-6.666677
 20
-78.329307
 11
-7.166677
 21
-78.329307
  0
ARC
  8
型材断面
  6
CONTINUOUS
 10
-6.666682
 20
-78.429303
 40
0.1
 50
0.0
 51
90.0
  0
LINE
  8
型材断面
  6
CONTINUOUS
 10
-6.566677
 20
-78.429307
 11
-6.566677
 21
-78.729307
  0
LINE
  8
型材断面
  6
CONTINUOUS
 10
-6.666677
 20
-78.829307
 11
-7.166677
 21
-78.829307
  0
ARC
  8
型材断面
  6
CONTINUOUS
 10
-6.666682
 20
-78.729303
 40
0.1
 50
270.0
 51
360.0
  0
ENDBLK
  0
BLOCK
  2
*GRP_0132
 70
    65
 10
0.0
 20
0.0
  0
LINE
  8
型材断面
  6
CONTINUOUS
 10
7.734445
 20
-86.829302
 11
7.40111
 21
-88.49597
  0
LINE
  8
型材断面
  6
CONTINUOUS
 62
    47
 10
-8.832222
 20
-83.495972
 11
-8.832222
 21
-82.729305
  0
ARC
  8
型材断面
  6
CONTINUOUS
 62
    47
 10
-7.065557
 20
-77.595966
 40
0.1
 50
90.0
 51
180.0
  0
LINE
  8
型材断面
  6
CONTINUOUS
 62
    47
 10
-7.165555
 20
-78.062637
 11
-7.165555
 21
-77.595972
  0
ARC
  8
型材断面
  6
CONTINUOUS
 62
    47
 10
-7.065557
 20
-78.062633
 40
0.1
 50
180.0
 51
270.0
  0
ARC
  8
型材断面
  6
CONTINUOUS
 62
    47
 10
-8.098891
 20
-82.3293
 40
0.1
 50
0.0
 51
90.0
  0
LINE
  8
型材断面
  6
CONTINUOUS
 62
    47
 10
-7.99889
 20
-82.629305
 11
-7.99889
 21
-82.329305
  0
LINE
  8
型材断面
  6
CONTINUOUS
 62
    47
 10
-8.09889
 20
-82.729305
 11
-8.832222
 21
-82.729305
  0
ARC
  8
型材断面
  6
CONTINUOUS
 62
    47
 10
-8.098891
 20
-82.6293
 40
0.1
 50
270.0
 51
360.0
  0
LINE
  8
型材断面
  6
CONTINUOUS
 62
    47
 10
-8.09889
 20
-82.229305
 11
-9.232222
 21
-82.229305
  0
LINE
  8
型材断面
  6
CONTINUOUS
 62
    47
 10
-9.332222
 20
-83.495972
 11
-9.332222
 21
-82.329305
  0
ARC
  8
型材断面
  6
CONTINUOUS
 62
    47
 10
-9.232224
 20
-82.3293
 40
0.1
 50
90.0
 51
180.0
  0
LINE
  8
型材断面
  6
CONTINUOUS
 62
    47
 10
-8.832222
 20
-83.495972
 11
-6.432222
 21
-83.495972
  0
LINE
  8
型材断面
  6
CONTINUOUS
 62
    47
 10
-13.59889
 20
-83.495972
 11
-13.59889
 21
-82.929305
  0
ARC
  8
型材断面
  6
CONTINUOUS
 62
    47
 10
-13.698891
 20
-82.9293
 40
0.1
 50
0.0
 51
90.0
  0
LINE
  8
型材断面
  6
CONTINUOUS
 62
    47
 10
-13.69889
 20
-82.829305
 11
-13.89889
 21
-82.829305
  0
ARC
  8
型材断面
  6
CONTINUOUS
 62
    47
 10
-13.898891
 20
-82.9293
 40
0.1
 50
90.0
 51
180.0
  0
LINE
  8
型材断面
  6
CONTINUOUS
 62
    47
 10
-13.99889
 20
-82.929305
 11
-13.99889
 21
-88.49597
  0
LINE
  8
型材断面
  6
CONTINUOUS
 62
    47
 10
-13.748892
 20
-85.49597
 11
-11.91556
 21
-85.49597
  0
ARC
  8
型材断面
  6
CONTINUOUS
 62
    47
 10
-12.268778
 20
-86.109947
 40
0.25
 50
312.542364
 51
492.542397
  0
ARC
  8
型材断面
  6
CONTINUOUS
 62
    47
 10
-12.832224
 20
-85.495966
 40
0.583333
 50
47.457615
 51
312.542407
  0
ARC
  8
型材断面
  6
CONTINUOUS
 62
    47
 10
-12.268778
 20
-84.881985
 40
0.25
 50
227.457576
 51
407.457618
  0
ARC
  8
型材断面
  6
CONTINUOUS
 62
    47
 10
-12.832224
 20
-85.495967
 40
1.083333
 50
47.457611
 51
90.000044
  0
LINE
  8
型材断面
  6
CONTINUOUS
 10
-16.932222
 20
-89.162637
 11
-16.932222
 21
-86.829302
  0
LINE
  8
型材断面
  6
CONTINUOUS
 10
-13.99889
 20
-88.49597
 11
-16.265555
 21
-88.49597
  0
LINE
  8
型材断面
  6
CONTINUOUS
 62
    47
 10
-4.432222
 20
-89.162637
 11
-16.932222
 21
-89.162637
  0
LINE
  8
型材断面
  6
CONTINUOUS
 62
    47
 10
-12.832225
 20
-84.579305
 11
-12.832225
 21
-86.579302
  0
LINE
  8
型材断面
  6
CONTINUOUS
 10
-4.432222
 20
-88.329305
 11
-13.165557
 21
-88.329305
  0
LINE
  8
型材断面
  6
CONTINUOUS
 10
-13.165557
 20
-88.329305
 11
-13.165557
 21
-86.526747
  0
LINE
  8
型材断面
  6
CONTINUOUS
 10
-12.832225
 20
-84.412637
 11
-12.832225
 21
-84.329305
  0
ARC
  8
型材断面
  6
CONTINUOUS
 62
    47
 10
-12.832224
 20
-85.495966
 40
1.083333
 50
252.079718
 51
312.542389
  0
LINE
  8
型材断面
  6
CONTINUOUS
 10
-12.832225
 20
-84.329305
 11
-5.59889
 21
-84.329305
  0
LINE
  8
型材断面
  6
CONTINUOUS
 62
    47
 10
-9.332222
 20
-83.495972
 11
-13.59889
 21
-83.495972
  0
LINE
  8
型材断面
  6
CONTINUOUS
 62
    47
 10
-7.065555
 20
-77.495972
 11
-4.432222
 21
-77.495972
  0
LINE
  8
型材断面
  6
CONTINUOUS
 10
-5.59889
 20
-84.329305
 11
-5.59889
 21
-78.162637
  0
LINE
  8
型材断面
  6
CONTINUOUS
 62
    47
 10
-6.432222
 20
-83.495972
 11
-6.432222
 21
-78.162637
  0
LINE
  8
型材断面
  6
CONTINUOUS
 62
    47
 10
-7.065555
 20
-78.162637
 11
-6.432222
 21
-78.162637
  0
LINE
  8
型材断面
  6
CONTINUOUS
 62
    47
 10
-5.59889
 20
-78.162637
 11
-4.432222
 21
-78.162637
  0
LINE
  8
型材断面
  6
CONTINUOUS
 62
    47
 10
-0.032222
 20
-83.495972
 11
-0.032222
 21
-82.729305
  0
ARC
  8
型材断面
  6
CONTINUOUS
 62
    47
 10
-1.798891
 20
-77.595966
 40
0.1
 50
0.0
 51
90.0
  0
LINE
  8
型材断面
  6
CONTINUOUS
 62
    47
 10
-1.69889
 20
-78.062637
 11
-1.69889
 21
-77.595972
  0
ARC
  8
型材断面
  6
CONTINUOUS
 62
    47
 10
-1.798891
 20
-78.062633
 40
0.1
 50
270.0
 51
360.0
  0
ARC
  8
型材断面
  6
CONTINUOUS
 62
    47
 10
-0.765558
 20
-82.3293
 40
0.1
 50
90.0
 51
180.0
  0
LINE
  8
型材断面
  6
CONTINUOUS
 62
    47
 10
-0.865555
 20
-82.629305
 11
-0.865555
 21
-82.329305
  0
LINE
  8
型材断面
  6
CONTINUOUS
 62
    47
 10
-0.765555
 20
-82.729305
 11
-0.032222
 21
-82.729305
  0
ARC
  8
型材断面
  6
CONTINUOUS
 62
    47
 10
-0.765558
 20
-82.6293
 40
0.1
 50
180.0
 51
270.0
  0
LINE
  8
型材断面
  6
CONTINUOUS
 62
    47
 10
-0.765555
 20
-82.229305
 11
0.367778
 21
-82.229305
  0
LINE
  8
型材断面
  6
CONTINUOUS
 62
    47
 10
0.467778
 20
-83.495972
 11
0.467778
 21
-82.329305
  0
ARC
  8
型材断面
  6
CONTINUOUS
 62
    47
 10
0.367776
 20
-82.3293
 40
0.1
 50
0.0
 51
90.0
  0
LINE
  8
型材断面
  6
CONTINUOUS
 62
    47
 10
-0.032222
 20
-83.495972
 11
-2.432222
 21
-83.495972
  0
LINE
  8
型材断面
  6
CONTINUOUS
 62
    47
 10
4.734445
 20
-83.495972
 11
4.734445
 21
-82.929305
  0
ARC
  8
型材断面
  6
CONTINUOUS
 62
    47
 10
4.834442
 20
-82.9293
 40
0.1
 50
90.0
 51
180.0
  0
LINE
  8
型材断面
  6
CONTINUOUS
 62
    47
 10
4.834445
 20
-82.829305
 11
5.034445
 21
-82.829305
  0
ARC
  8
型材断面
  6
CONTINUOUS
 62
    47
 10
5.034442
 20
-82.9293
 40
0.1
 50
0.0
 51
90.0
  0
LINE
  8
型材断面
  6
CONTINUOUS
 62
    47
 10
5.134445
 20
-82.929305
 11
5.134445
 21
-88.49597
  0
LINE
  8
型材断面
  6
CONTINUOUS
 62
    47
 10
4.884447
 20
-85.49597
 11
3.051115
 21
-85.49597
  0
ARC
  8
型材断面
  6
CONTINUOUS
 62
    47
 10
3.40433
 20
-86.109947
 40
0.25
 50
47.457603
 51
227.457636
  0
ARC
  8
型材断面
  6
CONTINUOUS
 62
    47
 10
3.967776
 20
-85.495966
 40
0.583333
 50
227.457593
 51
492.542385
  0
ARC
  8
型材断面
  6
CONTINUOUS
 62
    47
 10
3.40433
 20
-84.881985
 40
0.25
 50
132.542382
 51
312.542424
  0
ARC
  8
型材断面
  6
CONTINUOUS
 62
    47
 10
3.967776
 20
-85.495967
 40
1.083333
 50
89.999956
 51
132.542389
  0
LINE
  8
型材断面
  6
CONTINUOUS
 10
8.067778
 20
-89.162637
 11
8.067778
 21
-86.829302
  0
LINE
  8
型材断面
  6
CONTINUOUS
 10
5.134445
 20
-88.49597
 11
7.40111
 21
-88.49597
  0
LINE
  8
型材断面
  6
CONTINUOUS
 62
    47
 10
-4.432222
 20
-89.162637
 11
8.067778
 21
-89.162637
  0
LINE
  8
型材断面
  6
CONTINUOUS
 62
    47
 10
3.96778
 20
-84.579305
 11
3.96778
 21
-86.579302
  0
LINE
  8
型材断面
  6
CONTINUOUS
 10
-4.432222
 20
-88.329305
 11
4.301113
 21
-88.329305
  0
LINE
  8
型材断面
  6
CONTINUOUS
 10
4.301113
 20
-88.329305
 11
4.301113
 21
-86.526747
  0
LINE
  8
型材断面
  6
CONTINUOUS
 10
3.96778
 20
-84.412637
 11
3.96778
 21
-84.329305
  0
ARC
  8
型材断面
  6
CONTINUOUS
 62
    47
 10
3.967776
 20
-85.495966
 40
1.083333
 50
227.457611
 51
287.920282
  0
LINE
  8
型材断面
  6
CONTINUOUS
 10
3.96778
 20
-84.329305
 11
-3.265555
 21
-84.329305
  0
LINE
  8
型材断面
  6
CONTINUOUS
 62
    47
 10
0.467778
 20
-83.495972
 11
4.734445
 21
-83.495972
  0
LINE
  8
型材断面
  6
CONTINUOUS
 62
    47
 10
-1.79889
 20
-77.495972
 11
-4.432222
 21
-77.495972
  0
LINE
  8
型材断面
  6
CONTINUOUS
 10
-3.265555
 20
-84.329305
 11
-3.265555
 21
-78.162637
  0
LINE
  8
型材断面
  6
CONTINUOUS
 62
    47
 10
-2.432222
 20
-83.495972
 11
-2.432222
 21
-78.162637
  0
LINE
  8
型材断面
  6
CONTINUOUS
 62
    47
 10
-1.79889
 20
-78.162637
 11
-2.432222
 21
-78.162637
  0
LINE
  8
型材断面
  6
CONTINUOUS
 62
    47
 10
-3.265555
 20
-78.162637
 11
-4.432222
 21
-78.162637
  0
LINE
  8
型材断面
  6
CONTINUOUS
 10
8.067778
 20
-86.829302
 11
7.734445
 21
-86.829302
  0
LINE
  8
型材断面
  6
CONTINUOUS
 10
-16.59889
 20
-86.829302
 11
-16.265555
 21
-88.49597
  0
LINE
  8
型材断面
  6
CONTINUOUS
 10
-16.932222
 20
-86.829302
 11
-16.59889
 21
-86.829302
  0
ENDBLK
  0
BLOCK
  2
*GRP_0133
 70
    65
 10
0.0
 20
0.0
  0
LINE
  8
ゴム等
  6
CONTINUOUS
 10
1.401113
 20
-81.829307
 11
4.734445
 21
-81.829307
  0
LINE
  8
ゴム等
  6
CONTINUOUS
 10
4.734445
 20
-81.829307
 11
4.734445
 21
-83.495975
  0
LINE
  8
ゴム等
  6
CONTINUOUS
 10
4.734445
 20
-83.495975
 11
1.401113
 21
-83.495975
  0
LINE
  8
ゴム等
  6
CONTINUOUS
 10
1.401113
 20
-81.829307
 11
1.401113
 21
-83.495975
  0
INSERT
  2
*HAT_0008
  8
ゴム等
 10
0.0
 20
0.0
  0
ENDBLK
  0
BLOCK
  2
*GRP_0134
 70
    65
 10
0.0
 20
0.0
  0
LINE
  8
ゴム等
  6
CONTINUOUS
 10
6.835565
 20
-77.495975
 11
6.835565
 21
-79.562643
  0
LINE
  8
ゴム等
  6
CONTINUOUS
 10
6.835565
 20
-79.562643
 11
3.502232
 21
-79.562643
  0
LINE
  8
ゴム等
  6
CONTINUOUS
 10
3.502232
 20
-79.562643
 11
3.502232
 21
-77.495975
  0
LINE
  8
ゴム等
  6
CONTINUOUS
 10
6.835565
 20
-77.495975
 11
3.502232
 21
-77.495975
  0
INSERT
  2
*HAT_0009
  8
ゴム等
 10
0.0
 20
0.0
  0
ENDBLK
  0
BLOCK
  2
*GRP_0135
 70
    65
 10
0.0
 20
0.0
  0
LINE
  8
ゴム等
  6
CONTINUOUS
 10
-10.265557
 20
-81.829307
 11
-13.59889
 21
-81.829307
  0
LINE
  8
ゴム等
  6
CONTINUOUS
 10
-13.59889
 20
-81.829307
 11
-13.59889
 21
-83.495975
  0
LINE
  8
ゴム等
  6
CONTINUOUS
 10
-13.59889
 20
-83.495975
 11
-10.265557
 21
-83.495975
  0
LINE
  8
ゴム等
  6
CONTINUOUS
 10
-10.265557
 20
-81.829307
 11
-10.265557
 21
-83.495975
  0
INSERT
  2
*HAT_0010
  8
ゴム等
 10
0.0
 20
0.0
  0
ENDBLK
  0
BLOCK
  2
*GRP_0136
 70
    65
 10
0.0
 20
0.0
  0
LINE
  8
ゴム等
  6
CONTINUOUS
 10
-15.70001
 20
-77.495975
 11
-15.70001
 21
-79.562643
  0
LINE
  8
ゴム等
  6
CONTINUOUS
 10
-15.70001
 20
-79.562643
 11
-12.366677
 21
-79.562643
  0
LINE
  8
ゴム等
  6
CONTINUOUS
 10
-12.366677
 20
-79.562643
 11
-12.366677
 21
-77.495975
  0
LINE
  8
ゴム等
  6
CONTINUOUS
 10
-15.70001
 20
-77.495975
 11
-12.366677
 21
-77.495975
  0
INSERT
  2
*HAT_0011
  8
ゴム等
 10
0.0
 20
0.0
  0
ENDBLK
  0
BLOCK
  2
*GRP_0137
 70
    65
 10
0.0
 20
0.0
  0
INSERT
  2
*GRP_0142
  8
補助線
  6
CONTINUOUS
 62
    64
 10
0.0
 20
0.0
  0
CIRCLE
  8
ボルト／ビス
  6
CONTINUOUS
 62
    64
 10
-18.432222
 20
-85.49597
 40
1.166668
  0
LINE
  8
ボルト／ビス
  6
CONTINUOUS
 62
    64
 10
-18.245555
 20
-85.122638
 11
-18.245555
 21
-84.856865
  0
LINE
  8
ボルト／ビス
  6
CONTINUOUS
 62
    64
 10
-18.05889
 20
-85.309303
 11
-17.793117
 21
-85.309303
  0
ARC
  8
ボルト／ビス
  6
CONTINUOUS
 62
    64
 10
-18.058891
 20
-85.122635
 40
0.186667
 50
180.0
 51
270.0
  0
LINE
  8
ボルト／ビス
  6
CONTINUOUS
 62
    64
 10
-17.793117
 20
-85.309303
 11
-17.793117
 21
-85.49597
  0
LINE
  8
ボルト／ビス
  6
CONTINUOUS
 62
    64
 10
-18.245555
 20
-84.856865
 11
-18.432222
 21
-84.856865
  0
LINE
  8
ボルト／ビス
  6
CONTINUOUS
 62
    64
 10
-18.245555
 20
-85.869302
 11
-18.245555
 21
-86.135075
  0
LINE
  8
ボルト／ビス
  6
CONTINUOUS
 62
    64
 10
-18.05889
 20
-85.682637
 11
-17.793117
 21
-85.682637
  0
ARC
  8
ボルト／ビス
  6
CONTINUOUS
 62
    64
 10
-18.058891
 20
-85.869302
 40
0.186667
 50
90.0
 51
180.0
  0
LINE
  8
ボルト／ビス
  6
CONTINUOUS
 62
    64
 10
-17.793117
 20
-85.682637
 11
-17.793117
 21
-85.49597
  0
LINE
  8
ボルト／ビス
  6
CONTINUOUS
 62
    64
 10
-18.245555
 20
-86.135075
 11
-18.432222
 21
-86.135075
  0
LINE
  8
ボルト／ビス
  6
CONTINUOUS
 62
    64
 10
-18.61889
 20
-85.869302
 11
-18.61889
 21
-86.135075
  0
LINE
  8
ボルト／ビス
  6
CONTINUOUS
 62
    64
 10
-18.805555
 20
-85.682637
 11
-19.071328
 21
-85.682637
  0
ARC
  8
ボルト／ビス
  6
CONTINUOUS
 62
    64
 10
-18.805558
 20
-85.869302
 40
0.186667
 50
0.0
 51
90.0
  0
LINE
  8
ボルト／ビス
  6
CONTINUOUS
 62
    64
 10
-19.071328
 20
-85.682637
 11
-19.071328
 21
-85.49597
  0
LINE
  8
ボルト／ビス
  6
CONTINUOUS
 62
    64
 10
-18.61889
 20
-86.135075
 11
-18.432222
 21
-86.135075
  0
LINE
  8
ボルト／ビス
  6
CONTINUOUS
 62
    64
 10
-18.61889
 20
-85.122638
 11
-18.61889
 21
-84.856865
  0
LINE
  8
ボルト／ビス
  6
CONTINUOUS
 62
    64
 10
-18.805555
 20
-85.309303
 11
-19.071328
 21
-85.309303
  0
ARC
  8
ボルト／ビス
  6
CONTINUOUS
 62
    64
 10
-18.805558
 20
-85.122635
 40
0.186667
 50
270.0
 51
360.0
  0
LINE
  8
ボルト／ビス
  6
CONTINUOUS
 62
    64
 10
-19.071328
 20
-85.309303
 11
-19.071328
 21
-85.49597
  0
LINE
  8
ボルト／ビス
  6
CONTINUOUS
 62
    64
 10
-18.61889
 20
-84.856865
 11
-18.432222
 21
-84.856865
  0
ENDBLK
  0
BLOCK
  2
*GRP_0138
 70
    65
 10
0.0
 20
0.0
  0
INSERT
  2
*GRP_0143
  8
補助線
  6
CONTINUOUS
 62
    64
 10
0.0
 20
0.0
  0
CIRCLE
  8
ボルト／ビス
  6
CONTINUOUS
 62
    64
 10
9.567778
 20
-85.49597
 40
1.166668
  0
LINE
  8
ボルト／ビス
  6
CONTINUOUS
 62
    64
 10
9.38111
 20
-85.122638
 11
9.38111
 21
-84.856865
  0
LINE
  8
ボルト／ビス
  6
CONTINUOUS
 62
    64
 10
9.194445
 20
-85.309303
 11
8.928672
 21
-85.309303
  0
ARC
  8
ボルト／ビス
  6
CONTINUOUS
 62
    64
 10
9.194443
 20
-85.122635
 40
0.186667
 50
270.0
 51
360.0
  0
LINE
  8
ボルト／ビス
  6
CONTINUOUS
 62
    64
 10
8.928672
 20
-85.309303
 11
8.928672
 21
-85.49597
  0
LINE
  8
ボルト／ビス
  6
CONTINUOUS
 62
    64
 10
9.38111
 20
-84.856865
 11
9.567778
 21
-84.856865
  0
LINE
  8
ボルト／ビス
  6
CONTINUOUS
 62
    64
 10
9.38111
 20
-85.869302
 11
9.38111
 21
-86.135075
  0
LINE
  8
ボルト／ビス
  6
CONTINUOUS
 62
    64
 10
9.194445
 20
-85.682637
 11
8.928672
 21
-85.682637
  0
ARC
  8
ボルト／ビス
  6
CONTINUOUS
 62
    64
 10
9.194443
 20
-85.869302
 40
0.186667
 50
0.0
 51
90.0
  0
LINE
  8
ボルト／ビス
  6
CONTINUOUS
 62
    64
 10
8.928672
 20
-85.682637
 11
8.928672
 21
-85.49597
  0
LINE
  8
ボルト／ビス
  6
CONTINUOUS
 62
    64
 10
9.38111
 20
-86.135075
 11
9.567778
 21
-86.135075
  0
LINE
  8
ボルト／ビス
  6
CONTINUOUS
 62
    64
 10
9.754445
 20
-85.869302
 11
9.754445
 21
-86.135075
  0
LINE
  8
ボルト／ビス
  6
CONTINUOUS
 62
    64
 10
9.94111
 20
-85.682637
 11
10.206883
 21
-85.682637
  0
ARC
  8
ボルト／ビス
  6
CONTINUOUS
 62
    64
 10
9.941109
 20
-85.869302
 40
0.186667
 50
90.0
 51
180.0
  0
LINE
  8
ボルト／ビス
  6
CONTINUOUS
 62
    64
 10
10.206883
 20
-85.682637
 11
10.206883
 21
-85.49597
  0
LINE
  8
ボルト／ビス
  6
CONTINUOUS
 62
    64
 10
9.754445
 20
-86.135075
 11
9.567778
 21
-86.135075
  0
LINE
  8
ボルト／ビス
  6
CONTINUOUS
 62
    64
 10
9.754445
 20
-85.122638
 11
9.754445
 21
-84.856865
  0
LINE
  8
ボルト／ビス
  6
CONTINUOUS
 62
    64
 10
9.94111
 20
-85.309303
 11
10.206883
 21
-85.309303
  0
ARC
  8
ボルト／ビス
  6
CONTINUOUS
 62
    64
 10
9.941109
 20
-85.122635
 40
0.186667
 50
180.0
 51
270.0
  0
LINE
  8
ボルト／ビス
  6
CONTINUOUS
 62
    64
 10
10.206883
 20
-85.309303
 11
10.206883
 21
-85.49597
  0
LINE
  8
ボルト／ビス
  6
CONTINUOUS
 62
    64
 10
9.754445
 20
-84.856865
 11
9.567778
 21
-84.856865
  0
ENDBLK
  0
BLOCK
  2
*GRP_0139
 70
    65
 10
0.0
 20
0.0
  0
INSERT
  2
*GRP_0144
  8
補助線
  6
CONTINUOUS
 62
    64
 10
0.0
 20
0.0
  0
CIRCLE
  8
ボルト／ビス
  6
CONTINUOUS
 62
    64
 10
-12.832225
 20
-85.49597
 40
1.166668
  0
LINE
  8
ボルト／ビス
  6
CONTINUOUS
 62
    64
 10
-12.645557
 20
-85.122638
 11
-12.645557
 21
-84.856865
  0
LINE
  8
ボルト／ビス
  6
CONTINUOUS
 62
    64
 10
-12.458893
 20
-85.309303
 11
-12.19312
 21
-85.309303
  0
ARC
  8
ボルト／ビス
  6
CONTINUOUS
 62
    64
 10
-12.458893
 20
-85.122635
 40
0.186667
 50
180.0
 51
270.0
  0
LINE
  8
ボルト／ビス
  6
CONTINUOUS
 62
    64
 10
-12.19312
 20
-85.309303
 11
-12.19312
 21
-85.49597
  0
LINE
  8
ボルト／ビス
  6
CONTINUOUS
 62
    64
 10
-12.645557
 20
-84.856865
 11
-12.832225
 21
-84.856865
  0
LINE
  8
ボルト／ビス
  6
CONTINUOUS
 62
    64
 10
-12.645557
 20
-85.869302
 11
-12.645557
 21
-86.135075
  0
LINE
  8
ボルト／ビス
  6
CONTINUOUS
 62
    64
 10
-12.458893
 20
-85.682637
 11
-12.19312
 21
-85.682637
  0
ARC
  8
ボルト／ビス
  6
CONTINUOUS
 62
    64
 10
-12.458893
 20
-85.869302
 40
0.186667
 50
90.0
 51
180.0
  0
LINE
  8
ボルト／ビス
  6
CONTINUOUS
 62
    64
 10
-12.19312
 20
-85.682637
 11
-12.19312
 21
-85.49597
  0
LINE
  8
ボルト／ビス
  6
CONTINUOUS
 62
    64
 10
-12.645557
 20
-86.135075
 11
-12.832225
 21
-86.135075
  0
LINE
  8
ボルト／ビス
  6
CONTINUOUS
 62
    64
 10
-13.018893
 20
-85.869302
 11
-13.018893
 21
-86.135075
  0
LINE
  8
ボルト／ビス
  6
CONTINUOUS
 62
    64
 10
-13.205558
 20
-85.682637
 11
-13.47133
 21
-85.682637
  0
ARC
  8
ボルト／ビス
  6
CONTINUOUS
 62
    64
 10
-13.20556
 20
-85.869302
 40
0.186667
 50
0.0
 51
90.0
  0
LINE
  8
ボルト／ビス
  6
CONTINUOUS
 62
    64
 10
-13.47133
 20
-85.682637
 11
-13.47133
 21
-85.49597
  0
LINE
  8
ボルト／ビス
  6
CONTINUOUS
 62
    64
 10
-13.018893
 20
-86.135075
 11
-12.832225
 21
-86.135075
  0
LINE
  8
ボルト／ビス
  6
CONTINUOUS
 62
    64
 10
-13.018893
 20
-85.122638
 11
-13.018893
 21
-84.856865
  0
LINE
  8
ボルト／ビス
  6
CONTINUOUS
 62
    64
 10
-13.205558
 20
-85.309303
 11
-13.47133
 21
-85.309303
  0
ARC
  8
ボルト／ビス
  6
CONTINUOUS
 62
    64
 10
-13.20556
 20
-85.122635
 40
0.186667
 50
270.0
 51
360.0
  0
LINE
  8
ボルト／ビス
  6
CONTINUOUS
 62
    64
 10
-13.47133
 20
-85.309303
 11
-13.47133
 21
-85.49597
  0
LINE
  8
ボルト／ビス
  6
CONTINUOUS
 62
    64
 10
-13.018893
 20
-84.856865
 11
-12.832225
 21
-84.856865
  0
ENDBLK
  0
BLOCK
  2
*GRP_0140
 70
    65
 10
0.0
 20
0.0
  0
INSERT
  2
*GRP_0145
  8
補助線
  6
CONTINUOUS
 62
    64
 10
0.0
 20
0.0
  0
CIRCLE
  8
ボルト／ビス
  6
CONTINUOUS
 62
    64
 10
3.96778
 20
-85.49597
 40
1.166668
  0
LINE
  8
ボルト／ビス
  6
CONTINUOUS
 62
    64
 10
4.154448
 20
-85.122638
 11
4.154448
 21
-84.856865
  0
LINE
  8
ボルト／ビス
  6
CONTINUOUS
 62
    64
 10
4.341113
 20
-85.309303
 11
4.606885
 21
-85.309303
  0
ARC
  8
ボルト／ビス
  6
CONTINUOUS
 62
    64
 10
4.341112
 20
-85.122635
 40
0.186667
 50
180.0
 51
270.0
  0
LINE
  8
ボルト／ビス
  6
CONTINUOUS
 62
    64
 10
4.606885
 20
-85.309303
 11
4.606885
 21
-85.49597
  0
LINE
  8
ボルト／ビス
  6
CONTINUOUS
 62
    64
 10
4.154448
 20
-84.856865
 11
3.96778
 21
-84.856865
  0
LINE
  8
ボルト／ビス
  6
CONTINUOUS
 62
    64
 10
4.154448
 20
-85.869302
 11
4.154448
 21
-86.135075
  0
LINE
  8
ボルト／ビス
  6
CONTINUOUS
 62
    64
 10
4.341113
 20
-85.682637
 11
4.606885
 21
-85.682637
  0
ARC
  8
ボルト／ビス
  6
CONTINUOUS
 62
    64
 10
4.341112
 20
-85.869302
 40
0.186667
 50
90.0
 51
180.0
  0
LINE
  8
ボルト／ビス
  6
CONTINUOUS
 62
    64
 10
4.606885
 20
-85.682637
 11
4.606885
 21
-85.49597
  0
LINE
  8
ボルト／ビス
  6
CONTINUOUS
 62
    64
 10
4.154448
 20
-86.135075
 11
3.96778
 21
-86.135075
  0
LINE
  8
ボルト／ビス
  6
CONTINUOUS
 62
    64
 10
3.781113
 20
-85.869302
 11
3.781113
 21
-86.135075
  0
LINE
  8
ボルト／ビス
  6
CONTINUOUS
 62
    64
 10
3.594448
 20
-85.682637
 11
3.328675
 21
-85.682637
  0
ARC
  8
ボルト／ビス
  6
CONTINUOUS
 62
    64
 10
3.594445
 20
-85.869302
 40
0.186667
 50
0.0
 51
90.0
  0
LINE
  8
ボルト／ビス
  6
CONTINUOUS
 62
    64
 10
3.328675
 20
-85.682637
 11
3.328675
 21
-85.49597
  0
LINE
  8
ボルト／ビス
  6
CONTINUOUS
 62
    64
 10
3.781113
 20
-86.135075
 11
3.96778
 21
-86.135075
  0
LINE
  8
ボルト／ビス
  6
CONTINUOUS
 62
    64
 10
3.781113
 20
-85.122638
 11
3.781113
 21
-84.856865
  0
LINE
  8
ボルト／ビス
  6
CONTINUOUS
 62
    64
 10
3.594448
 20
-85.309303
 11
3.328675
 21
-85.309303
  0
ARC
  8
ボルト／ビス
  6
CONTINUOUS
 62
    64
 10
3.594445
 20
-85.122635
 40
0.186667
 50
270.0
 51
360.0
  0
LINE
  8
ボルト／ビス
  6
CONTINUOUS
 62
    64
 10
3.328675
 20
-85.309303
 11
3.328675
 21
-85.49597
  0
LINE
  8
ボルト／ビス
  6
CONTINUOUS
 62
    64
 10
3.781113
 20
-84.856865
 11
3.96778
 21
-84.856865
  0
ENDBLK
  0
BLOCK
  2
*GRP_0141
 70
    65
 10
0.0
 20
0.0
  0
ARC
  8
St
  6
CONTINUOUS
 10
2.434439
 20
-84.86264
 40
0.533333
 50
0.0
 51
90.0
  0
LINE
  8
St
  6
CONTINUOUS
 10
-4.432222
 20
-84.862637
 11
2.434442
 21
-84.862637
  0
LINE
  8
St
  6
CONTINUOUS
 10
-4.432222
 20
-84.329305
 11
2.434442
 21
-84.329305
  0
ARC
  8
St
  6
CONTINUOUS
 10
-11.298887
 20
-84.86264
 40
0.533333
 50
90.0
 51
180.0
  0
LINE
  8
St
  6
CONTINUOUS
 10
-4.432222
 20
-84.862637
 11
-11.298888
 21
-84.862637
  0
LINE
  8
St
  6
CONTINUOUS
 10
-4.432222
 20
-84.329305
 11
-11.298888
 21
-84.329305
  0
LINE
  8
St
  6
CONTINUOUS
 10
2.434442
 20
-88.162637
 11
2.434442
 21
-84.862637
  0
LINE
  8
St
  6
CONTINUOUS
 10
2.967775
 20
-88.162637
 11
2.967775
 21
-84.862637
  0
LINE
  8
St
  6
CONTINUOUS
 10
-11.83222
 20
-88.162637
 11
-11.83222
 21
-84.862637
  0
LINE
  8
St
  6
CONTINUOUS
 10
-11.298888
 20
-88.162637
 11
-11.298888
 21
-84.862637
  0
LINE
  8
St
  6
CONTINUOUS
 10
-11.83222
 20
-88.162637
 11
-11.298888
 21
-88.162637
  0
LINE
  8
St
  6
CONTINUOUS
 10
2.434442
 20
-88.162637
 11
2.967775
 21
-88.162637
  0
LINE
  8
St
  6
CONTINUOUS
 10
-11.83222
 20
-87.290122
 11
-11.298888
 21
-86.75679
  0
LINE
  8
St
  6
CONTINUOUS
 10
-9.404735
 20
-84.862637
 11
-8.871403
 21
-84.329305
  0
LINE
  8
St
  6
CONTINUOUS
 10
-11.83222
 20
-87.525822
 11
-11.298888
 21
-86.99249
  0
LINE
  8
St
  6
CONTINUOUS
 10
-9.169035
 20
-84.862637
 11
-8.635703
 21
-84.329305
  0
LINE
  8
St
  6
CONTINUOUS
 10
2.434442
 20
-87.290122
 11
2.967775
 21
-86.75679
  0
LINE
  8
St
  6
CONTINUOUS
 10
2.434442
 20
-87.525822
 11
2.967775
 21
-86.99249
  0
LINE
  8
St
  6
CONTINUOUS
 10
-1.109303
 20
-84.862637
 11
-0.57597
 21
-84.329305
  0
LINE
  8
St
  6
CONTINUOUS
 10
-0.873603
 20
-84.862637
 11
-0.34027
 21
-84.329305
  0
ENDBLK
  0
BLOCK
  2
*GRP_0142
 70
    65
 10
0.0
 20
0.0
  0
LINE
  8
補助線
  6
BYBLOCK
 62
    64
 10
-16.69889
 20
-85.49597
 11
-20.165555
 21
-85.49597
  0
LINE
  8
補助線
  6
BYBLOCK
 62
    64
 10
-18.432222
 20
-83.762637
 11
-18.432222
 21
-87.229302
  0
ENDBLK
  0
BLOCK
  2
*GRP_0143
 70
    65
 10
0.0
 20
0.0
  0
LINE
  8
補助線
  6
BYBLOCK
 62
    64
 10
7.834445
 20
-85.49597
 11
11.30111
 21
-85.49597
  0
LINE
  8
補助線
  6
BYBLOCK
 62
    64
 10
9.567778
 20
-83.762637
 11
9.567778
 21
-87.229302
  0
ENDBLK
  0
BLOCK
  2
*GRP_0144
 70
    65
 10
0.0
 20
0.0
  0
LINE
  8
補助線
  6
BYBLOCK
 62
    64
 10
-11.098892
 20
-85.49597
 11
-14.565557
 21
-85.49597
  0
LINE
  8
補助線
  6
BYBLOCK
 62
    64
 10
-12.832225
 20
-83.762637
 11
-12.832225
 21
-87.229302
  0
ENDBLK
  0
BLOCK
  2
*GRP_0145
 70
    65
 10
0.0
 20
0.0
  0
LINE
  8
補助線
  6
BYBLOCK
 62
    64
 10
5.701113
 20
-85.49597
 11
2.234447
 21
-85.49597
  0
LINE
  8
補助線
  6
BYBLOCK
 62
    64
 10
3.96778
 20
-83.762637
 11
3.96778
 21
-87.229302
  0
ENDBLK
  0
BLOCK
  2
*DIM_0146
 70
    65
 10
0.0
 20
0.0
  0
LINE
  8
寸法
  6
CONTINUOUS
 10
8.067778
 20
-94.162637
 11
8.067778
 21
-97.216295
  0
LINE
  8
寸法
  6
CONTINUOUS
 10
-16.932222
 20
-94.162637
 11
-16.932222
 21
-97.216295
  0
LINE
  8
寸法
  6
CONTINUOUS
 10
8.067778
 20
-97.216295
 11
-16.932222
 21
-97.216295
  0
POINT
  8
寸法
 10
8.067778
 20
-97.216295
  0
POINT
  8
寸法
 10
-16.932222
 20
-97.216295
  0
TEXT
  7
TextStyle03
  8
寸法
  6
CONTINUOUS
 10
-6.01875
 20
-96.825
  1
75
 40
3.0
 72
     5
 11
-2.83125
 21
-96.825
  0
ENDBLK
  0
BLOCK
  2
*GRP_0147
 70
    65
 10
0.0
 20
0.0
  0
POLYLINE
  8
寸法
  6
CONTINUOUS
 66
     1
  0
VERTEX
  8
寸法
 10
11.40525
 20
-86.175915
  0
VERTEX
  8
寸法
 10
14.630877
 20
-94.41686
  0
VERTEX
  8
寸法
 10
16.858235
 20
-94.41686
  0
SEQEND
  0
ENDBLK
  0
BLOCK
  2
*GRP_0148
 70
    65
 10
0.0
 20
0.0
  0
LINE
  8
型材断面
  6
CONTINUOUS
 62
    47
 10
133.266295
 20
1.68839
 11
133.266295
 21
12.012255
  0
LINE
  8
型材断面
  6
CONTINUOUS
 62
    47
 10
171.93303
 20
5.45856
 11
133.266295
 21
12.012255
  0
LINE
  8
型材断面
  6
CONTINUOUS
 62
    47
 10
171.93303
 20
5.45856
 11
171.93303
 21
1.68839
  0
LINE
  8
型材断面
  6
CONTINUOUS
 62
    47
 10
167.599657
 20
1.021765
 11
172.599575
 21
1.021765
  0
LINE
  8
型材断面
  6
CONTINUOUS
 62
    47
 10
139.132925
 20
1.68839
 11
133.266295
 21
1.68839
  0
LINE
  8
型材断面
  6
CONTINUOUS
 62
    47
 10
139.132925
 20
1.021765
 11
132.599638
 21
1.021765
  0
LINE
  8
型材断面
  6
CONTINUOUS
 62
    47
 10
139.266315
 20
1.155095
 11
139.266315
 21
1.555118
  0
LINE
  8
型材断面
  6
CONTINUOUS
 62
    47
 10
164.399592
 20
1.68839
 11
171.93303
 21
1.68839
  0
LINE
  8
型材断面
  6
CONTINUOUS
 62
    47
 10
164.399592
 20
1.021765
 11
166.932943
 21
1.021765
  0
LINE
  8
型材断面
  6
CONTINUOUS
 62
    47
 10
164.26632
 20
1.155095
 11
164.26632
 21
1.555118
  0
LINE
  8
型材断面
  6
CONTINUOUS
 62
    47
 10
172.599575
 20
1.021765
 11
172.599575
 21
6.021743
  0
LINE
  8
型材断面
  6
CONTINUOUS
 62
    47
 10
172.599575
 20
6.021743
 11
143.26626
 21
10.993548
  0
LINE
  8
型材断面
  6
CONTINUOUS
 62
    47
 10
142.599653
 20
11.106547
 11
133.266295
 21
12.688422
  0
LINE
  8
型材断面
  6
CONTINUOUS
 62
    47
 10
142.599653
 20
13.6884
 11
141.099718
 21
13.6884
  0
LINE
  8
型材断面
  6
CONTINUOUS
 62
    47
 10
141.099718
 20
15.35507
 11
141.499653
 21
15.35507
  0
LINE
  8
型材断面
  6
CONTINUOUS
 62
    47
 10
141.499653
 20
15.35507
 11
141.499653
 21
14.35508
  0
LINE
  8
型材断面
  6
CONTINUOUS
 62
    47
 10
141.499653
 20
14.35508
 11
142.599653
 21
14.35508
  0
LINE
  8
型材断面
  6
CONTINUOUS
 62
    47
 10
142.599653
 20
13.6884
 11
142.599653
 21
11.106547
  0
LINE
  8
型材断面
  6
CONTINUOUS
 62
    47
 10
141.099718
 20
15.35507
 11
141.099718
 21
13.6884
  0
ARC
  8
型材断面
  6
CONTINUOUS
 62
    47
 10
139.132926
 20
1.555116
 40
0.133333
 50
359.997253
 51
449.998627
  0
ARC
  8
型材断面
  6
CONTINUOUS
 62
    47
 10
139.132926
 20
1.155093
 40
0.133333
 50
269.99588
 51
359.997253
  0
ARC
  8
型材断面
  6
CONTINUOUS
 62
    47
 10
164.399593
 20
1.555116
 40
0.133333
 50
89.998627
 51
180.0
  0
ARC
  8
型材断面
  6
CONTINUOUS
 62
    47
 10
164.399593
 20
1.155093
 40
0.133333
 50
180.0
 51
269.99588
  0
LINE
  8
型材断面
  6
CONTINUOUS
 62
    47
 10
141.499653
 20
28.354995
 11
141.099718
 21
28.354995
  0
LINE
  8
型材断面
  6
CONTINUOUS
 62
    47
 10
141.499653
 20
27.688315
 11
142.599653
 21
27.688315
  0
LINE
  8
型材断面
  6
CONTINUOUS
 62
    47
 10
141.099718
 20
28.354995
 11
143.26626
 21
28.354995
  0
LINE
  8
型材断面
  6
CONTINUOUS
 62
    47
 10
143.26626
 20
27.688443
 11
143.26626
 21
28.354995
  0
LINE
  8
型材断面
  6
CONTINUOUS
 62
    47
 10
142.599653
 20
27.688443
 11
141.499653
 21
27.688443
  0
LINE
  8
型材断面
  6
CONTINUOUS
 62
    47
 10
142.599653
 20
20.688402
 11
134.932993
 21
20.688402
  0
LINE
  8
型材断面
  6
CONTINUOUS
 62
    47
 10
134.932993
 20
20.688402
 11
134.932993
 21
22.02172
  0
LINE
  8
型材断面
  6
CONTINUOUS
 62
    47
 10
134.932993
 20
22.02172
 11
135.332928
 21
22.02172
  0
LINE
  8
型材断面
  6
CONTINUOUS
 62
    47
 10
135.332928
 20
21.3551
 11
135.332928
 21
22.02172
  0
LINE
  8
型材断面
  6
CONTINUOUS
 62
    47
 10
140.266427
 20
22.6217
 11
138.933057
 21
22.6217
  0
LINE
  8
型材断面
  6
CONTINUOUS
 62
    47
 10
138.933057
 20
22.6217
 11
138.933057
 21
21.35503
  0
LINE
  8
型材断面
  6
CONTINUOUS
 62
    47
 10
139.43302
 20
21.35503
 11
139.43302
 21
22.1217
  0
LINE
  8
型材断面
  6
CONTINUOUS
 62
    47
 10
139.43302
 20
22.1217
 11
140.266427
 21
22.1217
  0
LINE
  8
型材断面
  6
CONTINUOUS
 62
    47
 10
140.266427
 20
22.1217
 11
140.266427
 21
22.6217
  0
LINE
  8
型材断面
  6
CONTINUOUS
 62
    47
 10
135.332928
 20
21.3551
 11
138.933057
 21
21.3551
  0
LINE
  8
型材断面
  6
CONTINUOUS
 62
    47
 10
139.43302
 20
21.35503
 11
142.599653
 21
21.35503
  0
LINE
  8
型材断面
  6
CONTINUOUS
 62
    47
 10
142.599653
 20
14.35508
 11
142.599653
 21
20.688402
  0
LINE
  8
型材断面
  6
CONTINUOUS
 62
    47
 10
142.599653
 20
27.688443
 11
142.599653
 21
21.35503
  0
LINE
  8
型材断面
  6
CONTINUOUS
 10
141.099718
 20
26.68833
 11
141.499653
 21
26.68833
  0
LINE
  8
型材断面
  6
CONTINUOUS
 62
    47
 10
141.499653
 20
27.688315
 11
141.499653
 21
26.68833
  0
LINE
  8
型材断面
  6
CONTINUOUS
 62
    47
 10
144.13296
 20
25.588407
 11
143.26626
 21
25.588407
  0
LINE
  8
型材断面
  6
CONTINUOUS
 62
    47
 10
144.13296
 20
25.18843
 11
143.26626
 21
25.18843
  0
LINE
  8
型材断面
  6
CONTINUOUS
 62
    47
 10
144.266232
 20
25.321762
 11
144.266232
 21
25.455092
  0
ARC
  8
型材断面
  6
CONTINUOUS
 62
    47
 10
144.132962
 20
25.455091
 40
0.133333
 50
359.997253
 51
449.998627
  0
ARC
  8
型材断面
  6
CONTINUOUS
 62
    47
 10
144.132962
 20
25.32176
 40
0.133333
 50
269.99588
 51
359.997253
  0
LINE
  8
型材断面
  6
CONTINUOUS
 62
    47
 10
153.132423
 20
25.18843
 11
154.66573
 21
25.18843
  0
LINE
  8
型材断面
  6
CONTINUOUS
 62
    47
 10
153.132423
 20
25.588407
 11
153.999145
 21
25.588407
  0
LINE
  8
型材断面
  6
CONTINUOUS
 62
    47
 10
152.99915
 20
25.455092
 11
152.99915
 21
25.321762
  0
ARC
  8
型材断面
  6
CONTINUOUS
 62
    47
 10
153.132424
 20
25.32176
 40
0.133333
 50
180.0
 51
269.99588
  0
ARC
  8
型材断面
  6
CONTINUOUS
 62
    47
 10
153.132424
 20
25.455091
 40
0.133333
 50
89.998627
 51
180.0
  0
LINE
  8
型材断面
  6
CONTINUOUS
 62
    47
 10
143.26626
 20
10.993548
 11
143.26626
 21
25.18843
  0
LINE
  8
型材断面
  6
CONTINUOUS
 10
143.26626
 20
26.688443
 11
153.999145
 21
26.688443
  0
LINE
  8
型材断面
  6
CONTINUOUS
 62
    47
 10
153.999145
 20
25.588407
 11
153.999145
 21
26.688443
  0
LINE
  8
型材断面
  6
CONTINUOUS
 62
    47
 10
143.26626
 20
25.588407
 11
143.26626
 21
26.688443
  0
LINE
  8
型材断面
  6
CONTINUOUS
 10
149.265795
 20
27.588443
 11
149.165795
 21
27.688443
  0
LINE
  8
型材断面
  6
CONTINUOUS
 62
    47
 10
143.26626
 20
27.688443
 11
149.165795
 21
27.688443
  0
LINE
  8
型材断面
  6
CONTINUOUS
 10
149.265795
 20
27.588443
 11
149.365795
 21
27.688443
  0
LINE
  8
型材断面
  6
CONTINUOUS
 62
    47
 10
149.365795
 20
27.688443
 11
154.66573
 21
27.688443
  0
LINE
  8
型材断面
  6
CONTINUOUS
 10
154.66573
 20
25.18843
 11
154.66573
 21
27.688443
  0
LINE
  8
型材断面
  6
CONTINUOUS
 62
    47
 10
166.932943
 20
1.021765
 11
166.932943
 21
-3.978235
  0
LINE
  8
型材断面
  6
CONTINUOUS
 10
167.59967
 20
-3.978235
 11
166.932943
 21
-3.978235
  0
LINE
  8
型材断面
  6
CONTINUOUS
 10
167.49967
 20
-1.478235
 11
167.59967
 21
-1.378235
  0
LINE
  8
型材断面
  6
CONTINUOUS
 10
167.49967
 20
-1.478235
 11
167.59967
 21
-1.578235
  0
LINE
  8
型材断面
  6
CONTINUOUS
 62
    47
 10
167.599657
 20
1.021765
 11
167.599657
 21
-1.378247
  0
LINE
  8
型材断面
  6
CONTINUOUS
 62
    47
 10
167.599657
 20
-1.578222
 11
167.599657
 21
-3.978235
  0
LINE
  8
型材断面
  6
CONTINUOUS
 10
133.266295
 20
15.688422
 11
132.599638
 21
15.688422
  0
LINE
  8
型材断面
  6
CONTINUOUS
 62
    47
 10
133.266295
 20
12.688422
 11
133.266295
 21
15.688422
  0
LINE
  8
型材断面
  6
CONTINUOUS
 62
    47
 10
132.599638
 20
1.021765
 11
132.599638
 21
15.688422
  0
LINE
  8
型材断面
  6
CONTINUOUS
 10
141.099718
 20
28.354995
 11
141.099718
 21
26.68833
  0
CIRCLE
  8
LAYER010
  6
CONTINUOUS
 62
     7
 10
172.599575
 20
6.021743
 40
0.11111
  0
ENDBLK
  0
ENDSEC
  0
SECTION
  2
ENTITIES
  0
POLYLINE
  8
通り芯
  6
CONTINUOUS
 66
     1
 70
     1
  0
VERTEX
  8
通り芯
 10
-210.0
 20
-148.5
  0
VERTEX
  8
通り芯
 10
210.0
 20
-148.5
  0
VERTEX
  8
通り芯
 10
210.0
 20
148.5
  0
VERTEX
  8
通り芯
 10
-210.0
 20
148.5
  0
SEQEND
  0
LINE
  8
通り芯
  6
CONTINUOUS
 62
    64
 10
-75.017003
 20
-29.376152
 11
-75.017003
 21
-16.990293
  0
LINE
  8
通り芯
  6
CONTINUOUS
 10
-79.66702
 20
-24.273712
 11
-79.66702
 21
-24.940362
  0
LINE
  8
通り芯
  6
CONTINUOUS
 10
-69.1008
 20
-24.273712
 11
-69.1008
 21
-24.940362
  0
LINE
  8
通り芯
  6
CONTINUOUS
 62
    15
 10
-79.66702
 20
-24.940362
 11
-69.1008
 21
-24.940362
  0
LINE
  8
通り芯
  6
CONTINUOUS
 10
-79.66702
 20
-24.940362
 11
-69.1008
 21
-24.273712
  0
LINE
  8
通り芯
  6
CONTINUOUS
 10
70.80256
 20
-24.273712
 11
70.80256
 21
-24.940362
  0
LINE
  8
通り芯
  6
CONTINUOUS
 10
60.23634
 20
-24.273712
 11
60.23634
 21
-24.940362
  0
LINE
  8
通り芯
  6
CONTINUOUS
 62
    15
 10
70.80256
 20
-24.940362
 11
60.23634
 21
-24.940362
  0
LINE
  8
通り芯
  6
CONTINUOUS
 10
70.80256
 20
-24.940362
 11
60.23634
 21
-24.273712
  0
INSERT
  2
*GRP_0002
  8
型材
  6
DOT
 10
0.0
 20
0.0
  0
INSERT
  2
*GRP_0003
  8
型材
  6
DOT
 10
0.0
 20
0.0
  0
INSERT
  2
*GRP_0001
  8
型材断面
  6
CONTINUOUS
 10
0.0
 20
0.0
  0
LINE
  8
型材断面
  6
CONTINUOUS
 10
-4.43223
 20
-49.94039
 11
-58.350845
 21
-49.94039
  0
LINE
  8
型材断面
  6
CONTINUOUS
 10
-4.43223
 20
-49.94039
 11
49.486385
 21
-49.94039
  0
LINE
  8
型材断面
  6
DASHDOT
 10
-68.350335
 20
7.857978
 11
-68.350335
 21
-30.940348
  0
LINE
  8
型材断面
  6
DASHDOT
 10
59.485875
 20
7.857978
 11
59.485875
 21
-30.940348
  0
INSERT
  2
*GRP_0004
  8
型材断面
  6
CONTINUOUS
 10
0.0
 20
0.0
  0
LINE
  8
型材断面
  6
CONTINUOUS
 10
-64.017665
 20
-49.940385
 11
-64.017665
 21
-88.014215
  0
LINE
  8
型材断面
  6
CONTINUOUS
 10
-63.68433
 20
-49.940385
 11
-63.68433
 21
-88.014215
  0
LINE
  8
型材断面
  6
CONTINUOUS
 10
-60.017665
 20
-49.940385
 11
-60.017665
 21
-88.014215
  0
LINE
  8
型材断面
  6
CONTINUOUS
 10
-60.350997
 20
-49.940385
 11
-60.350997
 21
-88.014215
  0
INSERT
  2
*GRP_0005
  8
型材断面
  6
CONTINUOUS
 10
0.0
 20
0.0
  0
LINE
  8
型材断面
  6
CONTINUOUS
 10
94.308312
 20
-67.472175
 11
94.308312
 21
-67.472173
  0
LINE
  8
型材断面
  6
CONTINUOUS
 10
55.153205
 20
-49.940385
 11
55.153205
 21
-88.014215
  0
LINE
  8
型材断面
  6
CONTINUOUS
 10
54.81987
 20
-49.940385
 11
54.81987
 21
-88.014215
  0
LINE
  8
型材断面
  6
CONTINUOUS
 10
51.153205
 20
-49.940385
 11
51.153205
 21
-88.014215
  0
LINE
  8
型材断面
  6
CONTINUOUS
 10
51.486537
 20
-49.940385
 11
51.486537
 21
-88.014215
  0
LINE
  8
型材断面
  6
CONTINUOUS
 10
62.81987
 20
-50.473705
 11
62.81987
 21
-88.014215
  0
INSERT
  2
*GRP_0006
  8
型材断面
  6
CONTINUOUS
 10
0.0
 20
0.0
  0
INSERT
  2
*GRP_0007
  8
型材断面
  6
CONTINUOUS
 10
0.0
 20
0.0
  0
INSERT
  2
*GRP_0008
  8
型材断面
  6
CONTINUOUS
 10
0.0
 20
0.0
  0
INSERT
  2
*GRP_0009
  8
型材断面
  6
CONTINUOUS
 10
0.0
 20
0.0
  0
INSERT
  2
*GRP_0010
  8
型材断面
  6
CONTINUOUS
 10
0.0
 20
0.0
  0
LINE
  8
型材断面
  6
CONTINUOUS
 10
94.308312
 20
-70.805508
 11
94.308312
 21
-70.805505
  0
LINE
  8
型材断面
  6
CONTINUOUS
 10
94.308312
 20
-70.805508
 11
94.308312
 21
-70.805505
  0
LINE
  8
型材断面
  6
CONTINUOUS
 10
62.81987
 20
-73.273722
 11
112.81991
 21
-73.273722
  0
LINE
  8
型材断面
  6
CONTINUOUS
 10
112.819908
 20
-69.94039
 11
62.81987
 21
-69.94039
  0
ARC
  8
型材断面
  6
CONTINUOUS
 10
112.819907
 20
-73.273723
 40
3.333333
 50
0.0
 51
90.0
  0
LINE
  8
型材断面
  6
CONTINUOUS
 10
83.11555
 20
-88.014215
 11
68.375055
 21
-73.273722
  0
LINE
  8
型材断面
  6
CONTINUOUS
 10
80.758525
 20
-88.014215
 11
66.018032
 21
-73.273722
  0
LINE
  8
型材断面
  6
CONTINUOUS
 10
78.401503
 20
-88.014215
 11
63.66101
 21
-73.273722
  0
LINE
  8
型材断面
  6
CONTINUOUS
 10
112.80915
 20
-77.688617
 11
108.394255
 21
-73.273722
  0
LINE
  8
型材断面
  6
CONTINUOUS
 10
112.80915
 20
-80.04564
 11
106.03723
 21
-73.273722
  0
LINE
  8
型材断面
  6
CONTINUOUS
 10
112.80915
 20
-82.402663
 11
103.68021
 21
-73.273722
  0
LINE
  8
型材断面
  6
CONTINUOUS
 62
    47
 10
112.81991
 20
-88.014215
 11
112.81991
 21
-73.273722
  0
LINE
  8
型材断面
  6
CONTINUOUS
 62
    47
 10
116.15324
 20
-88.014215
 11
116.15324
 21
-73.273722
  0
LINE
  8
型材断面
  6
CONTINUOUS
 10
8.06777
 20
-32.940398
 11
58.819732
 21
-32.940398
  0
LINE
  8
型材断面
  6
CONTINUOUS
 10
-16.93223
 20
-32.940398
 11
-67.684192
 21
-32.940398
  0
LINE
  8
型材断面
  6
CONTINUOUS
 10
7.235557
 20
-23.607067
 11
49.05316
 21
-23.607067
  0
LINE
  8
型材断面
  6
CONTINUOUS
 10
-16.100018
 20
-23.607067
 11
-67.684192
 21
-23.607067
  0
LINE
  8
型材断面
  6
CONTINUOUS
 10
-67.684192
 20
-35.273733
 11
-67.684192
 21
-23.607067
  0
LINE
  8
型材断面
  6
CONTINUOUS
 10
58.819732
 20
-35.273733
 11
58.819732
 21
-30.273752
  0
LINE
  8
型材断面
  6
CONTINUOUS
 10
-103.172772
 20
-67.472175
 11
-103.172772
 21
-67.472173
  0
LINE
  8
型材断面
  6
CONTINUOUS
 10
-64.017665
 20
-49.940385
 11
-64.017665
 21
-88.014215
  0
LINE
  8
型材断面
  6
CONTINUOUS
 10
-63.68433
 20
-49.940385
 11
-63.68433
 21
-88.014215
  0
LINE
  8
型材断面
  6
CONTINUOUS
 10
-60.017665
 20
-49.940385
 11
-60.017665
 21
-88.014215
  0
LINE
  8
型材断面
  6
CONTINUOUS
 10
-60.350997
 20
-49.940385
 11
-60.350997
 21
-88.014215
  0
LINE
  8
型材断面
  6
CONTINUOUS
 10
-71.68433
 20
-50.473705
 11
-71.68433
 21
-88.014215
  0
LINE
  8
型材断面
  6
CONTINUOUS
 10
-103.172772
 20
-70.805508
 11
-103.172772
 21
-70.805505
  0
LINE
  8
型材断面
  6
CONTINUOUS
 10
-103.172772
 20
-70.805508
 11
-103.172772
 21
-70.805505
  0
LINE
  8
型材断面
  6
CONTINUOUS
 10
-71.68433
 20
-73.273722
 11
-121.68437
 21
-73.273722
  0
LINE
  8
型材断面
  6
CONTINUOUS
 10
-121.684368
 20
-69.94039
 11
-71.68433
 21
-69.94039
  0
ARC
  8
型材断面
  6
CONTINUOUS
 10
-121.684367
 20
-73.273723
 40
3.333333
 50
90.0
 51
180.0
  0
LINE
  8
型材断面
  6
CONTINUOUS
 10
-91.98001
 20
-88.014215
 11
-77.239515
 21
-73.273722
  0
LINE
  8
型材断面
  6
CONTINUOUS
 10
-89.622985
 20
-88.014215
 11
-74.882492
 21
-73.273722
  0
LINE
  8
型材断面
  6
CONTINUOUS
 10
-87.265963
 20
-88.014215
 11
-72.52547
 21
-73.273722
  0
LINE
  8
型材断面
  6
CONTINUOUS
 10
-121.67361
 20
-77.688617
 11
-117.258715
 21
-73.273722
  0
LINE
  8
型材断面
  6
CONTINUOUS
 10
-121.67361
 20
-80.04564
 11
-114.90169
 21
-73.273722
  0
LINE
  8
型材断面
  6
CONTINUOUS
 10
-121.67361
 20
-82.402663
 11
-112.54467
 21
-73.273722
  0
LINE
  8
型材断面
  6
CONTINUOUS
 62
    47
 10
-121.68437
 20
-88.014215
 11
-121.68437
 21
-73.273722
  0
LINE
  8
型材断面
  6
CONTINUOUS
 62
    47
 10
-125.0177
 20
-88.014215
 11
-125.0177
 21
-73.273722
  0
LINE
  8
型材断面
  6
DOT
 10
-69.017468
 20
-39.968607
 11
-68.35086
 21
-39.855608
  0
LINE
  8
型材断面
  6
DOT
 10
-68.35086
 20
-37.273755
 11
-69.017468
 21
-37.273755
  0
LINE
  8
型材断面
  6
DOT
 10
-68.850815
 20
-39.940358
 11
-68.850815
 21
-37.273755
  0
LINE
  8
型材断面
  6
DOT
 10
-68.684162
 20
-39.912108
 11
-68.684162
 21
-37.273755
  0
LINE
  8
型材断面
  6
DOT
 10
-68.517512
 20
-39.883857
 11
-68.517512
 21
-37.273755
  0
LINE
  8
型材断面
  6
DOT
 10
60.153008
 20
-39.968607
 11
59.4864
 21
-39.855608
  0
LINE
  8
型材断面
  6
DOT
 10
59.4864
 20
-37.273755
 11
60.153008
 21
-37.273755
  0
LINE
  8
型材断面
  6
DOT
 10
59.986355
 20
-39.940358
 11
59.986355
 21
-37.273755
  0
LINE
  8
型材断面
  6
DOT
 10
59.819702
 20
-39.912108
 11
59.819702
 21
-37.273755
  0
LINE
  8
型材断面
  6
DOT
 10
59.653053
 20
-39.883857
 11
59.653053
 21
-37.273755
  0
LINE
  8
型材断面
  6
DOT
 10
-66.850925
 20
-37.273755
 11
-65.684192
 21
-37.273755
  0
LINE
  8
型材断面
  6
DOT
 10
-65.684192
 20
-37.273755
 11
-65.684192
 21
-39.403645
  0
LINE
  8
型材断面
  6
DOT
 10
-65.684192
 20
-38.849727
 11
-66.35115
 21
-39.516685
  0
LINE
  8
型材断面
  6
DOT
 10
-65.684192
 20
-38.142623
 11
-67.202557
 21
-39.660985
  0
LINE
  8
型材断面
  6
DOT
 10
-65.684192
 20
-37.435515
 11
-68.053967
 21
-39.805288
  0
LINE
  8
型材断面
  6
DOT
 10
-66.22954
 20
-37.273755
 11
-68.35086
 21
-39.395075
  0
LINE
  8
型材断面
  6
DOT
 10
-66.936647
 20
-37.273755
 11
-68.35086
 21
-38.687968
  0
LINE
  8
型材断面
  6
DOT
 10
-67.643753
 20
-37.273755
 11
-68.35086
 21
-37.980862
  0
LINE
  8
型材断面
  6
DOT
 10
57.986465
 20
-37.273755
 11
56.819732
 21
-37.273755
  0
LINE
  8
型材断面
  6
DOT
 10
56.819732
 20
-37.273755
 11
56.819732
 21
-39.403645
  0
LINE
  8
型材断面
  6
DOT
 10
56.819732
 20
-38.849727
 11
57.48669
 21
-39.516685
  0
LINE
  8
型材断面
  6
DOT
 10
56.819732
 20
-38.142623
 11
58.338098
 21
-39.660985
  0
LINE
  8
型材断面
  6
DOT
 10
56.819732
 20
-37.435515
 11
59.189508
 21
-39.805288
  0
LINE
  8
型材断面
  6
DOT
 10
57.36508
 20
-37.273755
 11
59.4864
 21
-39.395075
  0
LINE
  8
型材断面
  6
DOT
 10
58.072187
 20
-37.273755
 11
59.4864
 21
-38.687968
  0
LINE
  8
型材断面
  6
DOT
 10
58.779292
 20
-37.273755
 11
59.4864
 21
-37.980862
  0
INSERT
  2
*GRP_0011
  8
型材断面
  6
DASHDOT
 62
    47
 10
0.0
 20
0.0
  0
INSERT
  2
*GRP_0012
  8
型材断面
  6
DOT
 10
0.0
 20
0.0
  0
INSERT
  2
*GRP_0013
  8
型材断面
  6
DOT
 10
0.0
 20
0.0
  0
LINE
  8
型材断面
  6
CONTINUOUS
 10
-60.6842
 20
-28.9404
 11
-13.998905
 21
-28.9404
  0
LINE
  8
型材断面
  6
CONTINUOUS
 10
51.81974
 20
-28.9404
 11
5.134438
 21
-28.9404
  0
POLYLINE
  8
型材断面
  6
CONTINUOUS
 66
     1
 70
     1
  0
VERTEX
  8
型材断面
 10
-150.343318
 20
118.183128
  0
VERTEX
  8
型材断面
 10
-166.343318
 20
118.183128
  0
VERTEX
  8
型材断面
 10
-166.343318
 20
102.183128
  0
VERTEX
  8
型材断面
 10
-150.343318
 20
102.183128
  0
SEQEND
  0
LINE
  8
型材断面
  6
CONTINUOUS
 10
-158.343318
 20
102.183128
 11
-158.343318
 21
118.183128
  0
POLYLINE
  8
型材断面
  6
CONTINUOUS
 66
     1
 70
     1
  0
VERTEX
  8
型材断面
 10
-149.318887
 20
122.945262
  0
VERTEX
  8
型材断面
 10
-168.129962
 20
122.945262
  0
VERTEX
  8
型材断面
 10
-168.129962
 20
118.806825
  0
VERTEX
  8
型材断面
 10
-149.318887
 20
118.806825
  0
SEQEND
  0
POLYLINE
  8
型材断面
  6
CONTINUOUS
 66
     1
 70
     1
  0
VERTEX
  8
型材断面
 10
-149.318887
 20
101.401615
  0
VERTEX
  8
型材断面
 10
-168.129962
 20
101.401615
  0
VERTEX
  8
型材断面
 10
-168.129962
 20
97.263177
  0
VERTEX
  8
型材断面
 10
-149.318887
 20
97.263177
  0
SEQEND
  0
POLYLINE
  8
型材断面
  6
CONTINUOUS
 66
     1
 70
     1
  0
VERTEX
  8
型材断面
 10
-108.332975
 20
120.183128
  0
VERTEX
  8
型材断面
 10
-126.332975
 20
120.183128
  0
VERTEX
  8
型材断面
 10
-126.332975
 20
102.183128
  0
VERTEX
  8
型材断面
 10
-108.332975
 20
102.183128
  0
SEQEND
  0
LINE
  8
型材断面
  6
CONTINUOUS
 10
-117.332975
 20
102.183128
 11
-117.332975
 21
120.183128
  0
LINE
  8
型材断面
  6
CONTINUOUS
 10
-108.332975
 20
111.183128
 11
-126.332975
 21
111.183128
  0
POLYLINE
  8
型材断面
  6
CONTINUOUS
 66
     1
 70
     1
  0
VERTEX
  8
型材断面
 10
-108.09576
 20
125.263098
  0
VERTEX
  8
型材断面
 10
-126.906835
 20
125.263098
  0
VERTEX
  8
型材断面
 10
-126.906835
 20
121.12466
  0
VERTEX
  8
型材断面
 10
-108.09576
 20
121.12466
  0
SEQEND
  0
POLYLINE
  8
型材断面
  6
CONTINUOUS
 66
     1
 70
     1
  0
VERTEX
  8
型材断面
 10
-108.09576
 20
101.31139
  0
VERTEX
  8
型材断面
 10
-126.906835
 20
101.31139
  0
VERTEX
  8
型材断面
 10
-126.906835
 20
97.172953
  0
VERTEX
  8
型材断面
 10
-108.09576
 20
97.172953
  0
SEQEND
  0
POLYLINE
  8
型材断面
  6
CONTINUOUS
 66
     1
 70
     1
  0
VERTEX
  8
型材断面
 10
-65.77589
 20
122.183128
  0
VERTEX
  8
型材断面
 10
-85.77589
 20
122.183128
  0
VERTEX
  8
型材断面
 10
-85.77589
 20
102.183128
  0
VERTEX
  8
型材断面
 10
-65.77589
 20
102.183128
  0
SEQEND
  0
LINE
  8
型材断面
  6
CONTINUOUS
 10
-75.77589
 20
102.183128
 11
-75.77589
 21
122.183128
  0
LINE
  8
型材断面
  6
CONTINUOUS
 10
-65.77589
 20
112.183128
 11
-85.77589
 21
112.183128
  0
POLYLINE
  8
型材断面
  6
CONTINUOUS
 66
     1
 70
     1
  0
VERTEX
  8
型材断面
 10
-66.4855
 20
127.003
  0
VERTEX
  8
型材断面
 10
-85.296575
 20
127.003
  0
VERTEX
  8
型材断面
 10
-85.296575
 20
122.864562
  0
VERTEX
  8
型材断面
 10
-66.4855
 20
122.864562
  0
SEQEND
  0
POLYLINE
  8
型材断面
  6
CONTINUOUS
 66
     1
 70
     1
  0
VERTEX
  8
型材断面
 10
-66.4855
 20
101.407885
  0
VERTEX
  8
型材断面
 10
-85.296575
 20
101.407885
  0
VERTEX
  8
型材断面
 10
-85.296575
 20
97.269448
  0
VERTEX
  8
型材断面
 10
-66.4855
 20
97.269448
  0
SEQEND
  0
POLYLINE
  8
型材断面
  6
DASHED
 66
     1
 70
     1
  0
VERTEX
  8
型材断面
 10
-63.83965
 20
130.267225
  0
VERTEX
  8
型材断面
 10
-180.21503
 20
130.267225
  0
VERTEX
  8
型材断面
 10
-180.21503
 20
95.808143
  0
VERTEX
  8
型材断面
 10
-63.83965
 20
95.808143
  0
SEQEND
  0
LINE
  8
型材断面
  6
CONTINUOUS
 10
-176.12001
 20
124.750553
 11
-139.099585
 21
124.750553
  0
LINE
  8
型材断面
  6
CONTINUOUS
 10
-176.12001
 20
124.250553
 11
-139.099585
 21
124.250553
  0
LINE
  8
型材断面
  6
CONTINUOUS
 10
-126.556818
 20
79.135852
 11
-166.556818
 21
79.135852
  0
LINE
  8
型材断面
  6
CONTINUOUS
 10
-126.556818
 20
73.135852
 11
-166.556818
 21
73.135852
  0
LINE
  8
型材断面
  6
CONTINUOUS
 10
-166.556818
 20
73.135852
 11
-166.556818
 21
79.135852
  0
LINE
  8
型材断面
  6
CONTINUOUS
 10
-156.556818
 20
73.135852
 11
-156.556818
 21
79.135852
  0
LINE
  8
型材断面
  6
CONTINUOUS
 10
-146.556818
 20
73.135852
 11
-146.556818
 21
79.135852
  0
LINE
  8
型材断面
  6
CONTINUOUS
 10
-136.556818
 20
73.135852
 11
-136.556818
 21
79.135852
  0
LINE
  8
型材断面
  6
CONTINUOUS
 10
-126.556818
 20
73.135852
 11
-126.556818
 21
79.135852
  0
POLYLINE
  8
型材断面
  6
CONTINUOUS
 66
     1
 70
     1
  0
VERTEX
  8
型材断面
 10
-138.655353
 20
83.985527
  0
VERTEX
  8
型材断面
 10
-157.466428
 20
83.985527
  0
VERTEX
  8
型材断面
 10
-157.466428
 20
79.84709
  0
VERTEX
  8
型材断面
 10
-138.655353
 20
79.84709
  0
SEQEND
  0
POLYLINE
  8
型材断面
  6
CONTINUOUS
 66
     1
 70
     1
  0
VERTEX
  8
型材断面
 10
-138.655353
 20
72.4839
  0
VERTEX
  8
型材断面
 10
-157.466428
 20
72.4839
  0
VERTEX
  8
型材断面
 10
-157.466428
 20
68.345463
  0
VERTEX
  8
型材断面
 10
-138.655353
 20
68.345463
  0
SEQEND
  0
LINE
  8
型材断面
  6
CONTINUOUS
 10
-126.556818
 20
57.52999
 11
-166.556818
 21
57.52999
  0
LINE
  8
型材断面
  6
CONTINUOUS
 10
-126.556818
 20
48.52999
 11
-166.556818
 21
48.52999
  0
LINE
  8
型材断面
  6
CONTINUOUS
 10
-166.556818
 20
48.52999
 11
-166.556818
 21
57.52999
  0
LINE
  8
型材断面
  6
CONTINUOUS
 10
-156.556818
 20
48.52999
 11
-156.556818
 21
57.52999
  0
LINE
  8
型材断面
  6
CONTINUOUS
 10
-146.556818
 20
48.52999
 11
-146.556818
 21
57.52999
  0
LINE
  8
型材断面
  6
CONTINUOUS
 10
-136.556818
 20
48.52999
 11
-136.556818
 21
57.52999
  0
LINE
  8
型材断面
  6
CONTINUOUS
 10
-126.556818
 20
48.52999
 11
-126.556818
 21
57.52999
  0
LINE
  8
型材断面
  6
CONTINUOUS
 10
-126.556818
 20
48.52999
 11
-166.556818
 21
48.52999
  0
POLYLINE
  8
型材断面
  6
CONTINUOUS
 66
     1
 70
     1
  0
VERTEX
  8
型材断面
 10
-138.655353
 20
62.415497
  0
VERTEX
  8
型材断面
 10
-157.466428
 20
62.415497
  0
VERTEX
  8
型材断面
 10
-157.466428
 20
58.27706
  0
VERTEX
  8
型材断面
 10
-138.655353
 20
58.27706
  0
SEQEND
  0
POLYLINE
  8
型材断面
  6
CONTINUOUS
 66
     1
 70
     1
  0
VERTEX
  8
型材断面
 10
-138.655353
 20
47.850353
  0
VERTEX
  8
型材断面
 10
-157.466428
 20
47.850353
  0
VERTEX
  8
型材断面
 10
-157.466428
 20
43.711915
  0
VERTEX
  8
型材断面
 10
-138.655353
 20
43.711915
  0
SEQEND
  0
LINE
  8
型材断面
  6
CONTINUOUS
 10
-126.556818
 20
31.731942
 11
-166.556818
 21
31.731942
  0
LINE
  8
型材断面
  6
CONTINUOUS
 10
-126.556818
 20
18.731942
 11
-166.556818
 21
18.731942
  0
LINE
  8
型材断面
  6
CONTINUOUS
 10
-166.556818
 20
18.731942
 11
-166.556818
 21
31.731942
  0
LINE
  8
型材断面
  6
CONTINUOUS
 10
-156.556818
 20
18.731942
 11
-156.556818
 21
31.731942
  0
LINE
  8
型材断面
  6
CONTINUOUS
 10
-146.556818
 20
18.731942
 11
-146.556818
 21
31.731942
  0
LINE
  8
型材断面
  6
CONTINUOUS
 10
-136.556818
 20
18.731942
 11
-136.556818
 21
31.731942
  0
LINE
  8
型材断面
  6
CONTINUOUS
 10
-126.556818
 20
18.731942
 11
-126.556818
 21
31.731942
  0
POLYLINE
  8
型材断面
  6
CONTINUOUS
 66
     1
 70
     1
  0
VERTEX
  8
型材断面
 10
-138.655353
 20
36.563708
  0
VERTEX
  8
型材断面
 10
-157.466428
 20
36.563708
  0
VERTEX
  8
型材断面
 10
-157.466428
 20
32.42527
  0
VERTEX
  8
型材断面
 10
-138.655353
 20
32.42527
  0
SEQEND
  0
POLYLINE
  8
型材断面
  6
CONTINUOUS
 66
     1
 70
     1
  0
VERTEX
  8
型材断面
 10
-138.655353
 20
18.078365
  0
VERTEX
  8
型材断面
 10
-157.466428
 20
18.078365
  0
VERTEX
  8
型材断面
 10
-157.466428
 20
13.939927
  0
VERTEX
  8
型材断面
 10
-138.655353
 20
13.939927
  0
SEQEND
  0
LINE
  8
型材断面
  6
CONTINUOUS
 10
-126.556818
 20
2.064187
 11
-166.556818
 21
2.064187
  0
LINE
  8
型材断面
  6
CONTINUOUS
 10
-126.556818
 20
-17.935812
 11
-166.556818
 21
-17.935812
  0
LINE
  8
型材断面
  6
CONTINUOUS
 10
-166.556818
 20
-17.935812
 11
-166.556818
 21
2.064187
  0
LINE
  8
型材断面
  6
CONTINUOUS
 10
-156.556818
 20
-17.935812
 11
-156.556818
 21
2.064187
  0
LINE
  8
型材断面
  6
CONTINUOUS
 10
-146.556818
 20
-17.935812
 11
-146.556818
 21
2.064187
  0
LINE
  8
型材断面
  6
CONTINUOUS
 10
-136.556818
 20
-17.935812
 11
-136.556818
 21
2.064187
  0
LINE
  8
型材断面
  6
CONTINUOUS
 10
-126.556818
 20
-17.935812
 11
-126.556818
 21
2.064187
  0
LINE
  8
型材断面
  6
CONTINUOUS
 10
-126.556818
 20
-7.935812
 11
-166.556818
 21
-7.935812
  0
POLYLINE
  8
型材断面
  6
CONTINUOUS
 66
     1
 70
     1
  0
VERTEX
  8
型材断面
 10
-138.655353
 20
6.89921
  0
VERTEX
  8
型材断面
 10
-157.466428
 20
6.89921
  0
VERTEX
  8
型材断面
 10
-157.466428
 20
2.760772
  0
VERTEX
  8
型材断面
 10
-138.655353
 20
2.760772
  0
SEQEND
  0
POLYLINE
  8
型材断面
  6
CONTINUOUS
 66
     1
 70
     1
  0
VERTEX
  8
型材断面
 10
-138.655353
 20
-18.794683
  0
VERTEX
  8
型材断面
 10
-157.466428
 20
-18.794683
  0
VERTEX
  8
型材断面
 10
-157.466428
 20
-22.93312
  0
VERTEX
  8
型材断面
 10
-138.655353
 20
-22.93312
  0
SEQEND
  0
LINE
  8
型材断面
  6
CONTINUOUS
 10
-178.000997
 20
87.535392
 11
-137.141483
 21
87.535392
  0
LINE
  8
型材断面
  6
CONTINUOUS
 10
-178.000997
 20
87.035392
 11
-137.141483
 21
87.035392
  0
POLYLINE
  8
型材断面
  6
DASHED
 66
     1
 70
     1
  0
VERTEX
  8
型材断面
 10
-119.795215
 20
93.018345
  0
VERTEX
  8
型材断面
 10
-180.15344
 20
93.018345
  0
VERTEX
  8
型材断面
 10
-180.15344
 20
-27.812518
  0
VERTEX
  8
型材断面
 10
-119.795215
 20
-27.812518
  0
SEQEND
  0
LINE
  8
型材断面
  6
CONTINUOUS
 10
-67.684192
 20
-35.273733
 11
-16.93223
 21
-35.273733
  0
LINE
  8
型材断面
  6
CONTINUOUS
 10
58.819732
 20
-35.273733
 11
8.06777
 21
-35.273733
  0
INSERT
  2
*GRP_0130
  8
型材断面
  6
CONTINUOUS
 10
0.0
 20
0.0
  0
INSERT
  2
*GRP_0131
  8
型材断面
  6
CONTINUOUS
 10
0.0
 20
0.0
  0
INSERT
  2
*GRP_0132
  8
型材断面
  6
CONTINUOUS
 10
0.0
 20
0.0
  0
LINE
  8
型材断面
  6
CONTINUOUS
 10
-4.432222
 20
-89.162637
 11
18.901105
 21
-89.162637
  0
LINE
  8
型材断面
  6
CONTINUOUS
 10
5.134445
 20
-86.829302
 11
18.901105
 21
-86.829302
  0
LINE
  8
型材断面
  6
CONTINUOUS
 10
5.134445
 20
-82.829305
 11
18.901105
 21
-82.829305
  0
LINE
  8
型材断面
  6
CONTINUOUS
 10
7.235565
 20
-77.495972
 11
18.901105
 21
-77.495972
  0
LINE
  8
型材断面
  6
CONTINUOUS
 10
-4.432222
 20
-89.162637
 11
-27.765563
 21
-89.162637
  0
LINE
  8
型材断面
  6
CONTINUOUS
 10
-13.99889
 20
-86.829302
 11
-27.765563
 21
-86.829302
  0
LINE
  8
型材断面
  6
CONTINUOUS
 10
-13.99889
 20
-82.829305
 11
-27.765563
 21
-82.829305
  0
LINE
  8
型材断面
  6
CONTINUOUS
 10
-16.10001
 20
-77.495972
 11
-27.765563
 21
-77.495972
  0
INSERT
  2
*GRP_0148
  8
型材断面
  6
CONTINUOUS
 10
0.0
 20
0.0
  0
LINE
  8
型材断面
  6
DOT
 10
143.26626
 20
10.993548
 11
142.599653
 21
11.106547
  0
LINE
  8
型材断面
  6
DOT
 10
142.599653
 20
13.6884
 11
143.26626
 21
13.6884
  0
LINE
  8
型材断面
  6
DOT
 10
141.099718
 20
13.6884
 11
139.932985
 21
13.6884
  0
LINE
  8
型材断面
  6
DOT
 10
139.932985
 20
13.6884
 11
139.932985
 21
11.55851
  0
LINE
  8
型材断面
  6
DOT
 10
143.099607
 20
11.021797
 11
143.099607
 21
13.6884
  0
LINE
  8
型材断面
  6
DOT
 10
142.932955
 20
11.050048
 11
142.932955
 21
13.6884
  0
LINE
  8
型材断面
  6
DOT
 10
142.766305
 20
11.078298
 11
142.766305
 21
13.6884
  0
INSERT
  2
*HAT_0012
  8
型材断面
 10
0.0
 20
0.0
  0
LINE
  8
型材断面
  6
CONTINUOUS
 10
142.432985
 20
20.688402
 11
142.432985
 21
15.688422
  0
LINE
  8
型材断面
  6
CONTINUOUS
 10
134.932993
 20
22.021765
 11
112.15394
 21
22.021765
  0
LINE
  8
型材断面
  6
CONTINUOUS
 10
142.432985
 20
18.021755
 11
112.15394
 21
18.021755
  0
LINE
  8
型材断面
  6
DOT
 10
142.432985
 20
16.3551
 11
112.15394
 21
16.3551
  0
LINE
  8
型材断面
  6
CONTINUOUS
 10
142.432985
 20
15.688422
 11
112.15394
 21
15.688422
  0
LINE
  8
型材断面
  6
CONTINUOUS
 10
132.599638
 20
1.021765
 11
112.15394
 21
1.021765
  0
LINE
  8
型材断面
  6
DASHDOT
 10
142.599128
 20
20.688402
 11
142.599128
 21
28.354995
  0
LINE
  8
ガラス
  6
CONTINUOUS
 10
-65.017003
 20
-25.673737
 11
-65.017003
 21
-27.940387
  0
LINE
  8
ガラス
  6
CONTINUOUS
 10
56.152542
 20
-25.673737
 11
56.152542
 21
-27.940387
  0
LINE
  8
ガラス
  6
CONTINUOUS
 10
0.902225
 20
-25.840402
 11
56.152542
 21
-25.840402
  0
LINE
  8
ガラス
  6
CONTINUOUS
 10
0.902225
 20
-25.673737
 11
56.152542
 21
-25.673737
  0
LINE
  8
ガラス
  6
CONTINUOUS
 10
-9.766685
 20
-25.840402
 11
-65.017003
 21
-25.840402
  0
LINE
  8
ガラス
  6
CONTINUOUS
 10
-9.766685
 20
-25.673737
 11
-65.017003
 21
-25.673737
  0
LINE
  8
ガラス
  6
CONTINUOUS
 10
-9.766685
 20
-27.940387
 11
-65.017003
 21
-27.940387
  0
LINE
  8
ガラス
  6
CONTINUOUS
 10
-9.766685
 20
-27.773722
 11
-65.017003
 21
-27.773722
  0
LINE
  8
ガラス
  6
CONTINUOUS
 10
0.902225
 20
-27.773722
 11
56.152542
 21
-27.773722
  0
LINE
  8
ガラス
  6
CONTINUOUS
 10
0.902225
 20
-27.940387
 11
56.152542
 21
-27.940387
  0
INSERT
  2
*GRP_0014
  8
ガラス
  6
CONTINUOUS
 10
0.0
 20
0.0
  0
INSERT
  2
*GRP_0015
  8
ガラス
  6
CONTINUOUS
 10
0.0
 20
0.0
  0
INSERT
  2
*GRP_0016
  8
ガラス
  6
CONTINUOUS
 10
0.0
 20
0.0
  0
INSERT
  2
*GRP_0017
  8
ガラス
  6
CONTINUOUS
 10
0.0
 20
0.0
  0
INSERT
  2
*GRP_0018
  8
ガラス
  6
CONTINUOUS
 10
0.0
 20
0.0
  0
INSERT
  2
*GRP_0019
  8
ガラス
  6
CONTINUOUS
 10
0.0
 20
0.0
  0
INSERT
  2
*GRP_0020
  8
ガラス
  6
CONTINUOUS
 10
0.0
 20
0.0
  0
INSERT
  2
*GRP_0021
  8
ガラス
  6
CONTINUOUS
 10
0.0
 20
0.0
  0
INSERT
  2
*GRP_0022
  8
ガラス
  6
CONTINUOUS
 10
0.0
 20
0.0
  0
INSERT
  2
*GRP_0023
  8
ガラス
  6
CONTINUOUS
 10
0.0
 20
0.0
  0
LINE
  8
ガラス
  6
CONTINUOUS
 10
-9.765572
 20
-27.940402
 11
-9.765572
 21
-25.673737
  0
LINE
  8
ガラス
  6
CONTINUOUS
 10
0.901113
 20
-27.940402
 11
0.901113
 21
-25.673737
  0
LINE
  8
ガラス
  6
CONTINUOUS
 10
0.902232
 20
-79.562643
 11
0.902232
 21
-81.82931
  0
LINE
  8
ガラス
  6
CONTINUOUS
 10
-9.766677
 20
-79.562643
 11
-9.766677
 21
-81.82931
  0
LINE
  8
ガラス
  6
CONTINUOUS
 10
-9.766677
 20
-81.16264
 11
-9.766677
 21
-79.562643
  0
LINE
  8
ガラス
  6
CONTINUOUS
 10
0.902232
 20
-81.16264
 11
0.902232
 21
-79.562643
  0
LINE
  8
ガラス
  6
CONTINUOUS
 10
0.902232
 20
-81.829307
 11
18.901105
 21
-81.829307
  0
LINE
  8
ガラス
  6
CONTINUOUS
 10
0.902232
 20
-81.662643
 11
18.901105
 21
-81.662643
  0
LINE
  8
ガラス
  6
CONTINUOUS
 10
0.902232
 20
-79.562643
 11
18.901105
 21
-79.562643
  0
LINE
  8
ガラス
  6
CONTINUOUS
 10
0.902232
 20
-79.729307
 11
18.901105
 21
-79.729307
  0
LINE
  8
ガラス
  6
CONTINUOUS
 10
-9.766677
 20
-81.662643
 11
-27.765563
 21
-81.662643
  0
LINE
  8
ガラス
  6
CONTINUOUS
 10
-9.766677
 20
-81.829307
 11
-27.765563
 21
-81.829307
  0
LINE
  8
ガラス
  6
CONTINUOUS
 10
-9.766677
 20
-79.562643
 11
-27.765563
 21
-79.562643
  0
LINE
  8
ガラス
  6
CONTINUOUS
 10
-9.766677
 20
-79.729307
 11
-27.765563
 21
-79.729307
  0
INSERT
  2
*GRP_0024
  8
ゴム等
  6
CONTINUOUS
 10
0.0
 20
0.0
  0
INSERT
  2
*GRP_0025
  8
ゴム等
  6
CONTINUOUS
 10
0.0
 20
0.0
  0
INSERT
  2
*GRP_0026
  8
ゴム等
  6
CONTINUOUS
 10
0.0
 20
0.0
  0
INSERT
  2
*GRP_0027
  8
ゴム等
  6
CONTINUOUS
 10
0.0
 20
0.0
  0
INSERT
  2
*GRP_0028
  8
ゴム等
  6
DOT
 10
0.0
 20
0.0
  0
INSERT
  2
*GRP_0029
  8
ゴム等
  6
DOT
 10
0.0
 20
0.0
  0
INSERT
  2
*GRP_0030
  8
ゴム等
  6
CONTINUOUS
 10
0.0
 20
0.0
  0
INSERT
  2
*GRP_0133
  8
ゴム等
  6
CONTINUOUS
 10
0.0
 20
0.0
  0
INSERT
  2
*GRP_0134
  8
ゴム等
  6
CONTINUOUS
 10
0.0
 20
0.0
  0
INSERT
  2
*GRP_0135
  8
ゴム等
  6
CONTINUOUS
 10
0.0
 20
0.0
  0
INSERT
  2
*GRP_0136
  8
ゴム等
  6
CONTINUOUS
 10
0.0
 20
0.0
  0
INSERT
  2
*GRP_0031
  8
ボルト／ビス
  6
CONTINUOUS
 62
    64
 10
0.0
 20
0.0
  0
INSERT
  2
*GRP_0032
  8
ボルト／ビス
  6
CONTINUOUS
 62
    64
 10
0.0
 20
0.0
  0
INSERT
  2
*GRP_0033
  8
ボルト／ビス
  6
DOT
 62
    64
 10
0.0
 20
0.0
  0
INSERT
  2
*GRP_0034
  8
ボルト／ビス
  6
DOT
 62
    64
 10
0.0
 20
0.0
  0
INSERT
  2
*GRP_0035
  8
ボルト／ビス
  6
CONTINUOUS
 62
    64
 10
0.0
 20
0.0
  0
INSERT
  2
*GRP_0036
  8
ボルト／ビス
  6
CONTINUOUS
 62
    64
 10
0.0
 20
0.0
  0
INSERT
  2
*GRP_0037
  8
ボルト／ビス
  6
CONTINUOUS
 62
    64
 10
0.0
 20
0.0
  0
INSERT
  2
*GRP_0038
  8
ボルト／ビス
  6
CONTINUOUS
 62
    64
 10
0.0
 20
0.0
  0
INSERT
  2
*GRP_0039
  8
ボルト／ビス
  6
CONTINUOUS
 62
    64
 10
0.0
 20
0.0
  0
INSERT
  2
*GRP_0040
  8
ボルト／ビス
  6
CONTINUOUS
 62
    64
 10
0.0
 20
0.0
  0
INSERT
  2
*GRP_0041
  8
ボルト／ビス
  6
CONTINUOUS
 62
    64
 10
0.0
 20
0.0
  0
INSERT
  2
*GRP_0042
  8
ボルト／ビス
  6
CONTINUOUS
 62
    64
 10
0.0
 20
0.0
  0
INSERT
  2
*GRP_0043
  8
ボルト／ビス
  6
DOT
 62
    64
 10
0.0
 20
0.0
  0
INSERT
  2
*GRP_0044
  8
ボルト／ビス
  6
DOT
 62
    64
 10
0.0
 20
0.0
  0
INSERT
  2
*GRP_0117
  8
ボルト／ビス
  6
CONTINUOUS
 62
    64
 10
0.0
 20
0.0
  0
INSERT
  2
*GRP_0118
  8
ボルト／ビス
  6
CONTINUOUS
 62
    64
 10
0.0
 20
0.0
  0
INSERT
  2
*GRP_0119
  8
ボルト／ビス
  6
CONTINUOUS
 62
    64
 10
0.0
 20
0.0
  0
INSERT
  2
*GRP_0120
  8
ボルト／ビス
  6
CONTINUOUS
 62
    64
 10
0.0
 20
0.0
  0
INSERT
  2
*GRP_0137
  8
ボルト／ビス
  6
CONTINUOUS
 62
    64
 10
0.0
 20
0.0
  0
INSERT
  2
*GRP_0138
  8
ボルト／ビス
  6
CONTINUOUS
 62
    64
 10
0.0
 20
0.0
  0
INSERT
  2
*GRP_0139
  8
ボルト／ビス
  6
CONTINUOUS
 62
    64
 10
0.0
 20
0.0
  0
INSERT
  2
*GRP_0140
  8
ボルト／ビス
  6
CONTINUOUS
 62
    64
 10
0.0
 20
0.0
  0
TEXT
  7
TextStyle03
  8
文字
  6
CONTINUOUS
 10
100.75
 20
80.575
  1
耐火仕様
 40
5.0
 72
     5
 11
122.625
 21
80.575
  0
TEXT
  7
TextStyle03
  8
文字
  6
CONTINUOUS
 10
142.9
 20
82.675
  1
＝Ｓt
 40
3.0
 72
     5
 11
151.15
 21
82.675
  0
TEXT
  7
TextStyle03
  8
文字
  6
CONTINUOUS
 10
142.9
 20
75.6
  1
＝ＳＵＳ
 40
3.0
 72
     5
 11
156.025
 21
75.6
  0
TEXT
  7
TextStyle03
  8
文字
  6
CONTINUOUS
 10
142.9
 20
68.875
  1
＝ＡＬ
 40
3.0
 72
     5
 11
152.65
 21
68.875
  0
TEXT
  7
TextStyle03
  8
文字
  6
CONTINUOUS
 10
97.525
 20
102.925
  1
ＮＳコード：ＮＳＫＺ
 40
5.0
 72
     5
 11
153.15
 21
102.925
  0
TEXT
  7
TextStyle03
  8
文字
  6
CONTINUOUS
 10
97.525
 20
125.25
  1
シリーズ：ＴＤ２Ｋ
 40
5.0
 72
     5
 11
147.525
 21
125.25
  0
TEXT
  7
TextStyle03
  8
文字
  6
CONTINUOUS
 10
97.525
 20
119.625
  1
　　　　　(固定)
 40
5.0
 72
     5
 11
142.2125
 21
119.625
  0
TEXT
  7
TextStyle03
  8
文字
  6
CONTINUOUS
 10
97.525
 20
114.0
  1
図面名　：全体納まり断面図
 40
5.0
 72
     5
 11
170.025
 21
114.0
  0
TEXT
  7
TextStyle03
  8
文字
  6
CONTINUOUS
 10
-131.8
 20
-48.075
  1
規格水切
 40
3.0
 72
     5
 11
-118.675
 21
-48.075
  0
TEXT
  7
TextStyle03
  8
文字
  6
CONTINUOUS
 10
134.575
 20
-64.5
  1
排水パイプ(オプション)
 40
3.0
 72
     5
 11
171.5125
 21
-64.5
  0
TEXT
  7
TextStyle03
  8
文字
  6
CONTINUOUS
 10
134.575
 20
-67.875
  1
□10×10×1 L=60
 40
3.0
 72
     5
 11
161.3875
 21
-67.875
  0
TEXT
  7
TextStyle03
  8
文字
  6
CONTINUOUS
 10
-166.8
 20
119.425
  1
可動装置側
 40
3.0
 72
     5
 11
-150.3
 21
119.425
  0
TEXT
  7
TextStyle03
  8
文字
  6
CONTINUOUS
 10
-166.8
 20
97.9
  1
可動装置側
 40
3.0
 72
     5
 11
-150.3
 21
97.9
  0
TEXT
  7
TextStyle03
  8
文字
  6
CONTINUOUS
 10
-166.075
 20
110.4
  1
大
 40
3.0
 72
     5
 11
-163.075
 21
110.4
  0
TEXT
  7
TextStyle03
  8
文字
  6
CONTINUOUS
 10
-125.65
 20
121.75
  1
可動装置側
 40
3.0
 72
     5
 11
-109.15
 21
121.75
  0
TEXT
  7
TextStyle03
  8
文字
  6
CONTINUOUS
 10
-125.65
 20
97.8
  1
可動装置側
 40
3.0
 72
     5
 11
-109.15
 21
97.8
  0
TEXT
  7
TextStyle03
  8
文字
  6
CONTINUOUS
 10
-112.225
 20
103.9
  1
小
 40
3.0
 72
     5
 11
-109.225
 21
103.9
  0
TEXT
  7
TextStyle03
  8
文字
  6
CONTINUOUS
 10
-125.375
 20
115.075
  1
大
 40
3.0
 72
     5
 11
-122.375
 21
115.075
  0
TEXT
  7
TextStyle03
  8
文字
  6
CONTINUOUS
 10
-121.975
 20
103.9
  1
小
 40
3.0
 72
     5
 11
-118.975
 21
103.9
  0
TEXT
  7
TextStyle03
  8
文字
  6
CONTINUOUS
 10
-84.075
 20
123.45
  1
可動装置側
 40
3.0
 72
     5
 11
-67.575
 21
123.45
  0
TEXT
  7
TextStyle03
  8
文字
  6
CONTINUOUS
 10
-84.075
 20
97.875
  1
可動装置側
 40
3.0
 72
     5
 11
-67.575
 21
97.875
  0
TEXT
  7
TextStyle03
  8
文字
  6
CONTINUOUS
 10
-70.65
 20
104.9
  1
小
 40
3.0
 72
     5
 11
-67.65
 21
104.9
  0
TEXT
  7
TextStyle03
  8
文字
  6
CONTINUOUS
 10
-80.65
 20
104.9
  1
小
 40
3.0
 72
     5
 11
-77.65
 21
104.9
  0
TEXT
  7
TextStyle03
  8
文字
  6
CONTINUOUS
 10
-83.825
 20
116.825
  1
大
 40
3.0
 72
     5
 11
-80.825
 21
116.825
  0
TEXT
  7
TextStyle03
  8
文字
  6
CONTINUOUS
 10
-174.925
 20
125.625
  1
角タイプ 中桟フレーム
 40
3.0
 72
     5
 11
-139.8625
 21
125.625
  0
TEXT
  7
TextStyle03
  8
文字
  6
CONTINUOUS
 10
-156.15
 20
80.45
  1
可動装置側
 40
3.0
 72
     5
 11
-139.65
 21
80.45
  0
TEXT
  7
TextStyle03
  8
文字
  6
CONTINUOUS
 10
-156.15
 20
68.95
  1
可動装置側
 40
3.0
 72
     5
 11
-139.65
 21
68.95
  0
TEXT
  7
TextStyle03
  8
文字
  6
CONTINUOUS
 10
-156.15
 20
58.875
  1
可動装置側
 40
3.0
 72
     5
 11
-139.65
 21
58.875
  0
TEXT
  7
TextStyle03
  8
文字
  6
CONTINUOUS
 10
-156.15
 20
44.325
  1
可動装置側
 40
3.0
 72
     5
 11
-139.65
 21
44.325
  0
TEXT
  7
TextStyle03
  8
文字
  6
CONTINUOUS
 10
-156.15
 20
33.05
  1
可動装置側
 40
3.0
 72
     5
 11
-139.65
 21
33.05
  0
TEXT
  7
TextStyle03
  8
文字
  6
CONTINUOUS
 10
-156.15
 20
14.575
  1
可動装置側
 40
3.0
 72
     5
 11
-139.65
 21
14.575
  0
TEXT
  7
TextStyle03
  8
文字
  6
CONTINUOUS
 10
-156.15
 20
3.425
  1
可動装置側
 40
3.0
 72
     5
 11
-139.65
 21
3.425
  0
TEXT
  7
TextStyle03
  8
文字
  6
CONTINUOUS
 10
-156.15
 20
-22.25
  1
可動装置側
 40
3.0
 72
     5
 11
-139.65
 21
-22.25
  0
TEXT
  7
TextStyle03
  8
文字
  6
CONTINUOUS
 10
-164.575
 20
75.55
  1
小
 40
3.0
 72
     5
 11
-161.575
 21
75.55
  0
TEXT
  7
TextStyle03
  8
文字
  6
CONTINUOUS
 10
-154.575
 20
75.55
  1
小
 40
3.0
 72
     5
 11
-151.575
 21
75.55
  0
TEXT
  7
TextStyle03
  8
文字
  6
CONTINUOUS
 10
-144.575
 20
75.55
  1
小
 40
3.0
 72
     5
 11
-141.575
 21
75.55
  0
TEXT
  7
TextStyle03
  8
文字
  6
CONTINUOUS
 10
-164.575
 20
53.125
  1
小
 40
3.0
 72
     5
 11
-161.575
 21
53.125
  0
TEXT
  7
TextStyle03
  8
文字
  6
CONTINUOUS
 10
-154.575
 20
53.125
  1
小
 40
3.0
 72
     5
 11
-151.575
 21
53.125
  0
TEXT
  7
TextStyle03
  8
文字
  6
CONTINUOUS
 10
-144.575
 20
53.125
  1
小
 40
3.0
 72
     5
 11
-141.575
 21
53.125
  0
TEXT
  7
TextStyle03
  8
文字
  6
CONTINUOUS
 10
-164.575
 20
24.6
  1
小
 40
3.0
 72
     5
 11
-161.575
 21
24.6
  0
TEXT
  7
TextStyle03
  8
文字
  6
CONTINUOUS
 10
-154.575
 20
24.6
  1
小
 40
3.0
 72
     5
 11
-151.575
 21
24.6
  0
TEXT
  7
TextStyle03
  8
文字
  6
CONTINUOUS
 10
-144.575
 20
24.6
  1
小
 40
3.0
 72
     5
 11
-141.575
 21
24.6
  0
TEXT
  7
TextStyle03
  8
文字
  6
CONTINUOUS
 10
-164.45
 20
-3.2
  1
大
 40
3.0
 72
     5
 11
-161.45
 21
-3.2
  0
TEXT
  7
TextStyle03
  8
文字
  6
CONTINUOUS
 10
-154.1
 20
-3.2
  1
大
 40
3.0
 72
     5
 11
-151.1
 21
-3.2
  0
TEXT
  7
TextStyle03
  8
文字
  6
CONTINUOUS
 10
-143.7
 20
-3.2
  1
大
 40
3.0
 72
     5
 11
-140.7
 21
-3.2
  0
TEXT
  7
TextStyle03
  8
文字
  6
CONTINUOUS
 10
-161.5
 20
-15.2
  1
小
 40
3.0
 72
     5
 11
-158.5
 21
-15.2
  0
TEXT
  7
TextStyle03
  8
文字
  6
CONTINUOUS
 10
-152.05
 20
-15.2
  1
小
 40
3.0
 72
     5
 11
-149.05
 21
-15.2
  0
TEXT
  7
TextStyle03
  8
文字
  6
CONTINUOUS
 10
-142.225
 20
-15.2
  1
小
 40
3.0
 72
     5
 11
-139.225
 21
-15.2
  0
TEXT
  7
TextStyle03
  8
文字
  6
CONTINUOUS
 10
-131.825
 20
-15.2
  1
小
 40
3.0
 72
     5
 11
-128.825
 21
-15.2
  0
TEXT
  7
TextStyle03
  8
文字
  6
CONTINUOUS
 10
-176.725
 20
88.475
  1
Ｌ型タイプ 中桟フレーム
 40
3.0
 72
     5
 11
-138.2875
 21
88.475
  0
TEXT
  7
TextStyle03
  8
文字
  6
CONTINUOUS
 10
17.6
 20
-95.9
  1
SUS-1.5t　2B
 40
3.0
 72
     5
 11
37.6625
 21
-95.9
  0
TEXT
  7
TextStyle03
  8
文字
  6
CONTINUOUS
 10
17.6
 20
-99.275
  1
ジョイント
 40
3.0
 72
     5
 11
34.1
 21
-99.275
  0
TEXT
  7
TextStyle03
  8
文字
  6
CONTINUOUS
 10
-19.375
 20
-67.725
  1
中桟フレーム（大）
 40
3.0
 72
     5
 11
10.625
 21
-67.725
  0
TEXT
  7
TextStyle03
  8
文字
  6
CONTINUOUS
 10
-18.7
 20
-101.925
  1
中桟フレーム（小）
 40
3.0
 72
     5
 11
11.3
 21
-101.925
  0
POLYLINE
  8
文字
  6
CONTINUOUS
 66
     1
 70
     1
  0
VERTEX
  8
文字
 10
176.981665
 20
40.176737
  0
VERTEX
  8
文字
 10
107.40531
 20
40.176737
  0
VERTEX
  8
文字
 10
107.40531
 20
-8.266612
  0
VERTEX
  8
文字
 10
176.981665
 20
-8.266612
  0
SEQEND
  0
TEXT
  7
TextStyle03
  8
文字
  6
CONTINUOUS
 10
109.55
 20
34.8
  1
中桟フレーム（大）端部断面
 40
3.0
 72
     5
 11
153.05
 21
34.8
  0
TEXT
  7
TextStyle03
  8
文字
  6
CONTINUOUS
 10
-50.525
 20
-55.775
  1
耐火材：
 40
3.0
 72
     5
 11
-37.4
 21
-55.775
  0
TEXT
  7
TextStyle03
  8
文字
  6
CONTINUOUS
 10
-50.525
 20
-59.15
  1
St-1.6t
 40
3.0
 72
     5
 11
-38.9
 21
-59.15
  0
TEXT
  7
TextStyle03
  8
文字
  6
CONTINUOUS
 10
-50.525
 20
-62.525
  1
(溶融メッキ鋼板)
 40
3.0
 72
     5
 11
-23.7125
 21
-62.525
  0
INSERT
  2
*DIM_0045
  8
寸法
  6
CONTINUOUS
 10
0.0
 20
0.0
  0
INSERT
  2
*DIM_0046
  8
寸法
  6
CONTINUOUS
 10
0.0
 20
0.0
  0
INSERT
  2
*DIM_0047
  8
寸法
  6
CONTINUOUS
 10
0.0
 20
0.0
  0
INSERT
  2
*DIM_0048
  8
寸法
  6
CONTINUOUS
 10
0.0
 20
0.0
  0
INSERT
  2
*DIM_0049
  8
寸法
  6
CONTINUOUS
 10
0.0
 20
0.0
  0
INSERT
  2
*DIM_0050
  8
寸法
  6
CONTINUOUS
 10
0.0
 20
0.0
  0
INSERT
  2
*DIM_0051
  8
寸法
  6
CONTINUOUS
 10
0.0
 20
0.0
  0
INSERT
  2
*DIM_0052
  8
寸法
  6
CONTINUOUS
 10
0.0
 20
0.0
  0
INSERT
  2
*DIM_0053
  8
寸法
  6
CONTINUOUS
 10
0.0
 20
0.0
  0
INSERT
  2
*DIM_0054
  8
寸法
  6
CONTINUOUS
 10
0.0
 20
0.0
  0
INSERT
  2
*DIM_0055
  8
寸法
  6
CONTINUOUS
 10
0.0
 20
0.0
  0
INSERT
  2
*DIM_0056
  8
寸法
  6
CONTINUOUS
 10
0.0
 20
0.0
  0
INSERT
  2
*DIM_0057
  8
寸法
  6
CONTINUOUS
 10
0.0
 20
0.0
  0
INSERT
  2
*DIM_0058
  8
寸法
  6
CONTINUOUS
 10
0.0
 20
0.0
  0
INSERT
  2
*GRP_0059
  8
寸法
  6
CONTINUOUS
 10
0.0
 20
0.0
  0
INSERT
  2
*DIM_0060
  8
寸法
  6
CONTINUOUS
 10
0.0
 20
0.0
  0
INSERT
  2
*DIM_0061
  8
寸法
  6
CONTINUOUS
 10
0.0
 20
0.0
  0
INSERT
  2
*DIM_0062
  8
寸法
  6
CONTINUOUS
 10
0.0
 20
0.0
  0
INSERT
  2
*DIM_0063
  8
寸法
  6
CONTINUOUS
 10
0.0
 20
0.0
  0
INSERT
  2
*DIM_0064
  8
寸法
  6
CONTINUOUS
 10
0.0
 20
0.0
  0
INSERT
  2
*DIM_0065
  8
寸法
  6
CONTINUOUS
 10
0.0
 20
0.0
  0
INSERT
  2
*DIM_0066
  8
寸法
  6
CONTINUOUS
 10
0.0
 20
0.0
  0
INSERT
  2
*DIM_0067
  8
寸法
  6
CONTINUOUS
 10
0.0
 20
0.0
  0
INSERT
  2
*DIM_0068
  8
寸法
  6
CONTINUOUS
 10
0.0
 20
0.0
  0
INSERT
  2
*DIM_0069
  8
寸法
  6
CONTINUOUS
 10
0.0
 20
0.0
  0
INSERT
  2
*DIM_0070
  8
寸法
  6
CONTINUOUS
 10
0.0
 20
0.0
  0
INSERT
  2
*DIM_0071
  8
寸法
  6
CONTINUOUS
 10
0.0
 20
0.0
  0
INSERT
  2
*DIM_0072
  8
寸法
  6
CONTINUOUS
 10
0.0
 20
0.0
  0
INSERT
  2
*GRP_0073
  8
寸法
  6
CONTINUOUS
 10
0.0
 20
0.0
  0
INSERT
  2
*DIM_0087
  8
寸法
  6
CONTINUOUS
 10
0.0
 20
0.0
  0
INSERT
  2
*GRP_0088
  8
寸法
  6
CONTINUOUS
 10
0.0
 20
0.0
  0
INSERT
  2
*DIM_0089
  8
寸法
  6
CONTINUOUS
 10
0.0
 20
0.0
  0
INSERT
  2
*GRP_0090
  8
寸法
  6
CONTINUOUS
 10
0.0
 20
0.0
  0
INSERT
  2
*GRP_0091
  8
寸法
  6
CONTINUOUS
 10
0.0
 20
0.0
  0
INSERT
  2
*GRP_0092
  8
寸法
  6
CONTINUOUS
 10
0.0
 20
0.0
  0
INSERT
  2
*DIM_0093
  8
寸法
  6
CONTINUOUS
 10
0.0
 20
0.0
  0
INSERT
  2
*GRP_0094
  8
寸法
  6
CONTINUOUS
 10
0.0
 20
0.0
  0
INSERT
  2
*GRP_0095
  8
寸法
  6
CONTINUOUS
 10
0.0
 20
0.0
  0
INSERT
  2
*GRP_0096
  8
寸法
  6
CONTINUOUS
 10
0.0
 20
0.0
  0
INSERT
  2
*DIM_0097
  8
寸法
  6
CONTINUOUS
 10
0.0
 20
0.0
  0
INSERT
  2
*DIM_0098
  8
寸法
  6
CONTINUOUS
 10
0.0
 20
0.0
  0
INSERT
  2
*DIM_0099
  8
寸法
  6
CONTINUOUS
 10
0.0
 20
0.0
  0
INSERT
  2
*DIM_0100
  8
寸法
  6
CONTINUOUS
 10
0.0
 20
0.0
  0
INSERT
  2
*GRP_0101
  8
寸法
  6
CONTINUOUS
 10
0.0
 20
0.0
  0
INSERT
  2
*GRP_0102
  8
寸法
  6
CONTINUOUS
 10
0.0
 20
0.0
  0
INSERT
  2
*GRP_0103
  8
寸法
  6
CONTINUOUS
 10
0.0
 20
0.0
  0
INSERT
  2
*GRP_0104
  8
寸法
  6
CONTINUOUS
 10
0.0
 20
0.0
  0
INSERT
  2
*GRP_0105
  8
寸法
  6
CONTINUOUS
 10
0.0
 20
0.0
  0
INSERT
  2
*GRP_0106
  8
寸法
  6
CONTINUOUS
 10
0.0
 20
0.0
  0
INSERT
  2
*GRP_0107
  8
寸法
  6
CONTINUOUS
 10
0.0
 20
0.0
  0
INSERT
  2
*GRP_0108
  8
寸法
  6
CONTINUOUS
 10
0.0
 20
0.0
  0
INSERT
  2
*GRP_0109
  8
寸法
  6
CONTINUOUS
 10
0.0
 20
0.0
  0
INSERT
  2
*GRP_0110
  8
寸法
  6
CONTINUOUS
 10
0.0
 20
0.0
  0
INSERT
  2
*GRP_0111
  8
寸法
  6
CONTINUOUS
 10
0.0
 20
0.0
  0
INSERT
  2
*GRP_0112
  8
寸法
  6
CONTINUOUS
 10
0.0
 20
0.0
  0
INSERT
  2
*GRP_0113
  8
寸法
  6
CONTINUOUS
 10
0.0
 20
0.0
  0
INSERT
  2
*GRP_0114
  8
寸法
  6
CONTINUOUS
 10
0.0
 20
0.0
  0
INSERT
  2
*GRP_0115
  8
寸法
  6
CONTINUOUS
 10
0.0
 20
0.0
  0
INSERT
  2
*GRP_0116
  8
寸法
  6
CONTINUOUS
 10
0.0
 20
0.0
  0
INSERT
  2
*GRP_0125
  8
寸法
  6
CONTINUOUS
 10
0.0
 20
0.0
  0
INSERT
  2
*DIM_0126
  8
寸法
  6
CONTINUOUS
 10
0.0
 20
0.0
  0
INSERT
  2
*DIM_0127
  8
寸法
  6
CONTINUOUS
 10
0.0
 20
0.0
  0
INSERT
  2
*DIM_0128
  8
寸法
  6
CONTINUOUS
 10
0.0
 20
0.0
  0
INSERT
  2
*DIM_0129
  8
寸法
  6
CONTINUOUS
 10
0.0
 20
0.0
  0
INSERT
  2
*DIM_0146
  8
寸法
  6
CONTINUOUS
 10
0.0
 20
0.0
  0
INSERT
  2
*GRP_0147
  8
寸法
  6
CONTINUOUS
 10
0.0
 20
0.0
  0
ARC
  8
別途部材
  6
CONTINUOUS
 62
    96
 10
-83.209413
 20
-23.943565
 40
1.668651
 50
90.001373
 51
158.200992
  0
LINE
  8
別途部材
  6
CONTINUOUS
 62
    96
 10
-85.017
 20
-21.273725
 11
-68.350335
 21
-21.273725
  0
LINE
  8
別途部材
  6
CONTINUOUS
 62
    96
 10
-83.209415
 20
-22.27492
 11
-67.79548
 21
-22.27492
  0
LINE
  8
別途部材
  6
CONTINUOUS
 10
-89.016993
 20
-31.273725
 11
-87.938677
 21
-31.273725
  0
LINE
  8
別途部材
  6
CONTINUOUS
 62
    96
 10
-85.017
 20
-21.273725
 11
-89.016993
 21
-31.273725
  0
LINE
  8
別途部材
  6
CONTINUOUS
 62
    96
 10
-84.75873
 20
-23.323852
 11
-87.938677
 21
-31.273725
  0
ARC
  8
別途部材
  6
CONTINUOUS
 10
-4.431738
 20
-54.586331
 40
72.078542
 50
90.0
 51
152.472719
  0
ARC
  8
別途部材
  6
CONTINUOUS
 10
-4.431738
 20
-54.586331
 40
71.126582
 50
90.0
 51
152.981359
  0
ARC
  8
別途部材
  6
CONTINUOUS
 62
    96
 10
74.344953
 20
-23.943565
 40
1.668651
 50
21.799008
 51
89.998627
  0
LINE
  8
別途部材
  6
CONTINUOUS
 62
    96
 10
76.15254
 20
-21.273725
 11
59.485875
 21
-21.273725
  0
LINE
  8
別途部材
  6
CONTINUOUS
 62
    96
 10
74.344955
 20
-22.27492
 11
58.93102
 21
-22.27492
  0
LINE
  8
別途部材
  6
CONTINUOUS
 10
80.152533
 20
-31.273725
 11
79.074217
 21
-31.273725
  0
LINE
  8
別途部材
  6
CONTINUOUS
 62
    96
 10
76.15254
 20
-21.273725
 11
80.152533
 21
-31.273725
  0
LINE
  8
別途部材
  6
CONTINUOUS
 62
    96
 10
75.89427
 20
-23.323852
 11
79.074217
 21
-31.273725
  0
ARC
  8
別途部材
  6
CONTINUOUS
 10
-4.432722
 20
-54.586331
 40
72.078542
 50
27.527281
 51
90.0
  0
ARC
  8
別途部材
  6
CONTINUOUS
 10
-4.432722
 20
-54.586331
 40
71.126582
 50
27.018641
 51
90.0
  0
INSERT
  2
*GRP_0074
  8
別途部材
  6
CONTINUOUS
 10
0.0
 20
0.0
  0
INSERT
  2
*GRP_0075
  8
別途部材
  6
CONTINUOUS
 10
0.0
 20
0.0
  0
POLYLINE
  8
St
  6
CONTINUOUS
 66
     1
 70
     1
  0
VERTEX
  8
St
 10
123.988443
 20
86.64129
  0
VERTEX
  8
St
 10
98.746667
 20
86.64129
  0
VERTEX
  8
St
 10
98.746667
 20
78.8403
  0
VERTEX
  8
St
 10
123.988443
 20
78.8403
  0
SEQEND
  0
LINE
  8
St
  6
CONTINUOUS
 10
132.683845
 20
82.346758
 11
136.417178
 21
86.08009
  0
LINE
  8
St
  6
CONTINUOUS
 10
133.626655
 20
82.346758
 11
137.359987
 21
86.08009
  0
LINE
  8
St
  6
CONTINUOUS
 10
129.43372
 20
86.08009
 11
140.18794
 21
86.08009
  0
LINE
  8
St
  6
CONTINUOUS
 10
129.43372
 20
82.346758
 11
140.18794
 21
82.346758
  0
LINE
  8
St
  6
CONTINUOUS
 10
132.683845
 20
75.242285
 11
136.417178
 21
78.975618
  0
LINE
  8
St
  6
CONTINUOUS
 10
129.43372
 20
78.975618
 11
140.18794
 21
78.975618
  0
LINE
  8
St
  6
CONTINUOUS
 10
129.43372
 20
75.242285
 11
140.18794
 21
75.242285
  0
LINE
  8
St
  6
CONTINUOUS
 10
129.43372
 20
72.400497
 11
140.18794
 21
72.400497
  0
LINE
  8
St
  6
CONTINUOUS
 10
129.43372
 20
68.667165
 11
140.18794
 21
68.667165
  0
INSERT
  2
*GRP_0076
  8
St
  6
CONTINUOUS
 62
   127
 10
0.0
 20
0.0
  0
INSERT
  2
*HAT_0013
  8
St
 10
0.0
 20
0.0
  0
INSERT
  2
*GRP_0077
  8
St
  6
CONTINUOUS
 62
   127
 10
0.0
 20
0.0
  0
INSERT
  2
*HAT_0014
  8
St
 10
0.0
 20
0.0
  0
LINE
  8
St
  6
CONTINUOUS
 10
-68.35086
 20
-23.44038
 11
-67.35086
 21
-23.44038
  0
LINE
  8
St
  6
CONTINUOUS
 10
-67.35086
 20
-23.44038
 11
-67.35086
 21
-29.607125
  0
LINE
  8
St
  6
CONTINUOUS
 10
-67.35086
 20
-30.273752
 11
-67.35086
 21
-36.607075
  0
LINE
  8
St
  6
DOT
 10
-4.43223
 20
-30.973733
 11
-67.684192
 21
-30.973733
  0
LINE
  8
St
  6
DOT
 10
-4.43223
 20
-30.4404
 11
-67.684192
 21
-30.4404
  0
LINE
  8
St
  6
DOT
 10
-4.43223
 20
-34.273733
 11
-67.684192
 21
-34.273733
  0
LINE
  8
St
  6
DOT
 10
-4.43223
 20
-34.273733
 11
58.819732
 21
-34.273733
  0
LINE
  8
St
  6
DOT
 10
-4.43223
 20
-30.973733
 11
58.819732
 21
-30.973733
  0
LINE
  8
St
  6
DOT
 10
-4.43223
 20
-30.4404
 11
58.819732
 21
-30.4404
  0
INSERT
  2
*GRP_0078
  8
St
  6
CONTINUOUS
 10
0.0
 20
0.0
  0
LINE
  8
St
  6
CONTINUOUS
 10
58.953067
 20
-43.331827
 11
58.953067
 21
-41.36516
  0
LINE
  8
St
  6
CONTINUOUS
 10
58.953067
 20
-41.36516
 11
59.4864
 21
-41.36516
  0
LINE
  8
St
  6
CONTINUOUS
 10
56.153062
 20
-48.740433
 11
56.153062
 21
-49.273765
  0
LINE
  8
St
  6
CONTINUOUS
 10
50.686375
 20
-43.86516
 11
50.686375
 21
-48.740433
  0
LINE
  8
St
  6
CONTINUOUS
 10
56.153062
 20
-48.740433
 11
50.686375
 21
-48.740433
  0
LINE
  8
St
  6
CONTINUOUS
 10
58.953067
 20
-43.331827
 11
50.686375
 21
-43.331827
  0
ARC
  8
St
  6
CONTINUOUS
 10
50.686376
 20
-43.865161
 40
0.533333
 50
90.0
 51
180.0
  0
LINE
  8
St
  6
CONTINUOUS
 10
50.153043
 20
-48.740433
 11
50.153043
 21
-43.86516
  0
LINE
  8
St
  6
CONTINUOUS
 10
50.686375
 20
-49.273765
 11
56.153062
 21
-49.273765
  0
ARC
  8
St
  6
CONTINUOUS
 10
50.686376
 20
-48.740432
 40
0.533333
 50
180.0
 51
270.0
  0
LINE
  8
St
  6
CONTINUOUS
 10
58.953067
 20
-43.86516
 11
50.686375
 21
-43.86516
  0
LINE
  8
St
  6
CONTINUOUS
 10
59.4864
 20
-43.331827
 11
59.4864
 21
-41.36516
  0
ARC
  8
St
  6
CONTINUOUS
 10
58.953067
 20
-43.331827
 40
0.533333
 50
270.0
 51
360.0
  0
INSERT
  2
*GRP_0079
  8
St
  6
CONTINUOUS
 10
0.0
 20
0.0
  0
LINE
  8
St
  6
CONTINUOUS
 10
-67.817527
 20
-43.331827
 11
-67.817527
 21
-41.36516
  0
LINE
  8
St
  6
CONTINUOUS
 10
-67.817527
 20
-41.36516
 11
-68.35086
 21
-41.36516
  0
LINE
  8
St
  6
CONTINUOUS
 10
-65.017522
 20
-48.740433
 11
-65.017522
 21
-49.273765
  0
LINE
  8
St
  6
CONTINUOUS
 10
-59.550835
 20
-43.86516
 11
-59.550835
 21
-48.740433
  0
LINE
  8
St
  6
CONTINUOUS
 10
-65.017522
 20
-48.740433
 11
-59.550835
 21
-48.740433
  0
LINE
  8
St
  6
CONTINUOUS
 10
-67.817527
 20
-43.331827
 11
-59.550835
 21
-43.331827
  0
ARC
  8
St
  6
CONTINUOUS
 10
-59.550836
 20
-43.865161
 40
0.533333
 50
0.0
 51
90.0
  0
LINE
  8
St
  6
CONTINUOUS
 10
-59.017502
 20
-48.740433
 11
-59.017502
 21
-43.86516
  0
LINE
  8
St
  6
CONTINUOUS
 10
-59.550835
 20
-49.273765
 11
-65.017522
 21
-49.273765
  0
ARC
  8
St
  6
CONTINUOUS
 10
-59.550836
 20
-48.740432
 40
0.533333
 50
270.0
 51
360.0
  0
LINE
  8
St
  6
CONTINUOUS
 10
-67.817527
 20
-43.86516
 11
-59.550835
 21
-43.86516
  0
LINE
  8
St
  6
CONTINUOUS
 10
-68.35086
 20
-43.331827
 11
-68.35086
 21
-41.36516
  0
ARC
  8
St
  6
CONTINUOUS
 10
-67.817527
 20
-43.331827
 40
0.533333
 50
180.0
 51
270.0
  0
LINE
  8
St
  6
CONTINUOUS
 10
-65.386057
 20
-43.331827
 11
-65.91939
 21
-43.86516
  0
LINE
  8
St
  6
CONTINUOUS
 10
-65.150357
 20
-43.331827
 11
-65.68369
 21
-43.86516
  0
LINE
  8
St
  6
CONTINUOUS
 10
-59.017502
 20
-46.34045
 11
-59.550835
 21
-46.873783
  0
LINE
  8
St
  6
CONTINUOUS
 10
-61.417485
 20
-48.740433
 11
-61.950817
 21
-49.273765
  0
LINE
  8
St
  6
CONTINUOUS
 10
-59.017502
 20
-46.57615
 11
-59.550835
 21
-47.109483
  0
LINE
  8
St
  6
CONTINUOUS
 10
-61.181785
 20
-48.740433
 11
-61.715117
 21
-49.273765
  0
LINE
  8
St
  6
CONTINUOUS
 10
56.521597
 20
-43.331827
 11
57.05493
 21
-43.86516
  0
LINE
  8
St
  6
CONTINUOUS
 10
56.285897
 20
-43.331827
 11
56.81923
 21
-43.86516
  0
LINE
  8
St
  6
CONTINUOUS
 10
50.153043
 20
-46.34045
 11
50.686375
 21
-46.873783
  0
LINE
  8
St
  6
CONTINUOUS
 10
52.553025
 20
-48.740433
 11
53.086357
 21
-49.273765
  0
LINE
  8
St
  6
CONTINUOUS
 10
50.153043
 20
-46.57615
 11
50.686375
 21
-47.109483
  0
LINE
  8
St
  6
CONTINUOUS
 10
52.317325
 20
-48.740433
 11
52.850657
 21
-49.273765
  0
INSERT
  2
*GRP_0080
  8
St
  6
DOT
 10
0.0
 20
0.0
  0
INSERT
  2
*GRP_0081
  8
St
  6
DOT
 10
0.0
 20
0.0
  0
INSERT
  2
*GRP_0082
  8
St
  6
DASHDOT
 62
   127
 10
0.0
 20
0.0
  0
LINE
  8
St
  6
CONTINUOUS
 10
12.234438
 20
-28.940405
 11
5.134438
 21
-28.940405
  0
LINE
  8
St
  6
CONTINUOUS
 10
-13.998898
 20
-28.940405
 11
-21.098898
 21
-28.940405
  0
LINE
  8
St
  6
DOT
 10
5.134438
 20
-28.940405
 11
-14.062283
 21
-28.940405
  0
LINE
  8
St
  6
CONTINUOUS
 10
12.234438
 20
-28.940405
 11
12.234438
 21
-32.940402
  0
LINE
  8
St
  6
DOT
 10
12.234438
 20
-32.940402
 11
12.234438
 21
-34.60707
  0
LINE
  8
St
  6
CONTINUOUS
 10
-21.098898
 20
-28.940405
 11
-21.098898
 21
-32.940402
  0
LINE
  8
St
  6
DOT
 10
-21.098898
 20
-32.940402
 11
-21.098898
 21
-34.60707
  0
LINE
  8
St
  6
DOT
 10
12.234438
 20
-34.60707
 11
-21.098898
 21
-34.60707
  0
LINE
  8
St
  6
CONTINUOUS
 10
12.234445
 20
-82.829305
 11
5.134445
 21
-82.829305
  0
LINE
  8
St
  6
CONTINUOUS
 10
-13.99889
 20
-82.829305
 11
-21.09889
 21
-82.829305
  0
LINE
  8
St
  6
DOT
 10
5.134445
 20
-82.829305
 11
-14.062275
 21
-82.829305
  0
LINE
  8
St
  6
CONTINUOUS
 10
12.234445
 20
-82.829305
 11
12.234445
 21
-86.829302
  0
LINE
  8
St
  6
DOT
 10
12.234445
 20
-86.829302
 11
12.234445
 21
-88.49597
  0
LINE
  8
St
  6
CONTINUOUS
 10
-21.09889
 20
-82.829305
 11
-21.09889
 21
-86.829302
  0
LINE
  8
St
  6
DOT
 10
-21.09889
 20
-86.829302
 11
-21.09889
 21
-88.49597
  0
LINE
  8
St
  6
DOT
 10
12.234445
 20
-88.49597
 11
-21.09889
 21
-88.49597
  0
LINE
  8
St
  6
DOT
 10
-4.432222
 20
-87.795972
 11
18.901105
 21
-87.795972
  0
LINE
  8
St
  6
DOT
 10
-4.432222
 20
-87.795972
 11
-27.765563
 21
-87.795972
  0
LINE
  8
St
  6
DOT
 10
-4.432237
 20
-88.329305
 11
18.901105
 21
-88.329305
  0
LINE
  8
St
  6
DOT
 10
-4.432222
 20
-88.329305
 11
-27.765563
 21
-88.329305
  0
LINE
  8
St
  6
DOT
 10
-4.432222
 20
-84.495972
 11
18.901105
 21
-84.495972
  0
LINE
  8
St
  6
DOT
 10
-4.432222
 20
-84.495972
 11
-27.765563
 21
-84.495972
  0
INSERT
  2
*GRP_0141
  8
St
  6
DASHDOT
 10
0.0
 20
0.0
  0
LINE
  8
その他部品等
  6
CONTINUOUS
 10
-98.350778
 20
-49.940385
 11
-98.350778
 21
-54.940385
  0
LINE
  8
その他部品等
  6
CONTINUOUS
 10
-95.818435
 20
-49.940385
 11
-95.818435
 21
-54.595848
  0
LINE
  8
その他部品等
  6
CONTINUOUS
 10
-93.88421
 20
-54.332687
 11
-95.818435
 21
-49.940385
  0
INSERT
  2
*HAT_0015
  8
その他部品等
 10
0.0
 20
0.0
  0
LINE
  8
その他部品等
  6
CONTINUOUS
 10
89.486318
 20
-49.940385
 11
89.486318
 21
-54.940385
  0
LINE
  8
その他部品等
  6
CONTINUOUS
 10
86.953975
 20
-49.940385
 11
86.953975
 21
-54.595848
  0
LINE
  8
その他部品等
  6
CONTINUOUS
 10
85.01975
 20
-54.332687
 11
86.953975
 21
-49.940385
  0
LINE
  8
その他部品等
  6
CONTINUOUS
 10
122.286457
 20
-79.475545
 11
116.15324
 21
-79.475545
  0
LINE
  8
その他部品等
  6
CONTINUOUS
 10
122.286457
 20
-76.808878
 11
116.15324
 21
-76.808878
  0
LINE
  8
その他部品等
  6
CONTINUOUS
 10
116.15324
 20
-74.142212
 11
121.119758
 21
-74.142212
  0
LINE
  8
その他部品等
  6
CONTINUOUS
 10
121.119758
 20
-74.142212
 11
121.119758
 21
-76.808878
  0
LINE
  8
その他部品等
  6
CONTINUOUS
 10
121.119758
 20
-74.142212
 11
116.15324
 21
-76.808878
  0
INSERT
  2
*HAT_0016
  8
その他部品等
 10
0.0
 20
0.0
  0
INSERT
  2
*HAT_0017
  8
その他部品等
 10
0.0
 20
0.0
  0
LINE
  8
その他部品等
  6
CONTINUOUS
 10
-131.150918
 20
-79.475545
 11
-125.0177
 21
-79.475545
  0
LINE
  8
その他部品等
  6
CONTINUOUS
 10
-131.150918
 20
-76.808878
 11
-125.0177
 21
-76.808878
  0
LINE
  8
その他部品等
  6
CONTINUOUS
 10
-125.0177
 20
-74.142212
 11
-129.984217
 21
-74.142212
  0
LINE
  8
その他部品等
  6
CONTINUOUS
 10
-129.984217
 20
-74.142212
 11
-129.984217
 21
-76.808878
  0
LINE
  8
その他部品等
  6
CONTINUOUS
 10
-129.984217
 20
-74.142212
 11
-125.0177
 21
-76.808878
  0
INSERT
  2
*HAT_0018
  8
その他部品等
 10
0.0
 20
0.0
  0
CIRCLE
  8
LAYER010
  6
CONTINUOUS
 62
     7
 10
-98.350782
 20
-44.940413
 40
0.11111
  0
CIRCLE
  8
LAYER010
  6
CONTINUOUS
 62
     7
 10
89.486322
 20
-44.940413
 40
0.11111
  0
ENDSEC
  0
EOF
