  0
SECTION
  2
HEADER
  9
$EXTMIN
 10
-210.0
 20
-148.5
  9
$EXTMAX
 10
210.0
 20
148.5
  9
$PDMODE
 70
    32
  9
$PDSIZE
 40
1.5
  9
$LTSCALE
 40
10.0
  0
ENDSEC
  0
SECTION
  2
TABLES
  0
TABLE
  2
LTYPE
 70
    15
  0
LTYPE
  2
CONTINUOUS
 70
    64
  3
実線
 72
    65
 73
     0
 40
0.0
  0
LTYPE
  2
DASHED
 70
    64
  3
破線A
 72
    65
 73
     2
 40
0.6
 49
0.4
 49
-0.2
  0
LTYPE
  2
DASHEDX2
 70
    64
  3
破線B
 72
    65
 73
     2
 40
1.3
 49
0.9
 49
-0.4
  0
LTYPE
  2
DASHDOT
 70
    64
  3
１点鎖線A
 72
    65
 73
     4
 40
0.5375
 49
0.375
 49
-0.05
 49
0.0625
 49
-0.05
  0
LTYPE
  2
DASHDOTX2
 70
    64
  3
１点鎖線B
 72
    65
 73
     4
 40
1.075
 49
0.75
 49
-0.1
 49
0.125
 49
-0.1
  0
LTYPE
  2
DIVIDE2
 70
    64
  3
２点鎖線A
 72
    65
 73
     6
 40
0.5125
 49
0.3
 49
-0.0375
 49
0.05
 49
-0.0375
 49
0.05
 49
-0.0375
  0
LTYPE
  2
DIVIDE
 70
    64
  3
２点鎖線B
 72
    65
 73
     6
 40
1.05
 49
0.55
 49
-0.1
 49
0.1
 49
-0.1
 49
0.1
 49
-0.1
  0
LTYPE
  2
DOT
 70
    64
  3
点線A
 72
    65
 73
     2
 40
0.1125
 49
0.0625
 49
-0.05
  0
LTYPE
  2
DOTX2
 70
    64
  3
点線B
 72
    65
 73
     2
 40
0.275
 49
0.15
 49
-0.125
  0
LTYPE
  2
CONTINUOUS
 70
    64
  3
実線
 72
    65
 73
     0
 40
0.0
  0
LTYPE
  2
CONTINUOUS
 70
    64
  3
実線
 72
    65
 73
     0
 40
0.0
  0
LTYPE
  2
CONTINUOUS
 70
    64
  3
実線
 72
    65
 73
     0
 40
0.0
  0
LTYPE
  2
CONTINUOUS
 70
    64
  3
実線
 72
    65
 73
     0
 40
0.0
  0
LTYPE
  2
CONTINUOUS
 70
    64
  3
実線
 72
    65
 73
     0
 40
0.0
  0
LTYPE
  2
CONTINUOUS
 70
    64
  3
実線
 72
    65
 73
     0
 40
0.0
  0
ENDTAB
  0
TABLE
  2
LAYER
 70
    35
  0
LAYER
  2
通り芯
 70
     0
 62
    15
  6
CONTINUOUS
  0
LAYER
  2
補助線
 70
     0
 62
    16
  6
DOT
  0
LAYER
  2
躯体
 70
     0
 62
    31
  6
CONTINUOUS
  0
LAYER
  2
型材
 70
     0
 62
    32
  6
CONTINUOUS
  0
LAYER
  2
型材断面
 70
     0
 62
    47
  6
CONTINUOUS
  0
LAYER
  2
ガラス
 70
     0
 62
    48
  6
CONTINUOUS
  0
LAYER
  2
ゴム等
 70
     0
 62
    63
  6
CONTINUOUS
  0
LAYER
  2
ボルト／ビス
 70
     0
 62
    64
  6
CONTINUOUS
  0
LAYER
  2
文字
 70
     0
 62
    79
  6
CONTINUOUS
  0
LAYER
  2
寸法
 70
     0
 62
    80
  6
CONTINUOUS
  0
LAYER
  2
ﾊｯﾁﾝｸﾞ
 70
     0
 62
    95
  6
CONTINUOUS
  0
LAYER
  2
別途部材
 70
     0
 62
    96
  6
CONTINUOUS
  0
LAYER
  2
曲げ物
 70
     0
 62
   111
  6
CONTINUOUS
  0
LAYER
  2
鉄骨等
 70
     0
 62
   112
  6
CONTINUOUS
  0
LAYER
  2
St
 70
     0
 62
   127
  6
CONTINUOUS
  0
LAYER
  2
その他部品等
 70
     0
 62
   128
  6
CONTINUOUS
  0
LAYER
  2
ｶﾞｽｹｯﾄ
 70
     0
 62
   143
  6
CONTINUOUS
  0
LAYER
  2
ｽｹｯﾁ
 70
     0
 62
    14
  6
CONTINUOUS
  0
LAYER
  2
0
 70
     0
 62
    17
  6
CONTINUOUS
  0
LAYER
  2
1
 70
     0
 62
    30
  6
CONTINUOUS
  0
LAYER
  2
4
 70
     0
 62
    33
  6
CONTINUOUS
  0
LAYER
  2
ﾚｲﾔ3
 70
     0
 62
    46
  6
CONTINUOUS
  0
LAYER
  2
外形線
 70
     0
 62
    49
  6
CONTINUOUS
  0
LAYER
  2
部品
 70
     0
 62
    14
  6
CONTINUOUS
  0
LAYER
  2
サッシ芯
 70
     0
 62
    17
  6
DASHDOTX2
  0
LAYER
  2
寸法線
 70
     0
 62
    62
  6
CONTINUOUS
  0
LAYER
  2
姿図外形線
 70
     0
 62
    65
  6
CONTINUOUS
  0
LAYER
  2
姿補助線
 70
     0
 62
    30
  6
CONTINUOUS
  0
LAYER
  2
透視線
 70
     0
 62
    78
  6
DOT
  0
LAYER
  2
用紙
 70
     0
 62
    81
  6
CONTINUOUS
  0
LAYER
  2
実線図枠
 70
     0
 62
    94
  6
CONTINUOUS
  0
LAYER
  2
補助図枠
 70
     0
 62
    97
  6
CONTINUOUS
  0
LAYER
  2
建具記号
 70
     0
 62
   110
  6
CONTINUOUS
  0
LAYER
  2
補助文字
 70
     0
 62
   113
  6
CONTINUOUS
  0
LAYER
  2
LAYER010
 70
     0
 62
    11
  6
CONTINUOUS
  0
ENDTAB
  0
TABLE
  2
STYLE
 70
    10
  0
STYLE
  2
STANDARD
 70
     0
 40
1.0
 41
1.0
 42
1.0
 50
0.0
 71
     0
  3
TXT
  4
BIGFONT
  0
STYLE
  2
TATE
 70
     4
 40
1.0
 41
1.0
 42
1.0
 50
0.0
 71
     0
  3
TXT
  4
BIGFONT
  0
STYLE
  2
TextStyle03
 70
     0
 40
1.0
 41
1.0
 42
1.0
 50
0.0
 71
     0
  3
MONOTXT
  4
BIGFONT
  0
STYLE
  2
TextStyle04
 70
     0
 40
1.0
 41
1.0
 42
1.0
 50
0.0
 71
     0
  3
MONOTXT
  4
BIGFONT
  0
STYLE
  2
TextStyle05
 70
     0
 40
1.0
 41
1.0
 42
1.0
 50
0.0
 71
     0
  3
MONOTXT
  4
BIGFONT
  0
STYLE
  2
TextStyle06
 70
     0
 40
1.0
 41
1.0
 42
1.0
 50
0.0
 71
     0
  3
MONOTXT
  4
BIGFONT
  0
STYLE
  2
TextStyle07
 70
     0
 40
1.0
 41
1.0
 42
1.0
 50
0.0
 71
     0
  3
MONOTXT
  4
BIGFONT
  0
STYLE
  2
TextStyle08
 70
     0
 40
1.0
 41
1.0
 42
1.0
 50
0.0
 71
     0
  3
MONOTXT
  4
BIGFONT
  0
STYLE
  2
TextStyle09
 70
     0
 40
1.0
 41
1.0
 42
1.0
 50
0.0
 71
     0
  3
MONOTXT
  4
BIGFONT
  0
STYLE
  2
TextStyle10
 70
     0
 40
1.0
 41
1.0
 42
1.0
 50
0.0
 71
     0
  3
MONOTXT
  4
BIGFONT
  0
ENDTAB
  0
ENDSEC
  0
SECTION
  2
BLOCKS
  0
BLOCK
  2
*GRP_0001
 70
    65
 10
0.0
 20
0.0
  0
LINE
  8
型材断面
  6
CONTINUOUS
 10
195.0
 20
133.5
 11
195.0
 21
-133.5
  0
LINE
  8
型材断面
  6
CONTINUOUS
 10
195.0
 20
-133.5
 11
-185.0
 21
-133.5
  0
LINE
  8
型材断面
  6
CONTINUOUS
 10
-185.0
 20
-133.5
 11
-185.0
 21
133.5
  0
LINE
  8
型材断面
  6
CONTINUOUS
 10
195.0
 20
133.5
 11
-185.0
 21
133.5
  0
LINE
  8
型材断面
  6
CONTINUOUS
 10
145.0
 20
-133.5
 11
145.0
 21
-118.5
  0
LINE
  8
型材断面
  6
CONTINUOUS
 10
195.0
 20
-118.5
 11
145.0
 21
-118.5
  0
ENDBLK
  0
BLOCK
  2
*DIM_0002
 70
    65
 10
0.0
 20
0.0
  0
LINE
  8
寸法
  6
BYBLOCK
 62
     0
 10
13.246443
 20
-62.95793
 11
61.549425
 21
-62.95793
  0
LINE
  8
寸法
  6
BYBLOCK
 62
     0
 10
61.549425
 20
-79.624597
 11
61.549425
 21
-62.95793
  0
POINT
  8
寸法
 62
     0
 10
61.549425
 20
-62.95793
  0
TEXT
  7
TextStyle03
  8
寸法
  6
CONTINUOUS
 62
     0
 10
61.175
 20
-73.7375
  1
500
 40
3.0
 50
90.0
 72
     5
 11
61.175
 21
-68.8625
  0
ENDBLK
  0
BLOCK
  2
*DIM_0003
 70
    65
 10
0.0
 20
0.0
  0
LINE
  8
寸法
  6
CONTINUOUS
 62
     0
 10
100.883267
 20
-57.292845
 11
100.883267
 21
-49.101008
  0
LINE
  8
寸法
  6
CONTINUOUS
 62
     0
 10
133.229935
 20
-57.292845
 11
133.229935
 21
-49.101008
  0
LINE
  8
寸法
  6
CONTINUOUS
 62
     0
 10
100.883267
 20
-49.101008
 11
133.229935
 21
-49.101008
  0
POINT
  8
寸法
 62
     0
 10
100.883267
 20
-49.101008
  0
POINT
  8
寸法
 62
     0
 10
133.229935
 20
-49.101008
  0
TEXT
  7
TextStyle03
  8
寸法
  6
CONTINUOUS
 62
     0
 10
112.925
 20
-48.725
  1
970.4
 40
3.0
 72
     5
 11
121.175
 21
-48.725
  0
ENDBLK
  0
BLOCK
  2
*DIM_0004
 70
    65
 10
0.0
 20
0.0
  0
LINE
  8
寸法
  6
BYBLOCK
 62
     0
 10
134.229935
 20
-58.292845
 11
143.185845
 21
-58.292845
  0
LINE
  8
寸法
  6
BYBLOCK
 62
     0
 10
134.229935
 20
-90.759512
 11
143.185845
 21
-90.759512
  0
LINE
  8
寸法
  6
BYBLOCK
 62
     0
 10
143.185845
 20
-58.292845
 11
143.185845
 21
-90.759512
  0
POINT
  8
寸法
 62
     0
 10
143.185845
 20
-58.292845
  0
POINT
  8
寸法
 62
     0
 10
143.185845
 20
-90.759512
  0
TEXT
  7
TextStyle03
  8
寸法
  6
CONTINUOUS
 62
     0
 10
142.8
 20
-76.9625
  1
974
 40
3.0
 50
90.0
 72
     5
 11
142.8
 21
-72.0875
  0
ENDBLK
  0
BLOCK
  2
*DIM_0005
 70
    65
 10
0.0
 20
0.0
  0
LINE
  8
寸法
  6
BYBLOCK
 62
     0
 10
45.579775
 20
-23.142105
 11
-121.086892
 21
-23.142105
  0
POINT
  8
寸法
 62
     0
 10
45.579775
 20
-23.142105
  0
POINT
  8
寸法
 62
     0
 10
-121.086892
 20
-23.142105
  0
TEXT
  7
TextStyle03
  8
寸法
  6
CONTINUOUS
 62
     0
 10
-49.49375
 20
-22.775
  1
呼称寸法　5000
 40
3.0
 72
     5
 11
-26.05625
 21
-22.775
  0
ENDBLK
  0
BLOCK
  2
*DIM_0006
 70
    65
 10
0.0
 20
0.0
  0
LINE
  8
寸法
  6
BYBLOCK
 62
     0
 10
-104.420225
 20
-5.54017
 11
-104.420225
 21
-10.11842
  0
LINE
  8
寸法
  6
BYBLOCK
 62
     0
 10
-37.753557
 20
-5.54017
 11
-37.753557
 21
-10.11842
  0
LINE
  8
寸法
  6
BYBLOCK
 62
     0
 10
-104.420225
 20
-10.11842
 11
-37.753557
 21
-10.11842
  0
POINT
  8
寸法
 62
     0
 10
-104.420225
 20
-10.11842
  0
POINT
  8
寸法
 62
     0
 10
-37.753557
 20
-10.11842
  0
TEXT
  7
TextStyle03
  8
寸法
  6
CONTINUOUS
 62
     0
 10
-74.38125
 20
-9.75
  1
2000
 40
3.0
 72
     5
 11
-67.81875
 21
-9.75
  0
ENDBLK
  0
BLOCK
  2
*DIM_0007
 70
    65
 10
0.0
 20
0.0
  0
LINE
  8
寸法
  6
BYBLOCK
 62
     0
 10
28.91311
 20
-5.54017
 11
28.91311
 21
-10.11842
  0
LINE
  8
寸法
  6
BYBLOCK
 62
     0
 10
-37.753557
 20
-10.11842
 11
28.91311
 21
-10.11842
  0
POINT
  8
寸法
 62
     0
 10
28.91311
 20
-10.11842
  0
TEXT
  7
TextStyle03
  8
寸法
  6
CONTINUOUS
 62
     0
 10
-7.70625
 20
-9.75
  1
2000
 40
3.0
 72
     5
 11
-1.14375
 21
-9.75
  0
ENDBLK
  0
BLOCK
  2
*GRP_0008
 70
    65
 10
0.0
 20
0.0
  0
LINE
  8
別途部材
  6
CONTINUOUS
 62
    96
 10
-122.753557
 20
-79.624597
 11
-123.153557
 21
-80.624597
  0
LINE
  8
別途部材
  6
CONTINUOUS
 62
    96
 10
-122.753557
 20
-79.624597
 11
-37.753557
 21
-79.624597
  0
LINE
  8
別途部材
  6
CONTINUOUS
 10
-123.153557
 20
-80.624597
 11
-37.753557
 21
-80.624597
  0
LINE
  8
別途部材
  6
CONTINUOUS
 10
-38.253557
 20
-79.624597
 11
-38.253557
 21
-61.95793
  0
LINE
  8
別途部材
  6
CONTINUOUS
 10
-41.253557
 20
-79.624597
 11
-41.253557
 21
-61.95793
  0
LINE
  8
別途部材
  6
CONTINUOUS
 10
-38.253557
 20
-61.95793
 11
-39.253557
 21
-62.95793
  0
LINE
  8
別途部材
  6
CONTINUOUS
 10
-42.253557
 20
-79.624597
 11
-42.253557
 21
-61.95793
  0
LINE
  8
別途部材
  6
CONTINUOUS
 10
-40.253557
 20
-62.95793
 11
-41.253557
 21
-61.95793
  0
LINE
  8
別途部材
  6
CONTINUOUS
 10
-42.253557
 20
-61.95793
 11
-43.253557
 21
-62.95793
  0
LINE
  8
別途部材
  6
CONTINUOUS
 10
-41.253557
 20
-61.95793
 11
-42.253557
 21
-61.95793
  0
LINE
  8
別途部材
  6
CONTINUOUS
 10
-38.253557
 20
-61.95793
 11
-37.753557
 21
-61.95793
  0
LINE
  8
別途部材
  6
CONTINUOUS
 10
-44.253557
 20
-62.95793
 11
-45.253557
 21
-61.95793
  0
LINE
  8
別途部材
  6
CONTINUOUS
 10
-46.253557
 20
-61.95793
 11
-47.253557
 21
-62.95793
  0
LINE
  8
別途部材
  6
CONTINUOUS
 10
-45.253557
 20
-61.95793
 11
-46.253557
 21
-61.95793
  0
LINE
  8
別途部材
  6
CONTINUOUS
 10
-40.253557
 20
-79.624597
 11
-40.253557
 21
-62.95793
  0
LINE
  8
別途部材
  6
CONTINUOUS
 10
-43.253557
 20
-79.624597
 11
-43.253557
 21
-62.95793
  0
LINE
  8
別途部材
  6
CONTINUOUS
 10
-44.253557
 20
-79.624597
 11
-44.253557
 21
-62.95793
  0
LINE
  8
別途部材
  6
CONTINUOUS
 10
-45.253557
 20
-79.624597
 11
-45.253557
 21
-61.95793
  0
LINE
  8
別途部材
  6
CONTINUOUS
 10
-46.253557
 20
-79.624597
 11
-46.253557
 21
-61.95793
  0
LINE
  8
別途部材
  6
CONTINUOUS
 10
-47.253557
 20
-79.624597
 11
-47.253557
 21
-62.95793
  0
LINE
  8
別途部材
  6
CONTINUOUS
 10
-48.253557
 20
-62.95793
 11
-49.253557
 21
-61.95793
  0
LINE
  8
別途部材
  6
CONTINUOUS
 10
-50.253557
 20
-61.95793
 11
-51.253557
 21
-62.95793
  0
LINE
  8
別途部材
  6
CONTINUOUS
 10
-49.253557
 20
-61.95793
 11
-50.253557
 21
-61.95793
  0
LINE
  8
別途部材
  6
CONTINUOUS
 10
-48.253557
 20
-79.624597
 11
-48.253557
 21
-62.95793
  0
LINE
  8
別途部材
  6
CONTINUOUS
 10
-49.253557
 20
-79.624597
 11
-49.253557
 21
-61.95793
  0
LINE
  8
別途部材
  6
CONTINUOUS
 10
-50.253557
 20
-79.624597
 11
-50.253557
 21
-61.95793
  0
LINE
  8
別途部材
  6
CONTINUOUS
 10
-51.253557
 20
-79.624597
 11
-51.253557
 21
-62.95793
  0
LINE
  8
別途部材
  6
CONTINUOUS
 10
-53.253557
 20
-79.624597
 11
-53.253557
 21
-61.95793
  0
LINE
  8
別途部材
  6
CONTINUOUS
 10
-54.253557
 20
-79.624597
 11
-54.253557
 21
-61.95793
  0
LINE
  8
別途部材
  6
CONTINUOUS
 10
-52.253557
 20
-62.95793
 11
-53.253557
 21
-61.95793
  0
LINE
  8
別途部材
  6
CONTINUOUS
 10
-54.253557
 20
-61.95793
 11
-55.253557
 21
-62.95793
  0
LINE
  8
別途部材
  6
CONTINUOUS
 10
-53.253557
 20
-61.95793
 11
-54.253557
 21
-61.95793
  0
LINE
  8
別途部材
  6
CONTINUOUS
 10
-56.253557
 20
-62.95793
 11
-57.253557
 21
-61.95793
  0
LINE
  8
別途部材
  6
CONTINUOUS
 10
-58.253557
 20
-61.95793
 11
-59.253557
 21
-62.95793
  0
LINE
  8
別途部材
  6
CONTINUOUS
 10
-57.253557
 20
-61.95793
 11
-58.253557
 21
-61.95793
  0
LINE
  8
別途部材
  6
CONTINUOUS
 10
-52.253557
 20
-79.624597
 11
-52.253557
 21
-62.95793
  0
LINE
  8
別途部材
  6
CONTINUOUS
 10
-55.253557
 20
-79.624597
 11
-55.253557
 21
-62.95793
  0
LINE
  8
別途部材
  6
CONTINUOUS
 10
-56.253557
 20
-79.624597
 11
-56.253557
 21
-62.95793
  0
LINE
  8
別途部材
  6
CONTINUOUS
 10
-57.253557
 20
-79.624597
 11
-57.253557
 21
-61.95793
  0
LINE
  8
別途部材
  6
CONTINUOUS
 10
-58.253557
 20
-79.624597
 11
-58.253557
 21
-61.95793
  0
LINE
  8
別途部材
  6
CONTINUOUS
 10
-59.253557
 20
-79.624597
 11
-59.253557
 21
-62.95793
  0
LINE
  8
別途部材
  6
CONTINUOUS
 10
-60.253557
 20
-62.95793
 11
-61.253557
 21
-61.95793
  0
LINE
  8
別途部材
  6
CONTINUOUS
 10
-62.253557
 20
-61.95793
 11
-63.253557
 21
-62.95793
  0
LINE
  8
別途部材
  6
CONTINUOUS
 10
-61.253557
 20
-61.95793
 11
-62.253557
 21
-61.95793
  0
LINE
  8
別途部材
  6
CONTINUOUS
 10
-60.253557
 20
-79.624597
 11
-60.253557
 21
-62.95793
  0
LINE
  8
別途部材
  6
CONTINUOUS
 10
-61.253557
 20
-79.624597
 11
-61.253557
 21
-61.95793
  0
LINE
  8
別途部材
  6
CONTINUOUS
 10
-62.253557
 20
-79.624597
 11
-62.253557
 21
-61.95793
  0
LINE
  8
別途部材
  6
CONTINUOUS
 10
-63.253557
 20
-79.624597
 11
-63.253557
 21
-62.95793
  0
LINE
  8
別途部材
  6
CONTINUOUS
 10
-65.253557
 20
-79.624597
 11
-65.253557
 21
-61.95793
  0
LINE
  8
別途部材
  6
CONTINUOUS
 10
-66.253557
 20
-79.624597
 11
-66.253557
 21
-61.95793
  0
LINE
  8
別途部材
  6
CONTINUOUS
 10
-64.253557
 20
-62.95793
 11
-65.253557
 21
-61.95793
  0
LINE
  8
別途部材
  6
CONTINUOUS
 10
-66.253557
 20
-61.95793
 11
-67.253557
 21
-62.95793
  0
LINE
  8
別途部材
  6
CONTINUOUS
 10
-65.253557
 20
-61.95793
 11
-66.253557
 21
-61.95793
  0
LINE
  8
別途部材
  6
CONTINUOUS
 10
-68.253557
 20
-62.95793
 11
-69.253557
 21
-61.95793
  0
LINE
  8
別途部材
  6
CONTINUOUS
 10
-70.253557
 20
-61.95793
 11
-71.253557
 21
-62.95793
  0
LINE
  8
別途部材
  6
CONTINUOUS
 10
-69.253557
 20
-61.95793
 11
-70.253557
 21
-61.95793
  0
LINE
  8
別途部材
  6
CONTINUOUS
 10
-64.253557
 20
-79.624597
 11
-64.253557
 21
-62.95793
  0
LINE
  8
別途部材
  6
CONTINUOUS
 10
-67.253557
 20
-79.624597
 11
-67.253557
 21
-62.95793
  0
LINE
  8
別途部材
  6
CONTINUOUS
 10
-68.253557
 20
-79.624597
 11
-68.253557
 21
-62.95793
  0
LINE
  8
別途部材
  6
CONTINUOUS
 10
-69.253557
 20
-79.624597
 11
-69.253557
 21
-61.95793
  0
LINE
  8
別途部材
  6
CONTINUOUS
 10
-70.253557
 20
-79.624597
 11
-70.253557
 21
-61.95793
  0
LINE
  8
別途部材
  6
CONTINUOUS
 10
-71.253557
 20
-79.624597
 11
-71.253557
 21
-62.95793
  0
LINE
  8
別途部材
  6
CONTINUOUS
 10
-72.253557
 20
-62.95793
 11
-73.253557
 21
-61.95793
  0
LINE
  8
別途部材
  6
CONTINUOUS
 10
-74.253557
 20
-61.95793
 11
-75.253557
 21
-62.95793
  0
LINE
  8
別途部材
  6
CONTINUOUS
 10
-73.253557
 20
-61.95793
 11
-74.253557
 21
-61.95793
  0
LINE
  8
別途部材
  6
CONTINUOUS
 10
-72.253557
 20
-79.624597
 11
-72.253557
 21
-62.95793
  0
LINE
  8
別途部材
  6
CONTINUOUS
 10
-73.253557
 20
-79.624597
 11
-73.253557
 21
-61.95793
  0
LINE
  8
別途部材
  6
CONTINUOUS
 10
-74.253557
 20
-79.624597
 11
-74.253557
 21
-61.95793
  0
LINE
  8
別途部材
  6
CONTINUOUS
 10
-75.253557
 20
-79.624597
 11
-75.253557
 21
-62.95793
  0
LINE
  8
別途部材
  6
CONTINUOUS
 10
-77.253557
 20
-79.624597
 11
-77.253557
 21
-61.95793
  0
LINE
  8
別途部材
  6
CONTINUOUS
 10
-78.253557
 20
-79.624597
 11
-78.253557
 21
-61.95793
  0
LINE
  8
別途部材
  6
CONTINUOUS
 10
-76.253557
 20
-62.95793
 11
-77.253557
 21
-61.95793
  0
LINE
  8
別途部材
  6
CONTINUOUS
 10
-78.253557
 20
-61.95793
 11
-79.253557
 21
-62.95793
  0
LINE
  8
別途部材
  6
CONTINUOUS
 10
-77.253557
 20
-61.95793
 11
-78.253557
 21
-61.95793
  0
LINE
  8
別途部材
  6
CONTINUOUS
 10
-80.253557
 20
-62.95793
 11
-81.253557
 21
-61.95793
  0
LINE
  8
別途部材
  6
CONTINUOUS
 10
-82.253557
 20
-61.95793
 11
-83.253557
 21
-62.95793
  0
LINE
  8
別途部材
  6
CONTINUOUS
 10
-81.253557
 20
-61.95793
 11
-82.253557
 21
-61.95793
  0
LINE
  8
別途部材
  6
CONTINUOUS
 10
-76.253557
 20
-79.624597
 11
-76.253557
 21
-62.95793
  0
LINE
  8
別途部材
  6
CONTINUOUS
 10
-79.253557
 20
-79.624597
 11
-79.253557
 21
-62.95793
  0
LINE
  8
別途部材
  6
CONTINUOUS
 10
-80.253557
 20
-79.624597
 11
-80.253557
 21
-62.95793
  0
LINE
  8
別途部材
  6
CONTINUOUS
 10
-81.253557
 20
-79.624597
 11
-81.253557
 21
-61.95793
  0
LINE
  8
別途部材
  6
CONTINUOUS
 10
-82.253557
 20
-79.624597
 11
-82.253557
 21
-61.95793
  0
LINE
  8
別途部材
  6
CONTINUOUS
 10
-83.253557
 20
-79.624597
 11
-83.253557
 21
-62.95793
  0
LINE
  8
別途部材
  6
CONTINUOUS
 10
-84.253557
 20
-62.95793
 11
-85.253557
 21
-61.95793
  0
LINE
  8
別途部材
  6
CONTINUOUS
 10
-86.253557
 20
-61.95793
 11
-87.253557
 21
-62.95793
  0
LINE
  8
別途部材
  6
CONTINUOUS
 10
-85.253557
 20
-61.95793
 11
-86.253557
 21
-61.95793
  0
LINE
  8
別途部材
  6
CONTINUOUS
 10
-84.253557
 20
-79.624597
 11
-84.253557
 21
-62.95793
  0
LINE
  8
別途部材
  6
CONTINUOUS
 10
-85.253557
 20
-79.624597
 11
-85.253557
 21
-61.95793
  0
LINE
  8
別途部材
  6
CONTINUOUS
 10
-86.253557
 20
-79.624597
 11
-86.253557
 21
-61.95793
  0
LINE
  8
別途部材
  6
CONTINUOUS
 10
-87.253557
 20
-79.624597
 11
-87.253557
 21
-62.95793
  0
LINE
  8
別途部材
  6
CONTINUOUS
 10
-83.253557
 20
-62.95793
 11
-84.253557
 21
-62.95793
  0
LINE
  8
別途部材
  6
CONTINUOUS
 10
-79.253557
 20
-62.95793
 11
-80.253557
 21
-62.95793
  0
LINE
  8
別途部材
  6
CONTINUOUS
 10
-75.253557
 20
-62.95793
 11
-76.253557
 21
-62.95793
  0
LINE
  8
別途部材
  6
CONTINUOUS
 10
-71.253557
 20
-62.95793
 11
-72.253557
 21
-62.95793
  0
LINE
  8
別途部材
  6
CONTINUOUS
 10
-67.253557
 20
-62.95793
 11
-68.253557
 21
-62.95793
  0
LINE
  8
別途部材
  6
CONTINUOUS
 10
-63.253557
 20
-62.95793
 11
-64.253557
 21
-62.95793
  0
LINE
  8
別途部材
  6
CONTINUOUS
 10
-59.253557
 20
-62.95793
 11
-60.253557
 21
-62.95793
  0
LINE
  8
別途部材
  6
CONTINUOUS
 10
-55.253557
 20
-62.95793
 11
-56.253557
 21
-62.95793
  0
LINE
  8
別途部材
  6
CONTINUOUS
 10
-51.253557
 20
-62.95793
 11
-52.253557
 21
-62.95793
  0
LINE
  8
別途部材
  6
CONTINUOUS
 10
-47.253557
 20
-62.95793
 11
-48.253557
 21
-62.95793
  0
LINE
  8
別途部材
  6
CONTINUOUS
 10
-43.253557
 20
-62.95793
 11
-44.253557
 21
-62.95793
  0
LINE
  8
別途部材
  6
CONTINUOUS
 10
-39.253557
 20
-79.624597
 11
-39.253557
 21
-62.95793
  0
LINE
  8
別途部材
  6
CONTINUOUS
 10
-40.253557
 20
-62.95793
 11
-39.253557
 21
-62.95793
  0
ARC
  8
別途部材
  6
CONTINUOUS
 10
-104.420224
 20
-79.624597
 40
16.666667
 50
90.0
 51
180.0
  0
LINE
  8
別途部材
  6
CONTINUOUS
 10
-88.253557
 20
-62.95793
 11
-89.253557
 21
-61.95793
  0
LINE
  8
別途部材
  6
CONTINUOUS
 10
-90.253557
 20
-61.95793
 11
-91.253557
 21
-62.95793
  0
LINE
  8
別途部材
  6
CONTINUOUS
 10
-89.253557
 20
-61.95793
 11
-90.253557
 21
-61.95793
  0
LINE
  8
別途部材
  6
CONTINUOUS
 10
-88.253557
 20
-79.624597
 11
-88.253557
 21
-62.95793
  0
LINE
  8
別途部材
  6
CONTINUOUS
 10
-89.253557
 20
-79.624597
 11
-89.253557
 21
-61.95793
  0
LINE
  8
別途部材
  6
CONTINUOUS
 10
-90.253557
 20
-79.624597
 11
-90.253557
 21
-61.95793
  0
LINE
  8
別途部材
  6
CONTINUOUS
 10
-91.253557
 20
-79.624597
 11
-91.253557
 21
-62.95793
  0
LINE
  8
別途部材
  6
CONTINUOUS
 10
-93.253557
 20
-79.624597
 11
-93.253557
 21
-61.95793
  0
LINE
  8
別途部材
  6
CONTINUOUS
 10
-94.253557
 20
-79.624597
 11
-94.253557
 21
-61.95793
  0
LINE
  8
別途部材
  6
CONTINUOUS
 10
-92.253557
 20
-62.95793
 11
-93.253557
 21
-61.95793
  0
LINE
  8
別途部材
  6
CONTINUOUS
 10
-94.253557
 20
-61.95793
 11
-95.253557
 21
-62.95793
  0
LINE
  8
別途部材
  6
CONTINUOUS
 10
-93.253557
 20
-61.95793
 11
-94.253557
 21
-61.95793
  0
LINE
  8
別途部材
  6
CONTINUOUS
 10
-96.253557
 20
-62.95793
 11
-97.253557
 21
-61.95793
  0
LINE
  8
別途部材
  6
CONTINUOUS
 10
-98.253557
 20
-61.95793
 11
-99.253557
 21
-62.95793
  0
LINE
  8
別途部材
  6
CONTINUOUS
 10
-97.253557
 20
-61.95793
 11
-98.253557
 21
-61.95793
  0
LINE
  8
別途部材
  6
CONTINUOUS
 10
-92.253557
 20
-79.624597
 11
-92.253557
 21
-62.95793
  0
LINE
  8
別途部材
  6
CONTINUOUS
 10
-95.253557
 20
-79.624597
 11
-95.253557
 21
-62.95793
  0
LINE
  8
別途部材
  6
CONTINUOUS
 10
-96.253557
 20
-79.624597
 11
-96.253557
 21
-62.95793
  0
LINE
  8
別途部材
  6
CONTINUOUS
 10
-97.253557
 20
-79.624597
 11
-97.253557
 21
-61.95793
  0
LINE
  8
別途部材
  6
CONTINUOUS
 10
-98.253557
 20
-79.624597
 11
-98.253557
 21
-61.95793
  0
LINE
  8
別途部材
  6
CONTINUOUS
 10
-99.253557
 20
-79.624597
 11
-99.253557
 21
-62.95793
  0
LINE
  8
別途部材
  6
CONTINUOUS
 10
-100.253557
 20
-62.95793
 11
-101.253557
 21
-61.95793
  0
LINE
  8
別途部材
  6
CONTINUOUS
 10
-102.253557
 20
-61.95793
 11
-103.253557
 21
-62.95793
  0
LINE
  8
別途部材
  6
CONTINUOUS
 10
-101.253557
 20
-61.95793
 11
-102.253557
 21
-61.95793
  0
LINE
  8
別途部材
  6
CONTINUOUS
 10
-100.253557
 20
-79.624597
 11
-100.253557
 21
-62.95793
  0
LINE
  8
別途部材
  6
CONTINUOUS
 10
-101.253557
 20
-79.624597
 11
-101.253557
 21
-61.95793
  0
LINE
  8
別途部材
  6
CONTINUOUS
 10
-102.253557
 20
-79.624597
 11
-102.253557
 21
-61.95793
  0
LINE
  8
別途部材
  6
CONTINUOUS
 10
-103.253557
 20
-79.624597
 11
-103.253557
 21
-62.95793
  0
LINE
  8
別途部材
  6
CONTINUOUS
 10
-99.253557
 20
-62.95793
 11
-100.253557
 21
-62.95793
  0
LINE
  8
別途部材
  6
CONTINUOUS
 10
-95.253557
 20
-62.95793
 11
-96.253557
 21
-62.95793
  0
LINE
  8
別途部材
  6
CONTINUOUS
 10
-91.253557
 20
-62.95793
 11
-92.253557
 21
-62.95793
  0
LINE
  8
別途部材
  6
CONTINUOUS
 10
-87.253557
 20
-62.95793
 11
-88.253557
 21
-62.95793
  0
LINE
  8
別途部材
  6
CONTINUOUS
 10
-104.420225
 20
-62.95793
 11
-103.253557
 21
-62.95793
  0
LINE
  8
別途部材
  6
CONTINUOUS
 62
    96
 10
47.246443
 20
-79.624597
 11
47.646443
 21
-80.624597
  0
LINE
  8
別途部材
  6
CONTINUOUS
 62
    96
 10
47.246443
 20
-79.624597
 11
-37.753557
 21
-79.624597
  0
LINE
  8
別途部材
  6
CONTINUOUS
 10
47.646443
 20
-80.624597
 11
-37.753557
 21
-80.624597
  0
LINE
  8
別途部材
  6
CONTINUOUS
 10
-37.253557
 20
-79.624597
 11
-37.253557
 21
-61.95793
  0
LINE
  8
別途部材
  6
CONTINUOUS
 10
-34.253557
 20
-79.624597
 11
-34.253557
 21
-61.95793
  0
LINE
  8
別途部材
  6
CONTINUOUS
 10
-37.253557
 20
-61.95793
 11
-36.253557
 21
-62.95793
  0
LINE
  8
別途部材
  6
CONTINUOUS
 10
-33.253557
 20
-79.624597
 11
-33.253557
 21
-61.95793
  0
LINE
  8
別途部材
  6
CONTINUOUS
 10
-35.253557
 20
-62.95793
 11
-34.253557
 21
-61.95793
  0
LINE
  8
別途部材
  6
CONTINUOUS
 10
-33.253557
 20
-61.95793
 11
-32.253557
 21
-62.95793
  0
LINE
  8
別途部材
  6
CONTINUOUS
 10
-34.253557
 20
-61.95793
 11
-33.253557
 21
-61.95793
  0
LINE
  8
別途部材
  6
CONTINUOUS
 10
-37.253557
 20
-61.95793
 11
-37.753557
 21
-61.95793
  0
LINE
  8
別途部材
  6
CONTINUOUS
 10
-31.253557
 20
-62.95793
 11
-30.253557
 21
-61.95793
  0
LINE
  8
別途部材
  6
CONTINUOUS
 10
-29.253557
 20
-61.95793
 11
-28.253557
 21
-62.95793
  0
LINE
  8
別途部材
  6
CONTINUOUS
 10
-30.253557
 20
-61.95793
 11
-29.253557
 21
-61.95793
  0
LINE
  8
別途部材
  6
CONTINUOUS
 10
-35.253557
 20
-79.624597
 11
-35.253557
 21
-62.95793
  0
LINE
  8
別途部材
  6
CONTINUOUS
 10
-32.253557
 20
-79.624597
 11
-32.253557
 21
-62.95793
  0
LINE
  8
別途部材
  6
CONTINUOUS
 10
-31.253557
 20
-79.624597
 11
-31.253557
 21
-62.95793
  0
LINE
  8
別途部材
  6
CONTINUOUS
 10
-30.253557
 20
-79.624597
 11
-30.253557
 21
-61.95793
  0
LINE
  8
別途部材
  6
CONTINUOUS
 10
-29.253557
 20
-79.624597
 11
-29.253557
 21
-61.95793
  0
LINE
  8
別途部材
  6
CONTINUOUS
 10
-28.253557
 20
-79.624597
 11
-28.253557
 21
-62.95793
  0
LINE
  8
別途部材
  6
CONTINUOUS
 10
-27.253557
 20
-62.95793
 11
-26.253557
 21
-61.95793
  0
LINE
  8
別途部材
  6
CONTINUOUS
 10
-25.253557
 20
-61.95793
 11
-24.253557
 21
-62.95793
  0
LINE
  8
別途部材
  6
CONTINUOUS
 10
-26.253557
 20
-61.95793
 11
-25.253557
 21
-61.95793
  0
LINE
  8
別途部材
  6
CONTINUOUS
 10
-27.253557
 20
-79.624597
 11
-27.253557
 21
-62.95793
  0
LINE
  8
別途部材
  6
CONTINUOUS
 10
-26.253557
 20
-79.624597
 11
-26.253557
 21
-61.95793
  0
LINE
  8
別途部材
  6
CONTINUOUS
 10
-25.253557
 20
-79.624597
 11
-25.253557
 21
-61.95793
  0
LINE
  8
別途部材
  6
CONTINUOUS
 10
-24.253557
 20
-79.624597
 11
-24.253557
 21
-62.95793
  0
LINE
  8
別途部材
  6
CONTINUOUS
 10
-22.253557
 20
-79.624597
 11
-22.253557
 21
-61.95793
  0
LINE
  8
別途部材
  6
CONTINUOUS
 10
-21.253557
 20
-79.624597
 11
-21.253557
 21
-61.95793
  0
LINE
  8
別途部材
  6
CONTINUOUS
 10
-23.253557
 20
-62.95793
 11
-22.253557
 21
-61.95793
  0
LINE
  8
別途部材
  6
CONTINUOUS
 10
-21.253557
 20
-61.95793
 11
-20.253557
 21
-62.95793
  0
LINE
  8
別途部材
  6
CONTINUOUS
 10
-22.253557
 20
-61.95793
 11
-21.253557
 21
-61.95793
  0
LINE
  8
別途部材
  6
CONTINUOUS
 10
-19.253557
 20
-62.95793
 11
-18.253557
 21
-61.95793
  0
LINE
  8
別途部材
  6
CONTINUOUS
 10
-17.253557
 20
-61.95793
 11
-16.253557
 21
-62.95793
  0
LINE
  8
別途部材
  6
CONTINUOUS
 10
-18.253557
 20
-61.95793
 11
-17.253557
 21
-61.95793
  0
LINE
  8
別途部材
  6
CONTINUOUS
 10
-23.253557
 20
-79.624597
 11
-23.253557
 21
-62.95793
  0
LINE
  8
別途部材
  6
CONTINUOUS
 10
-20.253557
 20
-79.624597
 11
-20.253557
 21
-62.95793
  0
LINE
  8
別途部材
  6
CONTINUOUS
 10
-19.253557
 20
-79.624597
 11
-19.253557
 21
-62.95793
  0
LINE
  8
別途部材
  6
CONTINUOUS
 10
-18.253557
 20
-79.624597
 11
-18.253557
 21
-61.95793
  0
LINE
  8
別途部材
  6
CONTINUOUS
 10
-17.253557
 20
-79.624597
 11
-17.253557
 21
-61.95793
  0
LINE
  8
別途部材
  6
CONTINUOUS
 10
-16.253557
 20
-79.624597
 11
-16.253557
 21
-62.95793
  0
LINE
  8
別途部材
  6
CONTINUOUS
 10
-15.253557
 20
-62.95793
 11
-14.253557
 21
-61.95793
  0
LINE
  8
別途部材
  6
CONTINUOUS
 10
-13.253557
 20
-61.95793
 11
-12.253557
 21
-62.95793
  0
LINE
  8
別途部材
  6
CONTINUOUS
 10
-14.253557
 20
-61.95793
 11
-13.253557
 21
-61.95793
  0
LINE
  8
別途部材
  6
CONTINUOUS
 10
-15.253557
 20
-79.624597
 11
-15.253557
 21
-62.95793
  0
LINE
  8
別途部材
  6
CONTINUOUS
 10
-14.253557
 20
-79.624597
 11
-14.253557
 21
-61.95793
  0
LINE
  8
別途部材
  6
CONTINUOUS
 10
-13.253557
 20
-79.624597
 11
-13.253557
 21
-61.95793
  0
LINE
  8
別途部材
  6
CONTINUOUS
 10
-12.253557
 20
-79.624597
 11
-12.253557
 21
-62.95793
  0
LINE
  8
別途部材
  6
CONTINUOUS
 10
-10.253557
 20
-79.624597
 11
-10.253557
 21
-61.95793
  0
LINE
  8
別途部材
  6
CONTINUOUS
 10
-9.253557
 20
-79.624597
 11
-9.253557
 21
-61.95793
  0
LINE
  8
別途部材
  6
CONTINUOUS
 10
-11.253557
 20
-62.95793
 11
-10.253557
 21
-61.95793
  0
LINE
  8
別途部材
  6
CONTINUOUS
 10
-9.253557
 20
-61.95793
 11
-8.253557
 21
-62.95793
  0
LINE
  8
別途部材
  6
CONTINUOUS
 10
-10.253557
 20
-61.95793
 11
-9.253557
 21
-61.95793
  0
LINE
  8
別途部材
  6
CONTINUOUS
 10
-7.253557
 20
-62.95793
 11
-6.253557
 21
-61.95793
  0
LINE
  8
別途部材
  6
CONTINUOUS
 10
-5.253557
 20
-61.95793
 11
-4.253557
 21
-62.95793
  0
LINE
  8
別途部材
  6
CONTINUOUS
 10
-6.253557
 20
-61.95793
 11
-5.253557
 21
-61.95793
  0
LINE
  8
別途部材
  6
CONTINUOUS
 10
-11.253557
 20
-79.624597
 11
-11.253557
 21
-62.95793
  0
LINE
  8
別途部材
  6
CONTINUOUS
 10
-8.253557
 20
-79.624597
 11
-8.253557
 21
-62.95793
  0
LINE
  8
別途部材
  6
CONTINUOUS
 10
-7.253557
 20
-79.624597
 11
-7.253557
 21
-62.95793
  0
LINE
  8
別途部材
  6
CONTINUOUS
 10
-6.253557
 20
-79.624597
 11
-6.253557
 21
-61.95793
  0
LINE
  8
別途部材
  6
CONTINUOUS
 10
-5.253557
 20
-79.624597
 11
-5.253557
 21
-61.95793
  0
LINE
  8
別途部材
  6
CONTINUOUS
 10
-4.253557
 20
-79.624597
 11
-4.253557
 21
-62.95793
  0
LINE
  8
別途部材
  6
CONTINUOUS
 10
-3.253557
 20
-62.95793
 11
-2.253557
 21
-61.95793
  0
LINE
  8
別途部材
  6
CONTINUOUS
 10
-1.253557
 20
-61.95793
 11
-0.253557
 21
-62.95793
  0
LINE
  8
別途部材
  6
CONTINUOUS
 10
-2.253557
 20
-61.95793
 11
-1.253557
 21
-61.95793
  0
LINE
  8
別途部材
  6
CONTINUOUS
 10
-3.253557
 20
-79.624597
 11
-3.253557
 21
-62.95793
  0
LINE
  8
別途部材
  6
CONTINUOUS
 10
-2.253557
 20
-79.624597
 11
-2.253557
 21
-61.95793
  0
LINE
  8
別途部材
  6
CONTINUOUS
 10
-1.253557
 20
-79.624597
 11
-1.253557
 21
-61.95793
  0
LINE
  8
別途部材
  6
CONTINUOUS
 10
-0.253557
 20
-79.624597
 11
-0.253557
 21
-62.95793
  0
LINE
  8
別途部材
  6
CONTINUOUS
 10
1.746443
 20
-79.624597
 11
1.746443
 21
-61.95793
  0
LINE
  8
別途部材
  6
CONTINUOUS
 10
2.746443
 20
-79.624597
 11
2.746443
 21
-61.95793
  0
LINE
  8
別途部材
  6
CONTINUOUS
 10
0.746443
 20
-62.95793
 11
1.746443
 21
-61.95793
  0
LINE
  8
別途部材
  6
CONTINUOUS
 10
2.746443
 20
-61.95793
 11
3.746443
 21
-62.95793
  0
LINE
  8
別途部材
  6
CONTINUOUS
 10
1.746443
 20
-61.95793
 11
2.746443
 21
-61.95793
  0
LINE
  8
別途部材
  6
CONTINUOUS
 10
4.746443
 20
-62.95793
 11
5.746443
 21
-61.95793
  0
LINE
  8
別途部材
  6
CONTINUOUS
 10
6.746443
 20
-61.95793
 11
7.746443
 21
-62.95793
  0
LINE
  8
別途部材
  6
CONTINUOUS
 10
5.746443
 20
-61.95793
 11
6.746443
 21
-61.95793
  0
LINE
  8
別途部材
  6
CONTINUOUS
 10
0.746443
 20
-79.624597
 11
0.746443
 21
-62.95793
  0
LINE
  8
別途部材
  6
CONTINUOUS
 10
3.746443
 20
-79.624597
 11
3.746443
 21
-62.95793
  0
LINE
  8
別途部材
  6
CONTINUOUS
 10
4.746443
 20
-79.624597
 11
4.746443
 21
-62.95793
  0
LINE
  8
別途部材
  6
CONTINUOUS
 10
5.746443
 20
-79.624597
 11
5.746443
 21
-61.95793
  0
LINE
  8
別途部材
  6
CONTINUOUS
 10
6.746443
 20
-79.624597
 11
6.746443
 21
-61.95793
  0
LINE
  8
別途部材
  6
CONTINUOUS
 10
7.746443
 20
-79.624597
 11
7.746443
 21
-62.95793
  0
LINE
  8
別途部材
  6
CONTINUOUS
 10
8.746443
 20
-62.95793
 11
9.746443
 21
-61.95793
  0
LINE
  8
別途部材
  6
CONTINUOUS
 10
10.746443
 20
-61.95793
 11
11.746443
 21
-62.95793
  0
LINE
  8
別途部材
  6
CONTINUOUS
 10
9.746443
 20
-61.95793
 11
10.746443
 21
-61.95793
  0
LINE
  8
別途部材
  6
CONTINUOUS
 10
8.746443
 20
-79.624597
 11
8.746443
 21
-62.95793
  0
LINE
  8
別途部材
  6
CONTINUOUS
 10
9.746443
 20
-79.624597
 11
9.746443
 21
-61.95793
  0
LINE
  8
別途部材
  6
CONTINUOUS
 10
10.746443
 20
-79.624597
 11
10.746443
 21
-61.95793
  0
LINE
  8
別途部材
  6
CONTINUOUS
 10
11.746443
 20
-79.624597
 11
11.746443
 21
-62.95793
  0
LINE
  8
別途部材
  6
CONTINUOUS
 10
7.746443
 20
-62.95793
 11
8.746443
 21
-62.95793
  0
LINE
  8
別途部材
  6
CONTINUOUS
 10
3.746443
 20
-62.95793
 11
4.746443
 21
-62.95793
  0
LINE
  8
別途部材
  6
CONTINUOUS
 10
-0.253557
 20
-62.95793
 11
0.746443
 21
-62.95793
  0
LINE
  8
別途部材
  6
CONTINUOUS
 10
-4.253557
 20
-62.95793
 11
-3.253557
 21
-62.95793
  0
LINE
  8
別途部材
  6
CONTINUOUS
 10
-8.253557
 20
-62.95793
 11
-7.253557
 21
-62.95793
  0
LINE
  8
別途部材
  6
CONTINUOUS
 10
-12.253557
 20
-62.95793
 11
-11.253557
 21
-62.95793
  0
LINE
  8
別途部材
  6
CONTINUOUS
 10
-16.253557
 20
-62.95793
 11
-15.253557
 21
-62.95793
  0
LINE
  8
別途部材
  6
CONTINUOUS
 10
-20.253557
 20
-62.95793
 11
-19.253557
 21
-62.95793
  0
LINE
  8
別途部材
  6
CONTINUOUS
 10
-24.253557
 20
-62.95793
 11
-23.253557
 21
-62.95793
  0
LINE
  8
別途部材
  6
CONTINUOUS
 10
-28.253557
 20
-62.95793
 11
-27.253557
 21
-62.95793
  0
LINE
  8
別途部材
  6
CONTINUOUS
 10
-32.253557
 20
-62.95793
 11
-31.253557
 21
-62.95793
  0
LINE
  8
別途部材
  6
CONTINUOUS
 10
-36.253557
 20
-79.624597
 11
-36.253557
 21
-62.95793
  0
LINE
  8
別途部材
  6
CONTINUOUS
 10
-35.253557
 20
-62.95793
 11
-36.253557
 21
-62.95793
  0
ARC
  8
別途部材
  6
CONTINUOUS
 10
28.913109
 20
-79.624597
 40
16.666667
 50
0.0
 51
90.0
  0
LINE
  8
別途部材
  6
CONTINUOUS
 10
12.746443
 20
-62.95793
 11
13.746443
 21
-61.95793
  0
LINE
  8
別途部材
  6
CONTINUOUS
 10
14.746443
 20
-61.95793
 11
15.746443
 21
-62.95793
  0
LINE
  8
別途部材
  6
CONTINUOUS
 10
13.746443
 20
-61.95793
 11
14.746443
 21
-61.95793
  0
LINE
  8
別途部材
  6
CONTINUOUS
 10
12.746443
 20
-79.624597
 11
12.746443
 21
-62.95793
  0
LINE
  8
別途部材
  6
CONTINUOUS
 10
13.746443
 20
-79.624597
 11
13.746443
 21
-61.95793
  0
LINE
  8
別途部材
  6
CONTINUOUS
 10
14.746443
 20
-79.624597
 11
14.746443
 21
-61.95793
  0
LINE
  8
別途部材
  6
CONTINUOUS
 10
15.746443
 20
-79.624597
 11
15.746443
 21
-62.95793
  0
LINE
  8
別途部材
  6
CONTINUOUS
 10
17.746443
 20
-79.624597
 11
17.746443
 21
-61.95793
  0
LINE
  8
別途部材
  6
CONTINUOUS
 10
18.746443
 20
-79.624597
 11
18.746443
 21
-61.95793
  0
LINE
  8
別途部材
  6
CONTINUOUS
 10
16.746443
 20
-62.95793
 11
17.746443
 21
-61.95793
  0
LINE
  8
別途部材
  6
CONTINUOUS
 10
18.746443
 20
-61.95793
 11
19.746443
 21
-62.95793
  0
LINE
  8
別途部材
  6
CONTINUOUS
 10
17.746443
 20
-61.95793
 11
18.746443
 21
-61.95793
  0
LINE
  8
別途部材
  6
CONTINUOUS
 10
20.746443
 20
-62.95793
 11
21.746443
 21
-61.95793
  0
LINE
  8
別途部材
  6
CONTINUOUS
 10
22.746443
 20
-61.95793
 11
23.746443
 21
-62.95793
  0
LINE
  8
別途部材
  6
CONTINUOUS
 10
21.746443
 20
-61.95793
 11
22.746443
 21
-61.95793
  0
LINE
  8
別途部材
  6
CONTINUOUS
 10
16.746443
 20
-79.624597
 11
16.746443
 21
-62.95793
  0
LINE
  8
別途部材
  6
CONTINUOUS
 10
19.746443
 20
-79.624597
 11
19.746443
 21
-62.95793
  0
LINE
  8
別途部材
  6
CONTINUOUS
 10
20.746443
 20
-79.624597
 11
20.746443
 21
-62.95793
  0
LINE
  8
別途部材
  6
CONTINUOUS
 10
21.746443
 20
-79.624597
 11
21.746443
 21
-61.95793
  0
LINE
  8
別途部材
  6
CONTINUOUS
 10
22.746443
 20
-79.624597
 11
22.746443
 21
-61.95793
  0
LINE
  8
別途部材
  6
CONTINUOUS
 10
23.746443
 20
-79.624597
 11
23.746443
 21
-62.95793
  0
LINE
  8
別途部材
  6
CONTINUOUS
 10
24.746443
 20
-62.95793
 11
25.746443
 21
-61.95793
  0
LINE
  8
別途部材
  6
CONTINUOUS
 10
26.746443
 20
-61.95793
 11
27.746443
 21
-62.95793
  0
LINE
  8
別途部材
  6
CONTINUOUS
 10
25.746443
 20
-61.95793
 11
26.746443
 21
-61.95793
  0
LINE
  8
別途部材
  6
CONTINUOUS
 10
24.746443
 20
-79.624597
 11
24.746443
 21
-62.95793
  0
LINE
  8
別途部材
  6
CONTINUOUS
 10
25.746443
 20
-79.624597
 11
25.746443
 21
-61.95793
  0
LINE
  8
別途部材
  6
CONTINUOUS
 10
26.746443
 20
-79.624597
 11
26.746443
 21
-61.95793
  0
LINE
  8
別途部材
  6
CONTINUOUS
 10
27.746443
 20
-79.624597
 11
27.746443
 21
-62.95793
  0
LINE
  8
別途部材
  6
CONTINUOUS
 10
23.746443
 20
-62.95793
 11
24.746443
 21
-62.95793
  0
LINE
  8
別途部材
  6
CONTINUOUS
 10
19.746443
 20
-62.95793
 11
20.746443
 21
-62.95793
  0
LINE
  8
別途部材
  6
CONTINUOUS
 10
15.746443
 20
-62.95793
 11
16.746443
 21
-62.95793
  0
LINE
  8
別途部材
  6
CONTINUOUS
 10
11.746443
 20
-62.95793
 11
12.746443
 21
-62.95793
  0
LINE
  8
別途部材
  6
CONTINUOUS
 10
28.91311
 20
-62.95793
 11
27.746443
 21
-62.95793
  0
ENDBLK
  0
BLOCK
  2
*DIM_0009
 70
    65
 10
0.0
 20
0.0
  0
LINE
  8
寸法
  6
BYBLOCK
 62
     0
 10
82.949083
 20
64.756625
 11
82.21224
 21
64.756625
  0
LINE
  8
寸法
  6
BYBLOCK
 62
     0
 10
82.949083
 20
-1.910042
 11
82.21224
 21
-1.910042
  0
LINE
  8
寸法
  6
BYBLOCK
 62
     0
 10
82.21224
 20
64.756625
 11
82.21224
 21
-1.910042
  0
POINT
  8
寸法
 62
     0
 10
82.21224
 20
64.756625
  0
POINT
  8
寸法
 62
     0
 10
82.21224
 20
-1.910042
  0
TEXT
  7
TextStyle03
  8
寸法
  6
CONTINUOUS
 62
     0
 10
81.825
 20
19.68125
  1
呼称寸法　2000
 40
3.0
 50
90.0
 72
     5
 11
81.825
 21
43.11875
  0
ENDBLK
  0
BLOCK
  2
*DIM_0010
 70
    65
 10
0.0
 20
0.0
  0
LINE
  8
寸法
  6
BYBLOCK
 62
     0
 10
118.446372
 20
32.42329
 11
118.446372
 21
86.5884
  0
LINE
  8
寸法
  6
BYBLOCK
 62
     0
 10
135.11304
 20
86.5884
 11
118.446372
 21
86.5884
  0
POINT
  8
寸法
 62
     0
 10
135.11304
 20
86.5884
  0
POINT
  8
寸法
 62
     0
 10
118.446372
 20
86.5884
  0
TEXT
  7
TextStyle03
  8
寸法
  6
CONTINUOUS
 62
     0
 10
124.3375
 20
86.95
  1
500
 40
3.0
 72
     5
 11
129.2125
 21
86.95
  0
ENDBLK
  0
BLOCK
  2
*DIM_0011
 70
    65
 10
0.0
 20
0.0
  0
LINE
  8
寸法
  6
BYBLOCK
 62
     0
 10
135.11304
 20
67.42329
 11
135.11304
 21
86.5884
  0
LINE
  8
寸法
  6
BYBLOCK
 62
     0
 10
137.979708
 20
68.756668
 11
137.979708
 21
86.5884
  0
LINE
  8
寸法
  6
BYBLOCK
 62
     0
 10
135.11304
 20
86.5884
 11
137.979708
 21
86.5884
  0
POINT
  8
寸法
 62
     0
 10
135.11304
 20
86.5884
  0
POINT
  8
寸法
 62
     0
 10
137.979708
 20
86.5884
  0
TEXT
  7
TextStyle03
  8
寸法
  6
CONTINUOUS
 62
     0
 10
138.30625
 20
86.95
  1
86
 40
3.0
 72
     5
 11
141.49375
 21
86.95
  0
ENDBLK
  0
BLOCK
  2
*DIM_0012
 70
    65
 10
0.0
 20
0.0
  0
LINE
  8
寸法
  6
BYBLOCK
 62
     0
 10
136.47971
 20
67.756668
 11
82.21224
 21
67.756668
  0
LINE
  8
寸法
  6
BYBLOCK
 62
     0
 10
82.21224
 20
64.756625
 11
82.21224
 21
67.756668
  0
POINT
  8
寸法
 62
     0
 10
82.21224
 20
64.756625
  0
POINT
  8
寸法
 62
     0
 10
82.21224
 20
67.756668
  0
TEXT
  7
TextStyle03
  8
寸法
  6
CONTINUOUS
 62
     0
 10
81.825
 20
68.03125
  1
90
 40
3.0
 50
90.0
 72
     5
 11
81.825
 21
71.21875
  0
ENDBLK
  0
BLOCK
  2
*DIM_0013
 70
    65
 10
0.0
 20
0.0
  0
LINE
  8
寸法
  6
BYBLOCK
 62
     0
 10
136.47971
 20
-4.910083
 11
82.21224
 21
-4.910083
  0
LINE
  8
寸法
  6
BYBLOCK
 62
     0
 10
82.21224
 20
-1.910042
 11
82.21224
 21
-4.910083
  0
POINT
  8
寸法
 62
     0
 10
82.21224
 20
-1.910042
  0
POINT
  8
寸法
 62
     0
 10
82.21224
 20
-4.910083
  0
TEXT
  7
TextStyle03
  8
寸法
  6
CONTINUOUS
 62
     0
 10
81.825
 20
-8.39375
  1
90
 40
3.0
 50
90.0
 72
     5
 11
81.825
 21
-5.20625
  0
ENDBLK
  0
BLOCK
  2
*DIM_0014
 70
    65
 10
0.0
 20
0.0
  0
LINE
  8
寸法
  6
BYBLOCK
 62
     0
 10
48.246443
 20
-79.624597
 11
61.549425
 21
-79.624597
  0
LINE
  8
寸法
  6
BYBLOCK
 62
     0
 10
49.57982
 20
-82.491265
 11
61.549425
 21
-82.491265
  0
LINE
  8
寸法
  6
BYBLOCK
 62
     0
 10
61.549425
 20
-79.624597
 11
61.549425
 21
-82.491265
  0
POINT
  8
寸法
 62
     0
 10
61.549425
 20
-79.624597
  0
POINT
  8
寸法
 62
     0
 10
61.549425
 20
-82.491265
  0
TEXT
  7
TextStyle03
  8
寸法
  6
CONTINUOUS
 62
     0
 10
61.175
 20
-86.04375
  1
86
 40
3.0
 50
90.0
 72
     5
 11
61.175
 21
-82.85625
  0
ENDBLK
  0
BLOCK
  2
*DIM_0015
 70
    65
 10
0.0
 20
0.0
  0
LINE
  8
寸法
  6
BYBLOCK
 62
     0
 10
48.57982
 20
-80.991267
 11
48.57982
 21
-22.536362
  0
LINE
  8
寸法
  6
BYBLOCK
 62
     0
 10
45.579775
 20
-22.536362
 11
48.57982
 21
-22.536362
  0
POINT
  8
寸法
 62
     0
 10
45.579775
 20
-22.536362
  0
POINT
  8
寸法
 62
     0
 10
48.57982
 20
-22.536362
  0
TEXT
  7
TextStyle03
  8
寸法
  6
CONTINUOUS
 62
     0
 10
48.85625
 20
-22.175
  1
90
 40
3.0
 72
     5
 11
52.04375
 21
-22.175
  0
ENDBLK
  0
BLOCK
  2
*DIM_0016
 70
    65
 10
0.0
 20
0.0
  0
LINE
  8
寸法
  6
BYBLOCK
 62
     0
 10
-124.086935
 20
-80.991267
 11
-124.086935
 21
-23.142105
  0
LINE
  8
寸法
  6
BYBLOCK
 62
     0
 10
-121.086892
 20
-23.142105
 11
-124.086935
 21
-23.142105
  0
POINT
  8
寸法
 62
     0
 10
-121.086892
 20
-23.142105
  0
POINT
  8
寸法
 62
     0
 10
-124.086935
 20
-23.142105
  0
TEXT
  7
TextStyle03
  8
寸法
  6
CONTINUOUS
 62
     0
 10
-127.56875
 20
-22.775
  1
90
 40
3.0
 72
     5
 11
-124.38125
 21
-22.775
  0
ENDBLK
  0
BLOCK
  2
*DIM_0017
 70
    65
 10
0.0
 20
0.0
  0
LINE
  8
寸法
  6
BYBLOCK
 62
     0
 10
-124.086892
 20
8.08996
 11
-153.57597
 21
8.08996
  0
LINE
  8
寸法
  6
BYBLOCK
 62
     0
 10
-124.086892
 20
31.423293
 11
-153.57597
 21
31.423293
  0
LINE
  8
寸法
  6
BYBLOCK
 62
     0
 10
-153.57597
 20
8.08996
 11
-153.57597
 21
31.423293
  0
POINT
  8
寸法
 62
     0
 10
-153.57597
 20
8.08996
  0
POINT
  8
寸法
 62
     0
 10
-153.57597
 20
31.423293
  0
TEXT
  7
TextStyle03
  8
寸法
  6
CONTINUOUS
 62
     0
 10
-153.95
 20
17.3125
  1
700
 40
3.0
 50
90.0
 72
     5
 11
-153.95
 21
22.1875
  0
ENDBLK
  0
BLOCK
  2
*DIM_0018
 70
    65
 10
0.0
 20
0.0
  0
LINE
  8
寸法
  6
BYBLOCK
 62
     0
 10
-124.086892
 20
54.756625
 11
-153.57597
 21
54.756625
  0
LINE
  8
寸法
  6
BYBLOCK
 62
     0
 10
-153.57597
 20
31.423293
 11
-153.57597
 21
54.756625
  0
POINT
  8
寸法
 62
     0
 10
-153.57597
 20
54.756625
  0
TEXT
  7
TextStyle03
  8
寸法
  6
CONTINUOUS
 62
     0
 10
-153.95
 20
40.6375
  1
700
 40
3.0
 50
90.0
 72
     5
 11
-153.95
 21
45.5125
  0
ENDBLK
  0
BLOCK
  2
*DIM_0019
 70
    65
 10
0.0
 20
0.0
  0
LINE
  8
寸法
  6
BYBLOCK
 62
     0
 10
-112.753557
 20
67.756625
 11
-112.753557
 21
96.864697
  0
LINE
  8
寸法
  6
BYBLOCK
 62
     0
 10
-87.753557
 20
67.756625
 11
-87.753557
 21
96.864697
  0
LINE
  8
寸法
  6
BYBLOCK
 62
     0
 10
-112.753557
 20
96.864697
 11
-87.753557
 21
96.864697
  0
POINT
  8
寸法
 62
     0
 10
-112.753557
 20
96.864697
  0
POINT
  8
寸法
 62
     0
 10
-87.753557
 20
96.864697
  0
TEXT
  7
TextStyle03
  8
寸法
  6
CONTINUOUS
 62
     0
 10
-102.7125
 20
97.225
  1
750
 40
3.0
 72
     5
 11
-97.8375
 21
97.225
  0
ENDBLK
  0
BLOCK
  2
*DIM_0020
 70
    65
 10
0.0
 20
0.0
  0
LINE
  8
寸法
  6
BYBLOCK
 62
     0
 10
-62.753557
 20
67.756625
 11
-62.753557
 21
96.864697
  0
LINE
  8
寸法
  6
BYBLOCK
 62
     0
 10
-87.753557
 20
96.864697
 11
-62.753557
 21
96.864697
  0
POINT
  8
寸法
 62
     0
 10
-62.753557
 20
96.864697
  0
TEXT
  7
TextStyle03
  8
寸法
  6
CONTINUOUS
 62
     0
 10
-77.7125
 20
97.225
  1
750
 40
3.0
 72
     5
 11
-72.8375
 21
97.225
  0
ENDBLK
  0
BLOCK
  2
*DIM_0021
 70
    65
 10
0.0
 20
0.0
  0
LINE
  8
寸法
  6
BYBLOCK
 62
     0
 10
-37.753557
 20
67.756625
 11
-37.753557
 21
96.864697
  0
LINE
  8
寸法
  6
BYBLOCK
 62
     0
 10
-62.753557
 20
96.864697
 11
-37.753557
 21
96.864697
  0
POINT
  8
寸法
 62
     0
 10
-37.753557
 20
96.864697
  0
TEXT
  7
TextStyle03
  8
寸法
  6
CONTINUOUS
 62
     0
 10
-52.7125
 20
97.225
  1
750
 40
3.0
 72
     5
 11
-47.8375
 21
97.225
  0
ENDBLK
  0
BLOCK
  2
*DIM_0022
 70
    65
 10
0.0
 20
0.0
  0
LINE
  8
寸法
  6
BYBLOCK
 62
     0
 10
-12.753557
 20
67.756625
 11
-12.753557
 21
96.864697
  0
LINE
  8
寸法
  6
BYBLOCK
 62
     0
 10
-37.753557
 20
96.864697
 11
-12.753557
 21
96.864697
  0
POINT
  8
寸法
 62
     0
 10
-12.753557
 20
96.864697
  0
TEXT
  7
TextStyle03
  8
寸法
  6
CONTINUOUS
 62
     0
 10
-27.7125
 20
97.225
  1
750
 40
3.0
 72
     5
 11
-22.8375
 21
97.225
  0
ENDBLK
  0
BLOCK
  2
*DIM_0023
 70
    65
 10
0.0
 20
0.0
  0
LINE
  8
寸法
  6
BYBLOCK
 62
     0
 10
12.246443
 20
67.756625
 11
12.246443
 21
96.864697
  0
LINE
  8
寸法
  6
BYBLOCK
 62
     0
 10
-12.753557
 20
96.864697
 11
12.246443
 21
96.864697
  0
POINT
  8
寸法
 62
     0
 10
12.246443
 20
96.864697
  0
TEXT
  7
TextStyle03
  8
寸法
  6
CONTINUOUS
 62
     0
 10
-2.7125
 20
97.225
  1
750
 40
3.0
 72
     5
 11
2.1625
 21
97.225
  0
ENDBLK
  0
BLOCK
  2
*DIM_0024
 70
    65
 10
0.0
 20
0.0
  0
LINE
  8
寸法
  6
BYBLOCK
 62
     0
 10
37.246443
 20
67.756625
 11
37.246443
 21
96.864697
  0
LINE
  8
寸法
  6
BYBLOCK
 62
     0
 10
12.246443
 20
96.864697
 11
37.246443
 21
96.864697
  0
POINT
  8
寸法
 62
     0
 10
37.246443
 20
96.864697
  0
TEXT
  7
TextStyle03
  8
寸法
  6
CONTINUOUS
 62
     0
 10
22.2875
 20
97.225
  1
750
 40
3.0
 72
     5
 11
27.1625
 21
97.225
  0
ENDBLK
  0
BLOCK
  2
*GRP_0025
 70
    65
 10
0.0
 20
0.0
  0
LINE
  8
ボルト／ビス
  6
CONTINUOUS
 10
-121.753557
 20
-79.624597
 11
-121.753557
 21
-79.15793
  0
LINE
  8
ボルト／ビス
  6
CONTINUOUS
 10
-122.120223
 20
-79.624597
 11
-122.120223
 21
-79.55793
  0
LINE
  8
ボルト／ビス
  6
CONTINUOUS
 10
-122.120223
 20
-79.55793
 11
-121.38689
 21
-79.55793
  0
LINE
  8
ボルト／ビス
  6
CONTINUOUS
 10
-121.38689
 20
-79.55793
 11
-121.38689
 21
-79.624597
  0
LINE
  8
ボルト／ビス
  6
CONTINUOUS
 10
-122.120223
 20
-79.624597
 11
-121.38689
 21
-79.624597
  0
LINE
  8
ボルト／ビス
  6
CONTINUOUS
 10
-122.053557
 20
-79.524597
 11
-122.053557
 21
-79.55793
  0
LINE
  8
ボルト／ビス
  6
CONTINUOUS
 10
-122.053557
 20
-79.524597
 11
-121.453557
 21
-79.524597
  0
LINE
  8
ボルト／ビス
  6
CONTINUOUS
 10
-121.453557
 20
-79.524597
 11
-121.453557
 21
-79.55793
  0
LINE
  8
ボルト／ビス
  6
CONTINUOUS
 62
    64
 10
-121.913933
 20
-79.324597
 11
-121.946007
 21
-79.336272
  0
ARC
  8
ボルト／ビス
  6
CONTINUOUS
 62
    64
 10
-121.897893
 20
-79.429576
 40
0.104978
 50
62.721967
 51
90.0
  0
ARC
  8
ボルト／ビス
  6
CONTINUOUS
 62
    64
 10
-121.753555
 20
-79.727
 40
0.402402
 50
76.165002
 51
103.834985
  0
LINE
  8
ボルト／ビス
  6
CONTINUOUS
 62
    64
 10
-121.593182
 20
-79.324597
 11
-121.561107
 21
-79.336272
  0
ARC
  8
ボルト／ビス
  6
CONTINUOUS
 62
    64
 10
-121.609218
 20
-79.429576
 40
0.104978
 50
90.0
 51
117.278033
  0
LINE
  8
ボルト／ビス
  6
CONTINUOUS
 62
    64
 10
-121.913933
 20
-79.324597
 11
-121.593182
 21
-79.324597
  0
LINE
  8
ボルト／ビス
  6
CONTINUOUS
 62
    64
 10
-121.561107
 20
-79.336272
 11
-121.561107
 21
-79.45793
  0
LINE
  8
ボルト／ビス
  6
CONTINUOUS
 62
    64
 10
-121.657333
 20
-79.336272
 11
-121.657333
 21
-79.45793
  0
LINE
  8
ボルト／ビス
  6
CONTINUOUS
 62
    64
 10
-121.946007
 20
-79.336272
 11
-121.946007
 21
-79.45793
  0
LINE
  8
ボルト／ビス
  6
CONTINUOUS
 62
    64
 10
-121.849783
 20
-79.336272
 11
-121.849783
 21
-79.45793
  0
LINE
  8
ボルト／ビス
  6
CONTINUOUS
 10
-121.946007
 20
-79.45793
 11
-121.561107
 21
-79.45793
  0
LINE
  8
ボルト／ビス
  6
CONTINUOUS
 10
-121.953557
 20
-79.45793
 11
-121.953557
 21
-79.524597
  0
LINE
  8
ボルト／ビス
  6
CONTINUOUS
 10
-121.953557
 20
-79.45793
 11
-121.553557
 21
-79.45793
  0
LINE
  8
ボルト／ビス
  6
CONTINUOUS
 10
-121.553557
 20
-79.45793
 11
-121.553557
 21
-79.524597
  0
ENDBLK
  0
BLOCK
  2
*GRP_0026
 70
    65
 10
0.0
 20
0.0
  0
LINE
  8
ボルト／ビス
  6
CONTINUOUS
 10
46.246443
 20
-79.624597
 11
46.246443
 21
-79.15793
  0
LINE
  8
ボルト／ビス
  6
CONTINUOUS
 10
45.879777
 20
-79.624597
 11
45.879777
 21
-79.55793
  0
LINE
  8
ボルト／ビス
  6
CONTINUOUS
 10
45.879777
 20
-79.55793
 11
46.61311
 21
-79.55793
  0
LINE
  8
ボルト／ビス
  6
CONTINUOUS
 10
46.61311
 20
-79.55793
 11
46.61311
 21
-79.624597
  0
LINE
  8
ボルト／ビス
  6
CONTINUOUS
 10
45.879777
 20
-79.624597
 11
46.61311
 21
-79.624597
  0
LINE
  8
ボルト／ビス
  6
CONTINUOUS
 10
45.946443
 20
-79.524597
 11
45.946443
 21
-79.55793
  0
LINE
  8
ボルト／ビス
  6
CONTINUOUS
 10
45.946443
 20
-79.524597
 11
46.546443
 21
-79.524597
  0
LINE
  8
ボルト／ビス
  6
CONTINUOUS
 10
46.546443
 20
-79.524597
 11
46.546443
 21
-79.55793
  0
LINE
  8
ボルト／ビス
  6
CONTINUOUS
 62
    64
 10
46.086067
 20
-79.324597
 11
46.053992
 21
-79.336272
  0
ARC
  8
ボルト／ビス
  6
CONTINUOUS
 62
    64
 10
46.102107
 20
-79.429576
 40
0.104978
 50
62.721967
 51
90.0
  0
ARC
  8
ボルト／ビス
  6
CONTINUOUS
 62
    64
 10
46.246445
 20
-79.727
 40
0.402402
 50
76.165002
 51
103.834985
  0
LINE
  8
ボルト／ビス
  6
CONTINUOUS
 62
    64
 10
46.406818
 20
-79.324597
 11
46.438892
 21
-79.336272
  0
ARC
  8
ボルト／ビス
  6
CONTINUOUS
 62
    64
 10
46.390782
 20
-79.429576
 40
0.104978
 50
90.0
 51
117.278033
  0
LINE
  8
ボルト／ビス
  6
CONTINUOUS
 62
    64
 10
46.086067
 20
-79.324597
 11
46.406818
 21
-79.324597
  0
LINE
  8
ボルト／ビス
  6
CONTINUOUS
 62
    64
 10
46.438892
 20
-79.336272
 11
46.438892
 21
-79.45793
  0
LINE
  8
ボルト／ビス
  6
CONTINUOUS
 62
    64
 10
46.342668
 20
-79.336272
 11
46.342668
 21
-79.45793
  0
LINE
  8
ボルト／ビス
  6
CONTINUOUS
 62
    64
 10
46.053992
 20
-79.336272
 11
46.053992
 21
-79.45793
  0
LINE
  8
ボルト／ビス
  6
CONTINUOUS
 62
    64
 10
46.150217
 20
-79.336272
 11
46.150217
 21
-79.45793
  0
LINE
  8
ボルト／ビス
  6
CONTINUOUS
 10
46.053992
 20
-79.45793
 11
46.438892
 21
-79.45793
  0
LINE
  8
ボルト／ビス
  6
CONTINUOUS
 10
46.046443
 20
-79.45793
 11
46.046443
 21
-79.524597
  0
LINE
  8
ボルト／ビス
  6
CONTINUOUS
 10
46.046443
 20
-79.45793
 11
46.446443
 21
-79.45793
  0
LINE
  8
ボルト／ビス
  6
CONTINUOUS
 10
46.446443
 20
-79.45793
 11
46.446443
 21
-79.524597
  0
ENDBLK
  0
BLOCK
  2
*GRP_0027
 70
    65
 10
0.0
 20
0.0
  0
LINE
  8
ボルト／ビス
  6
CONTINUOUS
 10
135.11304
 20
-2.57671
 11
134.646372
 21
-2.57671
  0
LINE
  8
ボルト／ビス
  6
CONTINUOUS
 10
135.11304
 20
-2.943375
 11
135.046372
 21
-2.943375
  0
LINE
  8
ボルト／ビス
  6
CONTINUOUS
 10
135.046372
 20
-2.943375
 11
135.046372
 21
-2.210042
  0
LINE
  8
ボルト／ビス
  6
CONTINUOUS
 10
135.046372
 20
-2.210042
 11
135.11304
 21
-2.210042
  0
LINE
  8
ボルト／ビス
  6
CONTINUOUS
 10
135.11304
 20
-2.943375
 11
135.11304
 21
-2.210042
  0
LINE
  8
ボルト／ビス
  6
CONTINUOUS
 10
135.01304
 20
-2.87671
 11
135.046372
 21
-2.87671
  0
LINE
  8
ボルト／ビス
  6
CONTINUOUS
 10
135.01304
 20
-2.87671
 11
135.01304
 21
-2.27671
  0
LINE
  8
ボルト／ビス
  6
CONTINUOUS
 10
135.01304
 20
-2.27671
 11
135.046372
 21
-2.27671
  0
LINE
  8
ボルト／ビス
  6
CONTINUOUS
 62
    64
 10
134.81304
 20
-2.737085
 11
134.824715
 21
-2.76916
  0
ARC
  8
ボルト／ビス
  6
CONTINUOUS
 62
    64
 10
134.918019
 20
-2.721045
 40
0.104978
 50
152.721967
 51
180.0
  0
ARC
  8
ボルト／ビス
  6
CONTINUOUS
 62
    64
 10
135.215443
 20
-2.576708
 40
0.402402
 50
166.165002
 51
193.834985
  0
LINE
  8
ボルト／ビス
  6
CONTINUOUS
 62
    64
 10
134.81304
 20
-2.416335
 11
134.824715
 21
-2.38426
  0
ARC
  8
ボルト／ビス
  6
CONTINUOUS
 62
    64
 10
134.918019
 20
-2.43237
 40
0.104978
 50
180.0
 51
207.278033
  0
LINE
  8
ボルト／ビス
  6
CONTINUOUS
 62
    64
 10
134.81304
 20
-2.737085
 11
134.81304
 21
-2.416335
  0
LINE
  8
ボルト／ビス
  6
CONTINUOUS
 62
    64
 10
134.824715
 20
-2.38426
 11
134.946372
 21
-2.38426
  0
LINE
  8
ボルト／ビス
  6
CONTINUOUS
 62
    64
 10
134.824715
 20
-2.480485
 11
134.946372
 21
-2.480485
  0
LINE
  8
ボルト／ビス
  6
CONTINUOUS
 62
    64
 10
134.824715
 20
-2.76916
 11
134.946372
 21
-2.76916
  0
LINE
  8
ボルト／ビス
  6
CONTINUOUS
 62
    64
 10
134.824715
 20
-2.672935
 11
134.946372
 21
-2.672935
  0
LINE
  8
ボルト／ビス
  6
CONTINUOUS
 10
134.946372
 20
-2.76916
 11
134.946372
 21
-2.38426
  0
LINE
  8
ボルト／ビス
  6
CONTINUOUS
 10
134.946372
 20
-2.77671
 11
135.01304
 21
-2.77671
  0
LINE
  8
ボルト／ビス
  6
CONTINUOUS
 10
134.946372
 20
-2.77671
 11
134.946372
 21
-2.37671
  0
LINE
  8
ボルト／ビス
  6
CONTINUOUS
 10
134.946372
 20
-2.37671
 11
135.01304
 21
-2.37671
  0
ENDBLK
  0
BLOCK
  2
*GRP_0028
 70
    65
 10
0.0
 20
0.0
  0
LINE
  8
ボルト／ビス
  6
CONTINUOUS
 10
135.11304
 20
65.42329
 11
134.646372
 21
65.42329
  0
LINE
  8
ボルト／ビス
  6
CONTINUOUS
 10
135.11304
 20
65.056625
 11
135.046372
 21
65.056625
  0
LINE
  8
ボルト／ビス
  6
CONTINUOUS
 10
135.046372
 20
65.056625
 11
135.046372
 21
65.789957
  0
LINE
  8
ボルト／ビス
  6
CONTINUOUS
 10
135.046372
 20
65.789957
 11
135.11304
 21
65.789957
  0
LINE
  8
ボルト／ビス
  6
CONTINUOUS
 10
135.11304
 20
65.056625
 11
135.11304
 21
65.789957
  0
LINE
  8
ボルト／ビス
  6
CONTINUOUS
 10
135.01304
 20
65.12329
 11
135.046372
 21
65.12329
  0
LINE
  8
ボルト／ビス
  6
CONTINUOUS
 10
135.01304
 20
65.12329
 11
135.01304
 21
65.72329
  0
LINE
  8
ボルト／ビス
  6
CONTINUOUS
 10
135.01304
 20
65.72329
 11
135.046372
 21
65.72329
  0
LINE
  8
ボルト／ビス
  6
CONTINUOUS
 62
    64
 10
134.81304
 20
65.262915
 11
134.824715
 21
65.23084
  0
ARC
  8
ボルト／ビス
  6
CONTINUOUS
 62
    64
 10
134.918019
 20
65.278955
 40
0.104978
 50
152.721967
 51
180.0
  0
ARC
  8
ボルト／ビス
  6
CONTINUOUS
 62
    64
 10
135.215443
 20
65.423292
 40
0.402402
 50
166.165002
 51
193.834985
  0
LINE
  8
ボルト／ビス
  6
CONTINUOUS
 62
    64
 10
134.81304
 20
65.583665
 11
134.824715
 21
65.61574
  0
ARC
  8
ボルト／ビス
  6
CONTINUOUS
 62
    64
 10
134.918019
 20
65.56763
 40
0.104978
 50
180.0
 51
207.278033
  0
LINE
  8
ボルト／ビス
  6
CONTINUOUS
 62
    64
 10
134.81304
 20
65.262915
 11
134.81304
 21
65.583665
  0
LINE
  8
ボルト／ビス
  6
CONTINUOUS
 62
    64
 10
134.824715
 20
65.61574
 11
134.946372
 21
65.61574
  0
LINE
  8
ボルト／ビス
  6
CONTINUOUS
 62
    64
 10
134.824715
 20
65.519515
 11
134.946372
 21
65.519515
  0
LINE
  8
ボルト／ビス
  6
CONTINUOUS
 62
    64
 10
134.824715
 20
65.23084
 11
134.946372
 21
65.23084
  0
LINE
  8
ボルト／ビス
  6
CONTINUOUS
 62
    64
 10
134.824715
 20
65.327065
 11
134.946372
 21
65.327065
  0
LINE
  8
ボルト／ビス
  6
CONTINUOUS
 10
134.946372
 20
65.23084
 11
134.946372
 21
65.61574
  0
LINE
  8
ボルト／ビス
  6
CONTINUOUS
 10
134.946372
 20
65.22329
 11
135.01304
 21
65.22329
  0
LINE
  8
ボルト／ビス
  6
CONTINUOUS
 10
134.946372
 20
65.22329
 11
134.946372
 21
65.62329
  0
LINE
  8
ボルト／ビス
  6
CONTINUOUS
 10
134.946372
 20
65.62329
 11
135.01304
 21
65.62329
  0
ENDBLK
  0
ENDSEC
  0
SECTION
  2
ENTITIES
  0
POLYLINE
  8
通り芯
  6
CONTINUOUS
 66
     1
 70
     1
  0
VERTEX
  8
通り芯
 10
-210.0
 20
-148.5
  0
VERTEX
  8
通り芯
 10
210.0
 20
-148.5
  0
VERTEX
  8
通り芯
 10
210.0
 20
148.5
  0
VERTEX
  8
通り芯
 10
-210.0
 20
148.5
  0
SEQEND
  0
INSERT
  2
*GRP_0001
  8
型材断面
  6
CONTINUOUS
 10
0.0
 20
0.0
  0
LINE
  8
型材断面
  6
DASHDOT
 10
45.579775
 20
64.756625
 11
45.579775
 21
-87.251428
  0
LINE
  8
型材断面
  6
DASHDOT
 10
143.256538
 20
-1.910042
 11
-121.086892
 21
-1.910042
  0
LINE
  8
型材断面
  6
DASHDOT
 10
143.256538
 20
31.423293
 11
-121.086892
 21
31.423293
  0
LINE
  8
型材断面
  6
DASHDOT
 10
143.256538
 20
64.756625
 11
-121.086892
 21
64.756625
  0
LINE
  8
型材断面
  6
DASHDOT
 10
-37.753557
 20
64.756625
 11
-37.753557
 21
-87.251428
  0
LINE
  8
型材断面
  6
DASHDOT
 10
-121.086892
 20
64.756625
 11
-121.086892
 21
-87.251428
  0
LINE
  8
型材断面
  6
DASHDOT
 10
-87.87356
 20
-1.910042
 11
-87.87356
 21
64.756625
  0
LINE
  8
型材断面
  6
DASHDOT
 10
-54.460228
 20
-1.910042
 11
-54.460228
 21
64.756625
  0
LINE
  8
型材断面
  6
DOT
 10
-89.12356
 20
-1.910042
 11
-89.12356
 21
64.756625
  0
LINE
  8
型材断面
  6
DOT
 10
-86.62356
 20
-1.910042
 11
-86.62356
 21
64.756625
  0
LINE
  8
型材断面
  6
DOT
 10
-55.710228
 20
-1.910042
 11
-55.710228
 21
64.756625
  0
LINE
  8
型材断面
  6
DOT
 10
-53.210228
 20
-1.910042
 11
-53.210228
 21
64.756625
  0
LINE
  8
型材断面
  6
DASHDOT
 10
12.366445
 20
-1.910042
 11
12.366445
 21
64.756625
  0
LINE
  8
型材断面
  6
DASHDOT
 10
-21.046887
 20
-1.910042
 11
-21.046887
 21
64.756625
  0
LINE
  8
型材断面
  6
DOT
 10
13.616445
 20
-1.910042
 11
13.616445
 21
64.756625
  0
LINE
  8
型材断面
  6
DOT
 10
11.116445
 20
-1.910042
 11
11.116445
 21
64.756625
  0
LINE
  8
型材断面
  6
DOT
 10
-19.796887
 20
-1.910042
 11
-19.796887
 21
64.756625
  0
LINE
  8
型材断面
  6
DOT
 10
-22.296887
 20
-1.910042
 11
-22.296887
 21
64.756625
  0
LINE
  8
型材断面
  6
DOT
 10
13.616445
 20
32.673293
 11
45.579775
 21
32.673293
  0
LINE
  8
型材断面
  6
DOT
 10
13.616445
 20
30.173293
 11
45.579775
 21
30.173293
  0
LINE
  8
型材断面
  6
DOT
 10
11.116445
 20
32.673293
 11
-19.796887
 21
32.673293
  0
LINE
  8
型材断面
  6
DOT
 10
11.116445
 20
30.173293
 11
-19.796887
 21
30.173293
  0
LINE
  8
型材断面
  6
DOT
 10
-22.296887
 20
32.673293
 11
-53.210228
 21
32.673293
  0
LINE
  8
型材断面
  6
DOT
 10
-22.296887
 20
30.173293
 11
-53.210228
 21
30.173293
  0
LINE
  8
型材断面
  6
DOT
 10
-89.12356
 20
32.673293
 11
-121.08689
 21
32.673293
  0
LINE
  8
型材断面
  6
DOT
 10
-89.12356
 20
30.173293
 11
-121.08689
 21
30.173293
  0
LINE
  8
型材断面
  6
DOT
 10
-86.62356
 20
32.673293
 11
-55.710228
 21
32.673293
  0
LINE
  8
型材断面
  6
DOT
 10
-86.62356
 20
30.173293
 11
-55.710228
 21
30.173293
  0
LINE
  8
型材断面
  6
CONTINUOUS
 10
-123.717022
 20
31.423293
 11
-126.30753
 21
32.918923
  0
LINE
  8
型材断面
  6
CONTINUOUS
 10
-123.717022
 20
31.423293
 11
-126.30753
 21
29.927663
  0
LINE
  8
型材断面
  6
CONTINUOUS
 10
-126.30753
 20
29.927663
 11
-126.30753
 21
32.918923
  0
LINE
  8
型材断面
  6
CONTINUOUS
 10
-161.9391
 20
109.263973
 11
-163.43473
 21
106.673465
  0
LINE
  8
型材断面
  6
CONTINUOUS
 10
-161.9391
 20
109.263973
 11
-160.44347
 21
106.673465
  0
LINE
  8
型材断面
  6
CONTINUOUS
 10
-160.44347
 20
106.673465
 11
-163.43473
 21
106.673465
  0
LINE
  8
型材断面
  6
CONTINUOUS
 10
-167.961687
 20
105.73487
 11
-121.71991
 21
105.73487
  0
LINE
  8
型材断面
  6
CONTINUOUS
 10
-104.420225
 20
-4.54017
 11
-105.915855
 21
-7.130678
  0
LINE
  8
型材断面
  6
CONTINUOUS
 10
-104.420225
 20
-4.54017
 11
-102.924595
 21
-7.130678
  0
LINE
  8
型材断面
  6
CONTINUOUS
 10
-102.924595
 20
-7.130678
 11
-105.915855
 21
-7.130678
  0
LINE
  8
型材断面
  6
CONTINUOUS
 10
-104.420225
 20
67.386755
 11
-105.915855
 21
69.977262
  0
LINE
  8
型材断面
  6
CONTINUOUS
 10
-104.420225
 20
67.386755
 11
-102.924595
 21
69.977262
  0
LINE
  8
型材断面
  6
CONTINUOUS
 10
-102.924595
 20
69.977262
 11
-105.915855
 21
69.977262
  0
LINE
  8
型材断面
  6
CONTINUOUS
 10
48.209908
 20
31.423293
 11
50.800415
 21
32.918923
  0
LINE
  8
型材断面
  6
CONTINUOUS
 10
48.209908
 20
31.423293
 11
50.800415
 21
29.927663
  0
LINE
  8
型材断面
  6
CONTINUOUS
 10
50.800415
 20
29.927663
 11
50.800415
 21
32.918923
  0
LINE
  8
型材断面
  6
CONTINUOUS
 10
28.91311
 20
-4.54017
 11
30.40874
 21
-7.130678
  0
LINE
  8
型材断面
  6
CONTINUOUS
 10
28.91311
 20
-4.54017
 11
27.41748
 21
-7.130678
  0
LINE
  8
型材断面
  6
CONTINUOUS
 10
27.41748
 20
-7.130678
 11
30.40874
 21
-7.130678
  0
LINE
  8
型材断面
  6
CONTINUOUS
 10
28.91311
 20
67.386755
 11
30.40874
 21
69.977262
  0
LINE
  8
型材断面
  6
CONTINUOUS
 10
28.91311
 20
67.386755
 11
27.41748
 21
69.977262
  0
LINE
  8
型材断面
  6
CONTINUOUS
 10
27.41748
 20
69.977262
 11
30.40874
 21
69.977262
  0
LINE
  8
型材断面
  6
CONTINUOUS
 10
-37.753557
 20
-4.54017
 11
-36.257928
 21
-7.130678
  0
LINE
  8
型材断面
  6
CONTINUOUS
 10
-37.753557
 20
-4.54017
 11
-39.249187
 21
-7.130678
  0
LINE
  8
型材断面
  6
CONTINUOUS
 10
-39.249187
 20
-7.130678
 11
-36.257928
 21
-7.130678
  0
LINE
  8
型材断面
  6
CONTINUOUS
 10
-37.753557
 20
67.386755
 11
-36.257928
 21
69.977262
  0
LINE
  8
型材断面
  6
CONTINUOUS
 10
-37.753557
 20
67.386755
 11
-39.249187
 21
69.977262
  0
LINE
  8
型材断面
  6
CONTINUOUS
 10
-39.249187
 20
69.977262
 11
-36.257928
 21
69.977262
  0
LINE
  8
型材断面
  6
CONTINUOUS
 10
-167.961687
 20
99.434867
 11
-121.71991
 21
99.434867
  0
LINE
  8
型材断面
  6
CONTINUOUS
 62
    47
 10
137.979708
 20
67.756668
 11
137.47971
 21
67.756668
  0
LINE
  8
型材断面
  6
CONTINUOUS
 62
    47
 10
137.47971
 20
67.756668
 11
136.98253
 21
64.823337
  0
LINE
  8
型材断面
  6
CONTINUOUS
 62
    47
 10
137.979708
 20
67.256677
 11
138.479708
 21
67.256677
  0
LINE
  8
型材断面
  6
CONTINUOUS
 62
    47
 10
136.98253
 20
64.823337
 11
136.11304
 21
64.823337
  0
LINE
  8
型材断面
  6
CONTINUOUS
 10
136.98253
 20
64.823337
 11
136.98253
 21
31.423293
  0
LINE
  8
型材断面
  6
CONTINUOUS
 10
137.47971
 20
67.756668
 11
137.47971
 21
31.423293
  0
LINE
  8
型材断面
  6
CONTINUOUS
 62
    47
 10
137.979708
 20
67.756668
 11
137.979708
 21
31.423293
  0
LINE
  8
型材断面
  6
CONTINUOUS
 10
138.479708
 20
67.256677
 11
138.479708
 21
31.423293
  0
LINE
  8
型材断面
  6
CONTINUOUS
 62
    47
 10
137.979708
 20
-4.910083
 11
137.47971
 21
-4.910083
  0
LINE
  8
型材断面
  6
CONTINUOUS
 62
    47
 10
137.47971
 20
-4.910083
 11
136.98253
 21
-1.976753
  0
LINE
  8
型材断面
  6
CONTINUOUS
 62
    47
 10
137.979708
 20
-4.410092
 11
138.479708
 21
-4.410092
  0
LINE
  8
型材断面
  6
CONTINUOUS
 62
    47
 10
136.98253
 20
-1.976753
 11
136.11304
 21
-1.976753
  0
LINE
  8
型材断面
  6
CONTINUOUS
 10
136.98253
 20
-1.976753
 11
136.98253
 21
31.423293
  0
LINE
  8
型材断面
  6
CONTINUOUS
 10
137.47971
 20
-4.910083
 11
137.47971
 21
31.423293
  0
LINE
  8
型材断面
  6
CONTINUOUS
 62
    47
 10
137.979708
 20
-4.910083
 11
137.979708
 21
31.423293
  0
LINE
  8
型材断面
  6
CONTINUOUS
 10
138.479708
 20
-4.410092
 11
138.479708
 21
31.423293
  0
LINE
  8
型材断面
  6
CONTINUOUS
 62
    47
 10
48.57982
 20
-82.491265
 11
48.57982
 21
-81.991267
  0
LINE
  8
型材断面
  6
CONTINUOUS
 62
    47
 10
48.57982
 20
-81.991267
 11
45.64649
 21
-81.494088
  0
LINE
  8
型材断面
  6
CONTINUOUS
 62
    47
 10
48.07983
 20
-82.491265
 11
48.07983
 21
-82.991265
  0
LINE
  8
型材断面
  6
CONTINUOUS
 62
    47
 10
45.64649
 20
-81.494088
 11
45.64649
 21
-80.624597
  0
LINE
  8
型材断面
  6
CONTINUOUS
 10
47.646443
 20
-3.97671
 11
48.579775
 21
-4.910045
  0
LINE
  8
型材断面
  6
CONTINUOUS
 10
48.579775
 20
31.423293
 11
48.579775
 21
-4.910045
  0
LINE
  8
型材断面
  6
CONTINUOUS
 10
48.07983
 20
-82.991265
 11
-37.753557
 21
-82.991265
  0
LINE
  8
型材断面
  6
CONTINUOUS
 62
    47
 10
48.57982
 20
-82.491265
 11
-37.753557
 21
-82.491265
  0
LINE
  8
型材断面
  6
CONTINUOUS
 10
48.57982
 20
-81.991267
 11
-37.753557
 21
-81.991267
  0
LINE
  8
型材断面
  6
CONTINUOUS
 10
45.64649
 20
-81.494088
 11
-37.753557
 21
-81.494088
  0
LINE
  8
型材断面
  6
CONTINUOUS
 10
48.579775
 20
-4.910045
 11
-37.753557
 21
-4.910017
  0
LINE
  8
型材断面
  6
CONTINUOUS
 10
47.646443
 20
66.823295
 11
48.579775
 21
67.75663
  0
LINE
  8
型材断面
  6
CONTINUOUS
 10
48.579775
 20
31.423293
 11
48.579775
 21
67.75663
  0
LINE
  8
型材断面
  6
CONTINUOUS
 10
48.579775
 20
67.75663
 11
-37.753557
 21
67.756603
  0
LINE
  8
型材断面
  6
CONTINUOUS
 10
-123.153557
 20
66.823295
 11
-124.08689
 21
67.75663
  0
LINE
  8
型材断面
  6
CONTINUOUS
 10
-124.08689
 20
31.423293
 11
-124.08689
 21
67.75663
  0
LINE
  8
型材断面
  6
CONTINUOUS
 10
-124.08689
 20
67.75663
 11
-37.753557
 21
67.756603
  0
LINE
  8
型材断面
  6
CONTINUOUS
 10
-123.153557
 20
-3.97671
 11
-124.08689
 21
-4.910045
  0
LINE
  8
型材断面
  6
CONTINUOUS
 10
-124.08689
 20
31.423293
 11
-124.08689
 21
-4.910045
  0
LINE
  8
型材断面
  6
CONTINUOUS
 10
-124.08689
 20
-4.910045
 11
-37.753557
 21
-4.910017
  0
LINE
  8
型材断面
  6
CONTINUOUS
 62
    47
 10
-124.086935
 20
-82.491265
 11
-124.086935
 21
-81.991267
  0
LINE
  8
型材断面
  6
CONTINUOUS
 62
    47
 10
-124.086935
 20
-81.991267
 11
-121.153605
 21
-81.494088
  0
LINE
  8
型材断面
  6
CONTINUOUS
 62
    47
 10
-123.586945
 20
-82.491265
 11
-123.586945
 21
-82.991265
  0
LINE
  8
型材断面
  6
CONTINUOUS
 62
    47
 10
-121.153605
 20
-81.494088
 11
-121.153605
 21
-80.624597
  0
LINE
  8
型材断面
  6
CONTINUOUS
 10
-123.586945
 20
-82.991265
 11
-37.753557
 21
-82.991265
  0
LINE
  8
型材断面
  6
CONTINUOUS
 62
    47
 10
-124.086935
 20
-82.491265
 11
-37.753557
 21
-82.491265
  0
LINE
  8
型材断面
  6
CONTINUOUS
 10
-124.086935
 20
-81.991267
 11
-37.753557
 21
-81.991267
  0
LINE
  8
型材断面
  6
CONTINUOUS
 10
-121.153605
 20
-81.494088
 11
-37.753557
 21
-81.494088
  0
TEXT
  7
TextStyle03
  8
文字
  6
CONTINUOUS
 10
113.55
 20
-83.825
  1
網入り6.8t
 40
3.0
 72
     5
 11
130.2375
 21
-83.825
  0
TEXT
  7
TextStyle03
  8
文字
  6
CONTINUOUS
 10
117.15
 20
-88.45
  1
×１０枚
 40
3.0
 72
     5
 11
130.275
 21
-88.45
  0
TEXT
  7
TextStyle03
  8
文字
  6
CONTINUOUS
 10
-159.125
 20
106.85
  1
は排水穴位置を示す
 40
3.0
 72
     5
 11
-129.125
 21
106.85
  0
TEXT
  7
TextStyle03
  8
文字
  6
CONTINUOUS
 10
-159.8
 20
2.025
  1
アンカーピッチ
 40
3.0
 50
90.0
 72
     5
 11
-159.8
 21
25.275
  0
TEXT
  7
TextStyle03
  8
文字
  6
CONTINUOUS
 10
-110.35
 20
102.2
  1
アンカーピッチ
 40
3.0
 72
     5
 11
-87.1
 21
102.2
  0
TEXT
  7
TextStyle03
  8
文字
  6
CONTINUOUS
 10
-162.85
 20
100.325
  1
アンカー数量　２０ヶ所
 40
3.0
 72
     5
 11
-126.1
 21
100.325
  0
TEXT
  7
TextStyle03
  8
文字
  6
CONTINUOUS
 10
78.1
 20
125.25
  1
シリーズ：ＴＤ２ＫＬ
 40
5.0
 72
     5
 11
133.725
 21
125.25
  0
TEXT
  7
TextStyle03
  8
文字
  6
CONTINUOUS
 10
78.1
 20
119.625
  1
　　　　　（固定）2000×5000タイプ
 40
5.0
 72
     5
 11
173.1
 21
119.625
  0
TEXT
  7
TextStyle03
  8
文字
  6
CONTINUOUS
 10
78.1
 20
114.0
  1
図面名　：外観姿図
 40
5.0
 72
     5
 11
128.1
 21
114.0
  0
TEXT
  7
TextStyle03
  8
文字
  6
CONTINUOUS
 10
78.1
 20
108.375
  1
　　　　　　
 40
5.0
 72
     5
 11
111.225
 21
108.375
  0
TEXT
  7
TextStyle03
  8
文字
  6
CONTINUOUS
 10
77.65
 20
104.325
  1
ＮＳコード：ＮＳＫＺＬ
 40
5.0
 72
     5
 11
138.9
 21
104.325
  0
INSERT
  2
*DIM_0002
  8
寸法
  6
CONTINUOUS
 10
0.0
 20
0.0
  0
INSERT
  2
*DIM_0003
  8
寸法
  6
CONTINUOUS
 10
0.0
 20
0.0
  0
INSERT
  2
*DIM_0004
  8
寸法
  6
CONTINUOUS
 10
0.0
 20
0.0
  0
INSERT
  2
*DIM_0005
  8
寸法
  6
CONTINUOUS
 10
0.0
 20
0.0
  0
INSERT
  2
*DIM_0006
  8
寸法
  6
CONTINUOUS
 10
0.0
 20
0.0
  0
INSERT
  2
*DIM_0007
  8
寸法
  6
CONTINUOUS
 10
0.0
 20
0.0
  0
INSERT
  2
*DIM_0009
  8
寸法
  6
CONTINUOUS
 10
0.0
 20
0.0
  0
INSERT
  2
*DIM_0010
  8
寸法
  6
CONTINUOUS
 10
0.0
 20
0.0
  0
INSERT
  2
*DIM_0011
  8
寸法
  6
CONTINUOUS
 10
0.0
 20
0.0
  0
INSERT
  2
*DIM_0012
  8
寸法
  6
CONTINUOUS
 10
0.0
 20
0.0
  0
INSERT
  2
*DIM_0013
  8
寸法
  6
CONTINUOUS
 10
0.0
 20
0.0
  0
INSERT
  2
*DIM_0014
  8
寸法
  6
CONTINUOUS
 10
0.0
 20
0.0
  0
INSERT
  2
*DIM_0015
  8
寸法
  6
CONTINUOUS
 10
0.0
 20
0.0
  0
INSERT
  2
*DIM_0016
  8
寸法
  6
CONTINUOUS
 10
0.0
 20
0.0
  0
INSERT
  2
*DIM_0017
  8
寸法
  6
CONTINUOUS
 10
0.0
 20
0.0
  0
INSERT
  2
*DIM_0018
  8
寸法
  6
CONTINUOUS
 10
0.0
 20
0.0
  0
INSERT
  2
*DIM_0019
  8
寸法
  6
CONTINUOUS
 10
0.0
 20
0.0
  0
INSERT
  2
*DIM_0020
  8
寸法
  6
CONTINUOUS
 10
0.0
 20
0.0
  0
INSERT
  2
*DIM_0021
  8
寸法
  6
CONTINUOUS
 10
0.0
 20
0.0
  0
INSERT
  2
*DIM_0022
  8
寸法
  6
CONTINUOUS
 10
0.0
 20
0.0
  0
INSERT
  2
*DIM_0023
  8
寸法
  6
CONTINUOUS
 10
0.0
 20
0.0
  0
INSERT
  2
*DIM_0024
  8
寸法
  6
CONTINUOUS
 10
0.0
 20
0.0
  0
LINE
  8
別途部材
  6
CONTINUOUS
 10
47.646443
 20
-3.97671
 11
47.246443
 21
-3.57671
  0
LINE
  8
別途部材
  6
CONTINUOUS
 10
45.579775
 20
-1.910042
 11
37.52052
 21
6.149215
  0
LINE
  8
別途部材
  6
CONTINUOUS
 10
47.646443
 20
-3.97671
 11
47.646443
 21
31.423293
  0
LINE
  8
別途部材
  6
CONTINUOUS
 10
47.246443
 20
-3.57671
 11
47.246443
 21
31.423293
  0
LINE
  8
別途部材
  6
CONTINUOUS
 10
47.646443
 20
66.823295
 11
47.246443
 21
66.423295
  0
LINE
  8
別途部材
  6
CONTINUOUS
 10
45.579775
 20
64.756627
 11
37.52052
 21
56.69737
  0
LINE
  8
別途部材
  6
CONTINUOUS
 10
47.646443
 20
66.823295
 11
47.646443
 21
31.423293
  0
LINE
  8
別途部材
  6
CONTINUOUS
 10
47.246443
 20
66.423295
 11
47.246443
 21
31.423293
  0
LINE
  8
別途部材
  6
CONTINUOUS
 10
47.246443
 20
-3.57671
 11
-37.753557
 21
-3.57671
  0
LINE
  8
別途部材
  6
CONTINUOUS
 10
47.646443
 20
-3.97671
 11
-37.753557
 21
-3.97671
  0
LINE
  8
別途部材
  6
CONTINUOUS
 10
47.246443
 20
66.423295
 11
-37.753557
 21
66.423295
  0
LINE
  8
別途部材
  6
CONTINUOUS
 10
47.646443
 20
66.823295
 11
-37.753557
 21
66.823295
  0
LINE
  8
別途部材
  6
CONTINUOUS
 10
-123.153557
 20
-3.97671
 11
-122.753557
 21
-3.57671
  0
LINE
  8
別途部材
  6
CONTINUOUS
 10
-121.08689
 20
-1.910042
 11
-113.027635
 21
6.149215
  0
LINE
  8
別途部材
  6
CONTINUOUS
 10
-123.153557
 20
-3.97671
 11
-123.153557
 21
31.423293
  0
LINE
  8
別途部材
  6
CONTINUOUS
 10
-122.753557
 20
-3.57671
 11
-122.753557
 21
31.423293
  0
LINE
  8
別途部材
  6
CONTINUOUS
 10
-123.153557
 20
66.823295
 11
-122.753557
 21
66.423295
  0
LINE
  8
別途部材
  6
CONTINUOUS
 10
-121.08689
 20
64.756627
 11
-113.027635
 21
56.69737
  0
LINE
  8
別途部材
  6
CONTINUOUS
 10
-123.153557
 20
66.823295
 11
-123.153557
 21
31.423293
  0
LINE
  8
別途部材
  6
CONTINUOUS
 10
-122.753557
 20
66.423295
 11
-122.753557
 21
31.423293
  0
LINE
  8
別途部材
  6
CONTINUOUS
 10
-122.753557
 20
-3.57671
 11
-37.753557
 21
-3.57671
  0
LINE
  8
別途部材
  6
CONTINUOUS
 10
-123.153557
 20
-3.97671
 11
-37.753557
 21
-3.97671
  0
LINE
  8
別途部材
  6
CONTINUOUS
 10
-122.753557
 20
66.423295
 11
-37.753557
 21
66.423295
  0
LINE
  8
別途部材
  6
CONTINUOUS
 10
-123.153557
 20
66.823295
 11
-37.753557
 21
66.823295
  0
INSERT
  2
*GRP_0008
  8
別途部材
  6
CONTINUOUS
 10
0.0
 20
0.0
  0
LINE
  8
別途部材
  6
CONTINUOUS
 62
    96
 10
135.11304
 20
-3.57671
 11
136.11304
 21
-3.97671
  0
ARC
  8
別途部材
  6
CONTINUOUS
 10
160.113036
 20
31.42329
 40
41.666665
 50
180.0
 51
233.130105
  0
ARC
  8
別途部材
  6
CONTINUOUS
 10
160.113036
 20
31.423291
 40
41.666665
 50
126.869895
 51
180.0
  0
LINE
  8
別途部材
  6
CONTINUOUS
 10
136.11304
 20
-3.97671
 11
136.11304
 21
31.42329
  0
LINE
  8
別途部材
  6
CONTINUOUS
 62
    96
 10
135.11304
 20
-3.57671
 11
135.11304
 21
31.42329
  0
LINE
  8
別途部材
  6
CONTINUOUS
 62
    96
 10
135.11304
 20
66.42329
 11
136.11304
 21
66.82329
  0
LINE
  8
別途部材
  6
CONTINUOUS
 10
136.11304
 20
66.82329
 11
136.11304
 21
31.42329
  0
LINE
  8
別途部材
  6
CONTINUOUS
 62
    96
 10
135.11304
 20
66.42329
 11
135.11304
 21
31.42329
  0
INSERT
  2
*GRP_0025
  8
別途部材
  6
DOT
 10
0.0
 20
0.0
  0
INSERT
  2
*GRP_0026
  8
別途部材
  6
DOT
 10
0.0
 20
0.0
  0
INSERT
  2
*GRP_0027
  8
別途部材
  6
DOT
 10
0.0
 20
0.0
  0
INSERT
  2
*GRP_0028
  8
別途部材
  6
DOT
 10
0.0
 20
0.0
  0
LINE
  8
曲げ物
  6
CONTINUOUS
 10
133.229935
 20
-90.759512
 11
100.883267
 21
-90.759512
  0
LINE
  8
曲げ物
  6
CONTINUOUS
 10
100.883267
 20
-90.759512
 11
100.883267
 21
-58.292845
  0
LINE
  8
曲げ物
  6
CONTINUOUS
 10
100.883267
 20
-58.292845
 11
133.229935
 21
-58.292845
  0
LINE
  8
曲げ物
  6
CONTINUOUS
 10
133.229935
 20
-90.759512
 11
133.229935
 21
-58.292845
  0
CIRCLE
  8
LAYER010
  6
CONTINUOUS
 62
     7
 10
137.47971
 20
67.756668
 40
0.011113
  0
CIRCLE
  8
LAYER010
  6
CONTINUOUS
 62
     7
 10
137.47971
 20
67.756668
 40
0.011113
  0
CIRCLE
  8
LAYER010
  6
CONTINUOUS
 62
     7
 10
137.47971
 20
-4.910083
 40
0.011113
  0
CIRCLE
  8
LAYER010
  6
CONTINUOUS
 62
     7
 10
137.47971
 20
-4.910083
 40
0.011113
  0
CIRCLE
  8
LAYER010
  6
CONTINUOUS
 62
     7
 10
48.57982
 20
-81.991267
 40
0.011113
  0
CIRCLE
  8
LAYER010
  6
CONTINUOUS
 62
     7
 10
48.57982
 20
-81.991267
 40
0.011113
  0
CIRCLE
  8
LAYER010
  6
CONTINUOUS
 62
     7
 10
-124.086935
 20
-81.991267
 40
0.011113
  0
CIRCLE
  8
LAYER010
  6
CONTINUOUS
 62
     7
 10
-124.086935
 20
-81.991267
 40
0.011113
  0
ENDSEC
  0
EOF
