  0
SECTION
  2
HEADER
  9
$EXTMIN
 10
-210.0
 20
-148.5
  9
$EXTMAX
 10
210.0
 20
148.5
  9
$PDMODE
 70
    32
  9
$PDSIZE
 40
1.5
  9
$LTSCALE
 40
10.0
  0
ENDSEC
  0
SECTION
  2
TABLES
  0
TABLE
  2
LTYPE
 70
    15
  0
LTYPE
  2
CONTINUOUS
 70
    64
  3
実線
 72
    65
 73
     0
 40
0.0
  0
LTYPE
  2
DASHED
 70
    64
  3
破線A
 72
    65
 73
     2
 40
0.6
 49
0.4
 49
-0.2
  0
LTYPE
  2
DASHEDX2
 70
    64
  3
破線B
 72
    65
 73
     2
 40
1.3
 49
0.9
 49
-0.4
  0
LTYPE
  2
DASHDOT
 70
    64
  3
１点鎖線A
 72
    65
 73
     4
 40
0.5375
 49
0.375
 49
-0.05
 49
0.0625
 49
-0.05
  0
LTYPE
  2
DASHDOTX2
 70
    64
  3
１点鎖線B
 72
    65
 73
     4
 40
1.075
 49
0.75
 49
-0.1
 49
0.125
 49
-0.1
  0
LTYPE
  2
DIVIDE2
 70
    64
  3
２点鎖線A
 72
    65
 73
     6
 40
0.5125
 49
0.3
 49
-0.0375
 49
0.05
 49
-0.0375
 49
0.05
 49
-0.0375
  0
LTYPE
  2
DIVIDE
 70
    64
  3
２点鎖線B
 72
    65
 73
     6
 40
1.05
 49
0.55
 49
-0.1
 49
0.1
 49
-0.1
 49
0.1
 49
-0.1
  0
LTYPE
  2
DOT
 70
    64
  3
点線A
 72
    65
 73
     2
 40
0.1125
 49
0.0625
 49
-0.05
  0
LTYPE
  2
DOTX2
 70
    64
  3
点線B
 72
    65
 73
     2
 40
0.275
 49
0.15
 49
-0.125
  0
LTYPE
  2
CONTINUOUS
 70
    64
  3
実線
 72
    65
 73
     0
 40
0.0
  0
LTYPE
  2
CONTINUOUS
 70
    64
  3
実線
 72
    65
 73
     0
 40
0.0
  0
LTYPE
  2
CONTINUOUS
 70
    64
  3
実線
 72
    65
 73
     0
 40
0.0
  0
LTYPE
  2
CONTINUOUS
 70
    64
  3
実線
 72
    65
 73
     0
 40
0.0
  0
LTYPE
  2
CONTINUOUS
 70
    64
  3
実線
 72
    65
 73
     0
 40
0.0
  0
LTYPE
  2
CONTINUOUS
 70
    64
  3
実線
 72
    65
 73
     0
 40
0.0
  0
ENDTAB
  0
TABLE
  2
LAYER
 70
    35
  0
LAYER
  2
通り芯
 70
     0
 62
    15
  6
CONTINUOUS
  0
LAYER
  2
補助線
 70
     0
 62
    16
  6
DOT
  0
LAYER
  2
躯体
 70
     0
 62
    31
  6
CONTINUOUS
  0
LAYER
  2
型材
 70
     0
 62
    32
  6
CONTINUOUS
  0
LAYER
  2
型材断面
 70
     0
 62
    47
  6
CONTINUOUS
  0
LAYER
  2
ガラス
 70
     0
 62
    48
  6
CONTINUOUS
  0
LAYER
  2
ゴム等
 70
     0
 62
    63
  6
CONTINUOUS
  0
LAYER
  2
ボルト／ビス
 70
     0
 62
    64
  6
CONTINUOUS
  0
LAYER
  2
文字
 70
     0
 62
    79
  6
CONTINUOUS
  0
LAYER
  2
寸法
 70
     0
 62
    80
  6
CONTINUOUS
  0
LAYER
  2
ﾊｯﾁﾝｸﾞ
 70
     0
 62
    95
  6
CONTINUOUS
  0
LAYER
  2
別途部材
 70
     0
 62
    96
  6
CONTINUOUS
  0
LAYER
  2
曲げ物
 70
     0
 62
   111
  6
CONTINUOUS
  0
LAYER
  2
鉄骨等
 70
     0
 62
   112
  6
CONTINUOUS
  0
LAYER
  2
St
 70
     0
 62
   127
  6
CONTINUOUS
  0
LAYER
  2
その他部品等
 70
     0
 62
   128
  6
CONTINUOUS
  0
LAYER
  2
ｶﾞｽｹｯﾄ
 70
     0
 62
   143
  6
CONTINUOUS
  0
LAYER
  2
ｽｹｯﾁ
 70
     0
 62
    14
  6
CONTINUOUS
  0
LAYER
  2
0
 70
     0
 62
    17
  6
CONTINUOUS
  0
LAYER
  2
1
 70
     0
 62
    30
  6
CONTINUOUS
  0
LAYER
  2
4
 70
     0
 62
    33
  6
CONTINUOUS
  0
LAYER
  2
ﾚｲﾔ3
 70
     0
 62
    46
  6
CONTINUOUS
  0
LAYER
  2
外形線
 70
     0
 62
    49
  6
CONTINUOUS
  0
LAYER
  2
部品
 70
     0
 62
    14
  6
CONTINUOUS
  0
LAYER
  2
サッシ芯
 70
     0
 62
    17
  6
DASHDOTX2
  0
LAYER
  2
寸法線
 70
     0
 62
    62
  6
CONTINUOUS
  0
LAYER
  2
姿図外形線
 70
     0
 62
    65
  6
CONTINUOUS
  0
LAYER
  2
姿補助線
 70
     0
 62
    30
  6
CONTINUOUS
  0
LAYER
  2
透視線
 70
     0
 62
    78
  6
DOT
  0
LAYER
  2
用紙
 70
     0
 62
    81
  6
CONTINUOUS
  0
LAYER
  2
実線図枠
 70
     0
 62
    94
  6
CONTINUOUS
  0
LAYER
  2
補助図枠
 70
     0
 62
    97
  6
CONTINUOUS
  0
LAYER
  2
建具記号
 70
     0
 62
   110
  6
CONTINUOUS
  0
LAYER
  2
補助文字
 70
     0
 62
   113
  6
CONTINUOUS
  0
LAYER
  2
LAYER010
 70
     0
 62
    11
  6
CONTINUOUS
  0
ENDTAB
  0
TABLE
  2
STYLE
 70
    10
  0
STYLE
  2
STANDARD
 70
     0
 40
1.0
 41
1.0
 42
1.0
 50
0.0
 71
     0
  3
TXT
  4
BIGFONT
  0
STYLE
  2
TATE
 70
     4
 40
1.0
 41
1.0
 42
1.0
 50
0.0
 71
     0
  3
TXT
  4
BIGFONT
  0
STYLE
  2
TextStyle03
 70
     0
 40
1.0
 41
1.0
 42
1.0
 50
0.0
 71
     0
  3
MONOTXT
  4
BIGFONT
  0
STYLE
  2
TextStyle04
 70
     0
 40
1.0
 41
1.0
 42
1.0
 50
0.0
 71
     0
  3
MONOTXT
  4
BIGFONT
  0
STYLE
  2
TextStyle05
 70
     0
 40
1.0
 41
1.0
 42
1.0
 50
0.0
 71
     0
  3
MONOTXT
  4
BIGFONT
  0
STYLE
  2
TextStyle06
 70
     0
 40
1.0
 41
1.0
 42
1.0
 50
0.0
 71
     0
  3
MONOTXT
  4
BIGFONT
  0
STYLE
  2
TextStyle07
 70
     0
 40
1.0
 41
1.0
 42
1.0
 50
0.0
 71
     0
  3
MONOTXT
  4
BIGFONT
  0
STYLE
  2
TextStyle08
 70
     0
 40
1.0
 41
1.0
 42
1.0
 50
0.0
 71
     0
  3
MONOTXT
  4
BIGFONT
  0
STYLE
  2
TextStyle09
 70
     0
 40
1.0
 41
1.0
 42
1.0
 50
0.0
 71
     0
  3
MONOTXT
  4
BIGFONT
  0
STYLE
  2
TextStyle10
 70
     0
 40
1.0
 41
1.0
 42
1.0
 50
0.0
 71
     0
  3
MONOTXT
  4
BIGFONT
  0
ENDTAB
  0
ENDSEC
  0
SECTION
  2
BLOCKS
  0
BLOCK
  2
*GRP_0001
 70
    65
 10
0.0
 20
0.0
  0
LINE
  8
型材断面
  6
CONTINUOUS
 10
195.0
 20
133.5
 11
195.0
 21
-133.5
  0
LINE
  8
型材断面
  6
CONTINUOUS
 10
195.0
 20
-133.5
 11
-185.0
 21
-133.5
  0
LINE
  8
型材断面
  6
CONTINUOUS
 10
-185.0
 20
-133.5
 11
-185.0
 21
133.5
  0
LINE
  8
型材断面
  6
CONTINUOUS
 10
195.0
 20
133.5
 11
-185.0
 21
133.5
  0
LINE
  8
型材断面
  6
CONTINUOUS
 10
145.0
 20
-133.5
 11
145.0
 21
-118.5
  0
LINE
  8
型材断面
  6
CONTINUOUS
 10
195.0
 20
-118.5
 11
145.0
 21
-118.5
  0
ENDBLK
  0
BLOCK
  2
*DIM_0002
 70
    65
 10
0.0
 20
0.0
  0
LINE
  8
寸法
  6
BYBLOCK
 62
     0
 10
38.923675
 20
-62.95793
 11
87.226657
 21
-62.95793
  0
LINE
  8
寸法
  6
BYBLOCK
 62
     0
 10
87.226657
 20
-79.624597
 11
87.226657
 21
-62.95793
  0
POINT
  8
寸法
 62
     0
 10
87.226657
 20
-62.95793
  0
TEXT
  7
TextStyle03
  8
寸法
  6
CONTINUOUS
 62
     0
 10
86.85
 20
-73.7375
  1
500
 40
3.0
 50
90.0
 72
     5
 11
86.85
 21
-68.8625
  0
ENDBLK
  0
BLOCK
  2
*DIM_0003
 70
    65
 10
0.0
 20
0.0
  0
LINE
  8
寸法
  6
BYBLOCK
 62
     0
 10
125.470468
 20
-50.979363
 11
125.470468
 21
-43.473515
  0
LINE
  8
寸法
  6
BYBLOCK
 62
     0
 10
161.150468
 20
-50.979363
 11
161.150468
 21
-43.473515
  0
LINE
  8
寸法
  6
BYBLOCK
 62
     0
 10
125.470468
 20
-43.473515
 11
161.150468
 21
-43.473515
  0
POINT
  8
寸法
 62
     0
 10
125.470468
 20
-43.473515
  0
POINT
  8
寸法
 62
     0
 10
161.150468
 20
-43.473515
  0
TEXT
  7
TextStyle03
  8
寸法
  6
CONTINUOUS
 62
     0
 10
138.33125
 20
-43.1
  1
1070.4
 40
3.0
 72
     5
 11
148.26875
 21
-43.1
  0
ENDBLK
  0
BLOCK
  2
*DIM_0004
 70
    65
 10
0.0
 20
0.0
  0
LINE
  8
寸法
  6
BYBLOCK
 62
     0
 10
162.150468
 20
-51.979363
 11
169.721265
 21
-51.979363
  0
LINE
  8
寸法
  6
BYBLOCK
 62
     0
 10
162.150468
 20
-84.44603
 11
169.721265
 21
-84.44603
  0
LINE
  8
寸法
  6
BYBLOCK
 62
     0
 10
169.721265
 20
-51.979363
 11
169.721265
 21
-84.44603
  0
POINT
  8
寸法
 62
     0
 10
169.721265
 20
-51.979363
  0
POINT
  8
寸法
 62
     0
 10
169.721265
 20
-84.44603
  0
TEXT
  7
TextStyle03
  8
寸法
  6
CONTINUOUS
 62
     0
 10
169.325
 20
-70.6625
  1
974
 40
3.0
 50
90.0
 72
     5
 11
169.325
 21
-65.7875
  0
ENDBLK
  0
BLOCK
  2
*DIM_0005
 70
    65
 10
0.0
 20
0.0
  0
LINE
  8
寸法
  6
BYBLOCK
 62
     0
 10
-112.076325
 20
-23.142105
 11
71.257007
 21
-23.142105
  0
POINT
  8
寸法
 62
     0
 10
-112.076325
 20
-23.142105
  0
POINT
  8
寸法
 62
     0
 10
71.257007
 20
-23.142105
  0
TEXT
  7
TextStyle03
  8
寸法
  6
CONTINUOUS
 62
     0
 10
-32.14375
 20
-22.775
  1
呼称寸法　5500
 40
3.0
 72
     5
 11
-8.70625
 21
-22.775
  0
ENDBLK
  0
BLOCK
  2
*DIM_0006
 70
    65
 10
0.0
 20
0.0
  0
LINE
  8
寸法
  6
BYBLOCK
 62
     0
 10
-95.409657
 20
-5.54017
 11
-95.409657
 21
-10.650658
  0
LINE
  8
寸法
  6
BYBLOCK
 62
     0
 10
-20.40966
 20
-5.54017
 11
-20.40966
 21
-10.650658
  0
LINE
  8
寸法
  6
BYBLOCK
 62
     0
 10
-95.409657
 20
-10.650658
 11
-20.40966
 21
-10.650658
  0
POINT
  8
寸法
 62
     0
 10
-95.409657
 20
-10.650658
  0
POINT
  8
寸法
 62
     0
 10
-20.40966
 20
-10.650658
  0
TEXT
  7
TextStyle03
  8
寸法
  6
CONTINUOUS
 62
     0
 10
-61.20625
 20
-10.3
  1
2250
 40
3.0
 72
     5
 11
-54.64375
 21
-10.3
  0
ENDBLK
  0
BLOCK
  2
*DIM_0007
 70
    65
 10
0.0
 20
0.0
  0
LINE
  8
寸法
  6
BYBLOCK
 62
     0
 10
54.590337
 20
-5.54017
 11
54.590337
 21
-10.650658
  0
LINE
  8
寸法
  6
BYBLOCK
 62
     0
 10
-20.40966
 20
-10.650658
 11
54.590337
 21
-10.650658
  0
POINT
  8
寸法
 62
     0
 10
54.590337
 20
-10.650658
  0
TEXT
  7
TextStyle03
  8
寸法
  6
CONTINUOUS
 62
     0
 10
13.79375
 20
-10.3
  1
2250
 40
3.0
 72
     5
 11
20.35625
 21
-10.3
  0
ENDBLK
  0
BLOCK
  2
*GRP_0008
 70
    65
 10
0.0
 20
0.0
  0
LINE
  8
別途部材
  6
CONTINUOUS
 62
    96
 10
-113.742993
 20
-79.624597
 11
-114.142993
 21
-80.624597
  0
LINE
  8
別途部材
  6
CONTINUOUS
 62
    96
 10
-113.742993
 20
-79.624597
 11
-20.409657
 21
-79.624597
  0
LINE
  8
別途部材
  6
CONTINUOUS
 10
-114.142993
 20
-80.624597
 11
-20.409657
 21
-80.624597
  0
LINE
  8
別途部材
  6
CONTINUOUS
 10
-20.909657
 20
-79.624597
 11
-20.909657
 21
-61.95793
  0
LINE
  8
別途部材
  6
CONTINUOUS
 10
-23.909657
 20
-79.624597
 11
-23.909657
 21
-61.95793
  0
LINE
  8
別途部材
  6
CONTINUOUS
 10
-20.909657
 20
-61.95793
 11
-21.909657
 21
-62.95793
  0
LINE
  8
別途部材
  6
CONTINUOUS
 10
-24.909657
 20
-79.624597
 11
-24.909657
 21
-61.95793
  0
LINE
  8
別途部材
  6
CONTINUOUS
 10
-22.909657
 20
-62.95793
 11
-23.909657
 21
-61.95793
  0
LINE
  8
別途部材
  6
CONTINUOUS
 10
-24.909657
 20
-61.95793
 11
-25.909657
 21
-62.95793
  0
LINE
  8
別途部材
  6
CONTINUOUS
 10
-23.909657
 20
-61.95793
 11
-24.909657
 21
-61.95793
  0
LINE
  8
別途部材
  6
CONTINUOUS
 10
-20.909657
 20
-61.95793
 11
-20.409657
 21
-61.95793
  0
LINE
  8
別途部材
  6
CONTINUOUS
 10
-26.909657
 20
-62.95793
 11
-27.909657
 21
-61.95793
  0
LINE
  8
別途部材
  6
CONTINUOUS
 10
-28.909657
 20
-61.95793
 11
-29.909657
 21
-62.95793
  0
LINE
  8
別途部材
  6
CONTINUOUS
 10
-27.909657
 20
-61.95793
 11
-28.909657
 21
-61.95793
  0
LINE
  8
別途部材
  6
CONTINUOUS
 10
-22.909657
 20
-79.624597
 11
-22.909657
 21
-62.95793
  0
LINE
  8
別途部材
  6
CONTINUOUS
 10
-25.909657
 20
-79.624597
 11
-25.909657
 21
-62.95793
  0
LINE
  8
別途部材
  6
CONTINUOUS
 10
-26.909657
 20
-79.624597
 11
-26.909657
 21
-62.95793
  0
LINE
  8
別途部材
  6
CONTINUOUS
 10
-27.909657
 20
-79.624597
 11
-27.909657
 21
-61.95793
  0
LINE
  8
別途部材
  6
CONTINUOUS
 10
-28.909657
 20
-79.624597
 11
-28.909657
 21
-61.95793
  0
LINE
  8
別途部材
  6
CONTINUOUS
 10
-29.909657
 20
-79.624597
 11
-29.909657
 21
-62.95793
  0
LINE
  8
別途部材
  6
CONTINUOUS
 10
-30.909657
 20
-62.95793
 11
-31.909657
 21
-61.95793
  0
LINE
  8
別途部材
  6
CONTINUOUS
 10
-32.909657
 20
-61.95793
 11
-33.909657
 21
-62.95793
  0
LINE
  8
別途部材
  6
CONTINUOUS
 10
-31.909657
 20
-61.95793
 11
-32.909657
 21
-61.95793
  0
LINE
  8
別途部材
  6
CONTINUOUS
 10
-30.909657
 20
-79.624597
 11
-30.909657
 21
-62.95793
  0
LINE
  8
別途部材
  6
CONTINUOUS
 10
-31.909657
 20
-79.624597
 11
-31.909657
 21
-61.95793
  0
LINE
  8
別途部材
  6
CONTINUOUS
 10
-32.909657
 20
-79.624597
 11
-32.909657
 21
-61.95793
  0
LINE
  8
別途部材
  6
CONTINUOUS
 10
-33.909657
 20
-79.624597
 11
-33.909657
 21
-62.95793
  0
LINE
  8
別途部材
  6
CONTINUOUS
 10
-35.909657
 20
-79.624597
 11
-35.909657
 21
-61.95793
  0
LINE
  8
別途部材
  6
CONTINUOUS
 10
-36.909657
 20
-79.624597
 11
-36.909657
 21
-61.95793
  0
LINE
  8
別途部材
  6
CONTINUOUS
 10
-34.909657
 20
-62.95793
 11
-35.909657
 21
-61.95793
  0
LINE
  8
別途部材
  6
CONTINUOUS
 10
-36.909657
 20
-61.95793
 11
-37.909657
 21
-62.95793
  0
LINE
  8
別途部材
  6
CONTINUOUS
 10
-35.909657
 20
-61.95793
 11
-36.909657
 21
-61.95793
  0
LINE
  8
別途部材
  6
CONTINUOUS
 10
-38.909657
 20
-62.95793
 11
-39.909657
 21
-61.95793
  0
LINE
  8
別途部材
  6
CONTINUOUS
 10
-40.909657
 20
-61.95793
 11
-41.909657
 21
-62.95793
  0
LINE
  8
別途部材
  6
CONTINUOUS
 10
-39.909657
 20
-61.95793
 11
-40.909657
 21
-61.95793
  0
LINE
  8
別途部材
  6
CONTINUOUS
 10
-34.909657
 20
-79.624597
 11
-34.909657
 21
-62.95793
  0
LINE
  8
別途部材
  6
CONTINUOUS
 10
-37.909657
 20
-79.624597
 11
-37.909657
 21
-62.95793
  0
LINE
  8
別途部材
  6
CONTINUOUS
 10
-38.909657
 20
-79.624597
 11
-38.909657
 21
-62.95793
  0
LINE
  8
別途部材
  6
CONTINUOUS
 10
-39.909657
 20
-79.624597
 11
-39.909657
 21
-61.95793
  0
LINE
  8
別途部材
  6
CONTINUOUS
 10
-40.909657
 20
-79.624597
 11
-40.909657
 21
-61.95793
  0
LINE
  8
別途部材
  6
CONTINUOUS
 10
-41.909657
 20
-79.624597
 11
-41.909657
 21
-62.95793
  0
LINE
  8
別途部材
  6
CONTINUOUS
 10
-42.909657
 20
-62.95793
 11
-43.909657
 21
-61.95793
  0
LINE
  8
別途部材
  6
CONTINUOUS
 10
-44.909657
 20
-61.95793
 11
-45.909657
 21
-62.95793
  0
LINE
  8
別途部材
  6
CONTINUOUS
 10
-43.909657
 20
-61.95793
 11
-44.909657
 21
-61.95793
  0
LINE
  8
別途部材
  6
CONTINUOUS
 10
-42.909657
 20
-79.624597
 11
-42.909657
 21
-62.95793
  0
LINE
  8
別途部材
  6
CONTINUOUS
 10
-43.909657
 20
-79.624597
 11
-43.909657
 21
-61.95793
  0
LINE
  8
別途部材
  6
CONTINUOUS
 10
-44.909657
 20
-79.624597
 11
-44.909657
 21
-61.95793
  0
LINE
  8
別途部材
  6
CONTINUOUS
 10
-45.909657
 20
-79.624597
 11
-45.909657
 21
-62.95793
  0
LINE
  8
別途部材
  6
CONTINUOUS
 10
-47.909657
 20
-79.624597
 11
-47.909657
 21
-61.95793
  0
LINE
  8
別途部材
  6
CONTINUOUS
 10
-48.909657
 20
-79.624597
 11
-48.909657
 21
-61.95793
  0
LINE
  8
別途部材
  6
CONTINUOUS
 10
-46.909657
 20
-62.95793
 11
-47.909657
 21
-61.95793
  0
LINE
  8
別途部材
  6
CONTINUOUS
 10
-48.909657
 20
-61.95793
 11
-49.909657
 21
-62.95793
  0
LINE
  8
別途部材
  6
CONTINUOUS
 10
-47.909657
 20
-61.95793
 11
-48.909657
 21
-61.95793
  0
LINE
  8
別途部材
  6
CONTINUOUS
 10
-50.909657
 20
-62.95793
 11
-51.909657
 21
-61.95793
  0
LINE
  8
別途部材
  6
CONTINUOUS
 10
-52.909657
 20
-61.95793
 11
-53.909657
 21
-62.95793
  0
LINE
  8
別途部材
  6
CONTINUOUS
 10
-51.909657
 20
-61.95793
 11
-52.909657
 21
-61.95793
  0
LINE
  8
別途部材
  6
CONTINUOUS
 10
-46.909657
 20
-79.624597
 11
-46.909657
 21
-62.95793
  0
LINE
  8
別途部材
  6
CONTINUOUS
 10
-49.909657
 20
-79.624597
 11
-49.909657
 21
-62.95793
  0
LINE
  8
別途部材
  6
CONTINUOUS
 10
-50.909657
 20
-79.624597
 11
-50.909657
 21
-62.95793
  0
LINE
  8
別途部材
  6
CONTINUOUS
 10
-51.909657
 20
-79.624597
 11
-51.909657
 21
-61.95793
  0
LINE
  8
別途部材
  6
CONTINUOUS
 10
-52.909657
 20
-79.624597
 11
-52.909657
 21
-61.95793
  0
LINE
  8
別途部材
  6
CONTINUOUS
 10
-53.909657
 20
-79.624597
 11
-53.909657
 21
-62.95793
  0
LINE
  8
別途部材
  6
CONTINUOUS
 10
-54.909657
 20
-62.95793
 11
-55.909657
 21
-61.95793
  0
LINE
  8
別途部材
  6
CONTINUOUS
 10
-56.909657
 20
-61.95793
 11
-57.909657
 21
-62.95793
  0
LINE
  8
別途部材
  6
CONTINUOUS
 10
-55.909657
 20
-61.95793
 11
-56.909657
 21
-61.95793
  0
LINE
  8
別途部材
  6
CONTINUOUS
 10
-54.909657
 20
-79.624597
 11
-54.909657
 21
-62.95793
  0
LINE
  8
別途部材
  6
CONTINUOUS
 10
-55.909657
 20
-79.624597
 11
-55.909657
 21
-61.95793
  0
LINE
  8
別途部材
  6
CONTINUOUS
 10
-56.909657
 20
-79.624597
 11
-56.909657
 21
-61.95793
  0
LINE
  8
別途部材
  6
CONTINUOUS
 10
-57.909657
 20
-79.624597
 11
-57.909657
 21
-62.95793
  0
LINE
  8
別途部材
  6
CONTINUOUS
 10
-59.909657
 20
-79.624597
 11
-59.909657
 21
-61.95793
  0
LINE
  8
別途部材
  6
CONTINUOUS
 10
-60.909657
 20
-79.624597
 11
-60.909657
 21
-61.95793
  0
LINE
  8
別途部材
  6
CONTINUOUS
 10
-58.909657
 20
-62.95793
 11
-59.909657
 21
-61.95793
  0
LINE
  8
別途部材
  6
CONTINUOUS
 10
-60.909657
 20
-61.95793
 11
-61.909657
 21
-62.95793
  0
LINE
  8
別途部材
  6
CONTINUOUS
 10
-59.909657
 20
-61.95793
 11
-60.909657
 21
-61.95793
  0
LINE
  8
別途部材
  6
CONTINUOUS
 10
-62.909657
 20
-62.95793
 11
-63.909657
 21
-61.95793
  0
LINE
  8
別途部材
  6
CONTINUOUS
 10
-64.909657
 20
-61.95793
 11
-65.909657
 21
-62.95793
  0
LINE
  8
別途部材
  6
CONTINUOUS
 10
-63.909657
 20
-61.95793
 11
-64.909657
 21
-61.95793
  0
LINE
  8
別途部材
  6
CONTINUOUS
 10
-58.909657
 20
-79.624597
 11
-58.909657
 21
-62.95793
  0
LINE
  8
別途部材
  6
CONTINUOUS
 10
-61.909657
 20
-79.624597
 11
-61.909657
 21
-62.95793
  0
LINE
  8
別途部材
  6
CONTINUOUS
 10
-62.909657
 20
-79.624597
 11
-62.909657
 21
-62.95793
  0
LINE
  8
別途部材
  6
CONTINUOUS
 10
-63.909657
 20
-79.624597
 11
-63.909657
 21
-61.95793
  0
LINE
  8
別途部材
  6
CONTINUOUS
 10
-64.909657
 20
-79.624597
 11
-64.909657
 21
-61.95793
  0
LINE
  8
別途部材
  6
CONTINUOUS
 10
-65.909657
 20
-79.624597
 11
-65.909657
 21
-62.95793
  0
LINE
  8
別途部材
  6
CONTINUOUS
 10
-66.909657
 20
-62.95793
 11
-67.909657
 21
-61.95793
  0
LINE
  8
別途部材
  6
CONTINUOUS
 10
-68.909657
 20
-61.95793
 11
-69.909657
 21
-62.95793
  0
LINE
  8
別途部材
  6
CONTINUOUS
 10
-67.909657
 20
-61.95793
 11
-68.909657
 21
-61.95793
  0
LINE
  8
別途部材
  6
CONTINUOUS
 10
-66.909657
 20
-79.624597
 11
-66.909657
 21
-62.95793
  0
LINE
  8
別途部材
  6
CONTINUOUS
 10
-67.909657
 20
-79.624597
 11
-67.909657
 21
-61.95793
  0
LINE
  8
別途部材
  6
CONTINUOUS
 10
-68.909657
 20
-79.624597
 11
-68.909657
 21
-61.95793
  0
LINE
  8
別途部材
  6
CONTINUOUS
 10
-69.909657
 20
-79.624597
 11
-69.909657
 21
-62.95793
  0
LINE
  8
別途部材
  6
CONTINUOUS
 10
-71.909657
 20
-79.624597
 11
-71.909657
 21
-61.95793
  0
LINE
  8
別途部材
  6
CONTINUOUS
 10
-72.909657
 20
-79.624597
 11
-72.909657
 21
-61.95793
  0
LINE
  8
別途部材
  6
CONTINUOUS
 10
-70.909657
 20
-62.95793
 11
-71.909657
 21
-61.95793
  0
LINE
  8
別途部材
  6
CONTINUOUS
 10
-72.909657
 20
-61.95793
 11
-73.909657
 21
-62.95793
  0
LINE
  8
別途部材
  6
CONTINUOUS
 10
-71.909657
 20
-61.95793
 11
-72.909657
 21
-61.95793
  0
LINE
  8
別途部材
  6
CONTINUOUS
 10
-74.909657
 20
-62.95793
 11
-75.909657
 21
-61.95793
  0
LINE
  8
別途部材
  6
CONTINUOUS
 10
-76.909657
 20
-61.95793
 11
-77.909657
 21
-62.95793
  0
LINE
  8
別途部材
  6
CONTINUOUS
 10
-75.909657
 20
-61.95793
 11
-76.909657
 21
-61.95793
  0
LINE
  8
別途部材
  6
CONTINUOUS
 10
-70.909657
 20
-79.624597
 11
-70.909657
 21
-62.95793
  0
LINE
  8
別途部材
  6
CONTINUOUS
 10
-73.909657
 20
-79.624597
 11
-73.909657
 21
-62.95793
  0
LINE
  8
別途部材
  6
CONTINUOUS
 10
-74.909657
 20
-79.624597
 11
-74.909657
 21
-62.95793
  0
LINE
  8
別途部材
  6
CONTINUOUS
 10
-75.909657
 20
-79.624597
 11
-75.909657
 21
-61.95793
  0
LINE
  8
別途部材
  6
CONTINUOUS
 10
-76.909657
 20
-79.624597
 11
-76.909657
 21
-61.95793
  0
LINE
  8
別途部材
  6
CONTINUOUS
 10
-77.909657
 20
-79.624597
 11
-77.909657
 21
-62.95793
  0
LINE
  8
別途部材
  6
CONTINUOUS
 10
-73.909657
 20
-62.95793
 11
-74.909657
 21
-62.95793
  0
LINE
  8
別途部材
  6
CONTINUOUS
 10
-69.909657
 20
-62.95793
 11
-70.909657
 21
-62.95793
  0
LINE
  8
別途部材
  6
CONTINUOUS
 10
-65.909657
 20
-62.95793
 11
-66.909657
 21
-62.95793
  0
LINE
  8
別途部材
  6
CONTINUOUS
 10
-61.909657
 20
-62.95793
 11
-62.909657
 21
-62.95793
  0
LINE
  8
別途部材
  6
CONTINUOUS
 10
-57.909657
 20
-62.95793
 11
-58.909657
 21
-62.95793
  0
LINE
  8
別途部材
  6
CONTINUOUS
 10
-53.909657
 20
-62.95793
 11
-54.909657
 21
-62.95793
  0
LINE
  8
別途部材
  6
CONTINUOUS
 10
-49.909657
 20
-62.95793
 11
-50.909657
 21
-62.95793
  0
LINE
  8
別途部材
  6
CONTINUOUS
 10
-45.909657
 20
-62.95793
 11
-46.909657
 21
-62.95793
  0
LINE
  8
別途部材
  6
CONTINUOUS
 10
-41.909657
 20
-62.95793
 11
-42.909657
 21
-62.95793
  0
LINE
  8
別途部材
  6
CONTINUOUS
 10
-37.909657
 20
-62.95793
 11
-38.909657
 21
-62.95793
  0
LINE
  8
別途部材
  6
CONTINUOUS
 10
-33.909657
 20
-62.95793
 11
-34.909657
 21
-62.95793
  0
LINE
  8
別途部材
  6
CONTINUOUS
 10
-29.909657
 20
-62.95793
 11
-30.909657
 21
-62.95793
  0
LINE
  8
別途部材
  6
CONTINUOUS
 10
-25.909657
 20
-62.95793
 11
-26.909657
 21
-62.95793
  0
LINE
  8
別途部材
  6
CONTINUOUS
 10
-21.909657
 20
-79.624597
 11
-21.909657
 21
-62.95793
  0
LINE
  8
別途部材
  6
CONTINUOUS
 10
-22.909657
 20
-62.95793
 11
-21.909657
 21
-62.95793
  0
ARC
  8
別途部材
  6
CONTINUOUS
 10
-95.409658
 20
-79.624597
 40
16.666667
 50
90.0
 51
180.0
  0
LINE
  8
別途部材
  6
CONTINUOUS
 10
-78.909657
 20
-62.95793
 11
-79.909657
 21
-61.95793
  0
LINE
  8
別途部材
  6
CONTINUOUS
 10
-80.909657
 20
-61.95793
 11
-81.909657
 21
-62.95793
  0
LINE
  8
別途部材
  6
CONTINUOUS
 10
-79.909657
 20
-61.95793
 11
-80.909657
 21
-61.95793
  0
LINE
  8
別途部材
  6
CONTINUOUS
 10
-78.909657
 20
-79.624597
 11
-78.909657
 21
-62.95793
  0
LINE
  8
別途部材
  6
CONTINUOUS
 10
-79.909657
 20
-79.624597
 11
-79.909657
 21
-61.95793
  0
LINE
  8
別途部材
  6
CONTINUOUS
 10
-80.909657
 20
-79.624597
 11
-80.909657
 21
-61.95793
  0
LINE
  8
別途部材
  6
CONTINUOUS
 10
-81.909657
 20
-79.624597
 11
-81.909657
 21
-62.95793
  0
LINE
  8
別途部材
  6
CONTINUOUS
 10
-83.909657
 20
-79.624597
 11
-83.909657
 21
-61.95793
  0
LINE
  8
別途部材
  6
CONTINUOUS
 10
-84.909657
 20
-79.624597
 11
-84.909657
 21
-61.95793
  0
LINE
  8
別途部材
  6
CONTINUOUS
 10
-82.909657
 20
-62.95793
 11
-83.909657
 21
-61.95793
  0
LINE
  8
別途部材
  6
CONTINUOUS
 10
-84.909657
 20
-61.95793
 11
-85.909657
 21
-62.95793
  0
LINE
  8
別途部材
  6
CONTINUOUS
 10
-83.909657
 20
-61.95793
 11
-84.909657
 21
-61.95793
  0
LINE
  8
別途部材
  6
CONTINUOUS
 10
-86.909657
 20
-62.95793
 11
-87.909657
 21
-61.95793
  0
LINE
  8
別途部材
  6
CONTINUOUS
 10
-88.909657
 20
-61.95793
 11
-89.909657
 21
-62.95793
  0
LINE
  8
別途部材
  6
CONTINUOUS
 10
-87.909657
 20
-61.95793
 11
-88.909657
 21
-61.95793
  0
LINE
  8
別途部材
  6
CONTINUOUS
 10
-82.909657
 20
-79.624597
 11
-82.909657
 21
-62.95793
  0
LINE
  8
別途部材
  6
CONTINUOUS
 10
-85.909657
 20
-79.624597
 11
-85.909657
 21
-62.95793
  0
LINE
  8
別途部材
  6
CONTINUOUS
 10
-86.909657
 20
-79.624597
 11
-86.909657
 21
-62.95793
  0
LINE
  8
別途部材
  6
CONTINUOUS
 10
-87.909657
 20
-79.624597
 11
-87.909657
 21
-61.95793
  0
LINE
  8
別途部材
  6
CONTINUOUS
 10
-88.909657
 20
-79.624597
 11
-88.909657
 21
-61.95793
  0
LINE
  8
別途部材
  6
CONTINUOUS
 10
-89.909657
 20
-79.624597
 11
-89.909657
 21
-62.95793
  0
LINE
  8
別途部材
  6
CONTINUOUS
 10
-85.909657
 20
-62.95793
 11
-86.909657
 21
-62.95793
  0
LINE
  8
別途部材
  6
CONTINUOUS
 10
-81.909657
 20
-62.95793
 11
-82.909657
 21
-62.95793
  0
LINE
  8
別途部材
  6
CONTINUOUS
 10
-77.909657
 20
-62.95793
 11
-78.909657
 21
-62.95793
  0
LINE
  8
別途部材
  6
CONTINUOUS
 10
-90.909657
 20
-62.95793
 11
-91.909657
 21
-61.95793
  0
LINE
  8
別途部材
  6
CONTINUOUS
 10
-92.909657
 20
-61.95793
 11
-93.909657
 21
-62.95793
  0
LINE
  8
別途部材
  6
CONTINUOUS
 10
-91.909657
 20
-61.95793
 11
-92.909657
 21
-61.95793
  0
LINE
  8
別途部材
  6
CONTINUOUS
 10
-90.909657
 20
-79.624597
 11
-90.909657
 21
-62.95793
  0
LINE
  8
別途部材
  6
CONTINUOUS
 10
-91.909657
 20
-79.624597
 11
-91.909657
 21
-61.95793
  0
LINE
  8
別途部材
  6
CONTINUOUS
 10
-92.909657
 20
-79.624597
 11
-92.909657
 21
-61.95793
  0
LINE
  8
別途部材
  6
CONTINUOUS
 10
-93.909657
 20
-79.624597
 11
-93.909657
 21
-62.95793
  0
LINE
  8
別途部材
  6
CONTINUOUS
 10
-89.909657
 20
-62.95793
 11
-90.909657
 21
-62.95793
  0
LINE
  8
別途部材
  6
CONTINUOUS
 10
-95.409657
 20
-62.95793
 11
-93.909657
 21
-62.95793
  0
LINE
  8
別途部材
  6
CONTINUOUS
 62
    96
 10
72.923675
 20
-79.624597
 11
73.323675
 21
-80.624597
  0
LINE
  8
別途部材
  6
CONTINUOUS
 62
    96
 10
72.923675
 20
-79.624597
 11
-20.409657
 21
-79.624597
  0
LINE
  8
別途部材
  6
CONTINUOUS
 10
73.323675
 20
-80.624597
 11
-20.409657
 21
-80.624597
  0
LINE
  8
別途部材
  6
CONTINUOUS
 10
-19.909657
 20
-79.624597
 11
-19.909657
 21
-61.95793
  0
LINE
  8
別途部材
  6
CONTINUOUS
 10
-16.909657
 20
-79.624597
 11
-16.909657
 21
-61.95793
  0
LINE
  8
別途部材
  6
CONTINUOUS
 10
-19.909657
 20
-61.95793
 11
-18.909657
 21
-62.95793
  0
LINE
  8
別途部材
  6
CONTINUOUS
 10
-15.909657
 20
-79.624597
 11
-15.909657
 21
-61.95793
  0
LINE
  8
別途部材
  6
CONTINUOUS
 10
-17.909657
 20
-62.95793
 11
-16.909657
 21
-61.95793
  0
LINE
  8
別途部材
  6
CONTINUOUS
 10
-15.909657
 20
-61.95793
 11
-14.909657
 21
-62.95793
  0
LINE
  8
別途部材
  6
CONTINUOUS
 10
-16.909657
 20
-61.95793
 11
-15.909657
 21
-61.95793
  0
LINE
  8
別途部材
  6
CONTINUOUS
 10
-19.909657
 20
-61.95793
 11
-20.409657
 21
-61.95793
  0
LINE
  8
別途部材
  6
CONTINUOUS
 10
-13.909657
 20
-62.95793
 11
-12.909657
 21
-61.95793
  0
LINE
  8
別途部材
  6
CONTINUOUS
 10
-11.909657
 20
-61.95793
 11
-10.909657
 21
-62.95793
  0
LINE
  8
別途部材
  6
CONTINUOUS
 10
-12.909657
 20
-61.95793
 11
-11.909657
 21
-61.95793
  0
LINE
  8
別途部材
  6
CONTINUOUS
 10
-17.909657
 20
-79.624597
 11
-17.909657
 21
-62.95793
  0
LINE
  8
別途部材
  6
CONTINUOUS
 10
-14.909657
 20
-79.624597
 11
-14.909657
 21
-62.95793
  0
LINE
  8
別途部材
  6
CONTINUOUS
 10
-13.909657
 20
-79.624597
 11
-13.909657
 21
-62.95793
  0
LINE
  8
別途部材
  6
CONTINUOUS
 10
-12.909657
 20
-79.624597
 11
-12.909657
 21
-61.95793
  0
LINE
  8
別途部材
  6
CONTINUOUS
 10
-11.909657
 20
-79.624597
 11
-11.909657
 21
-61.95793
  0
LINE
  8
別途部材
  6
CONTINUOUS
 10
-10.909657
 20
-79.624597
 11
-10.909657
 21
-62.95793
  0
LINE
  8
別途部材
  6
CONTINUOUS
 10
-9.909657
 20
-62.95793
 11
-8.909657
 21
-61.95793
  0
LINE
  8
別途部材
  6
CONTINUOUS
 10
-7.909657
 20
-61.95793
 11
-6.909657
 21
-62.95793
  0
LINE
  8
別途部材
  6
CONTINUOUS
 10
-8.909657
 20
-61.95793
 11
-7.909657
 21
-61.95793
  0
LINE
  8
別途部材
  6
CONTINUOUS
 10
-9.909657
 20
-79.624597
 11
-9.909657
 21
-62.95793
  0
LINE
  8
別途部材
  6
CONTINUOUS
 10
-8.909657
 20
-79.624597
 11
-8.909657
 21
-61.95793
  0
LINE
  8
別途部材
  6
CONTINUOUS
 10
-7.909657
 20
-79.624597
 11
-7.909657
 21
-61.95793
  0
LINE
  8
別途部材
  6
CONTINUOUS
 10
-6.909657
 20
-79.624597
 11
-6.909657
 21
-62.95793
  0
LINE
  8
別途部材
  6
CONTINUOUS
 10
-4.909657
 20
-79.624597
 11
-4.909657
 21
-61.95793
  0
LINE
  8
別途部材
  6
CONTINUOUS
 10
-3.909657
 20
-79.624597
 11
-3.909657
 21
-61.95793
  0
LINE
  8
別途部材
  6
CONTINUOUS
 10
-5.909657
 20
-62.95793
 11
-4.909657
 21
-61.95793
  0
LINE
  8
別途部材
  6
CONTINUOUS
 10
-3.909657
 20
-61.95793
 11
-2.909657
 21
-62.95793
  0
LINE
  8
別途部材
  6
CONTINUOUS
 10
-4.909657
 20
-61.95793
 11
-3.909657
 21
-61.95793
  0
LINE
  8
別途部材
  6
CONTINUOUS
 10
-1.909657
 20
-62.95793
 11
-0.909657
 21
-61.95793
  0
LINE
  8
別途部材
  6
CONTINUOUS
 10
0.090343
 20
-61.95793
 11
1.090343
 21
-62.95793
  0
LINE
  8
別途部材
  6
CONTINUOUS
 10
-0.909657
 20
-61.95793
 11
0.090343
 21
-61.95793
  0
LINE
  8
別途部材
  6
CONTINUOUS
 10
-5.909657
 20
-79.624597
 11
-5.909657
 21
-62.95793
  0
LINE
  8
別途部材
  6
CONTINUOUS
 10
-2.909657
 20
-79.624597
 11
-2.909657
 21
-62.95793
  0
LINE
  8
別途部材
  6
CONTINUOUS
 10
-1.909657
 20
-79.624597
 11
-1.909657
 21
-62.95793
  0
LINE
  8
別途部材
  6
CONTINUOUS
 10
-0.909657
 20
-79.624597
 11
-0.909657
 21
-61.95793
  0
LINE
  8
別途部材
  6
CONTINUOUS
 10
0.090343
 20
-79.624597
 11
0.090343
 21
-61.95793
  0
LINE
  8
別途部材
  6
CONTINUOUS
 10
1.090343
 20
-79.624597
 11
1.090343
 21
-62.95793
  0
LINE
  8
別途部材
  6
CONTINUOUS
 10
2.090343
 20
-62.95793
 11
3.090343
 21
-61.95793
  0
LINE
  8
別途部材
  6
CONTINUOUS
 10
4.090343
 20
-61.95793
 11
5.090343
 21
-62.95793
  0
LINE
  8
別途部材
  6
CONTINUOUS
 10
3.090343
 20
-61.95793
 11
4.090343
 21
-61.95793
  0
LINE
  8
別途部材
  6
CONTINUOUS
 10
2.090343
 20
-79.624597
 11
2.090343
 21
-62.95793
  0
LINE
  8
別途部材
  6
CONTINUOUS
 10
3.090343
 20
-79.624597
 11
3.090343
 21
-61.95793
  0
LINE
  8
別途部材
  6
CONTINUOUS
 10
4.090343
 20
-79.624597
 11
4.090343
 21
-61.95793
  0
LINE
  8
別途部材
  6
CONTINUOUS
 10
5.090343
 20
-79.624597
 11
5.090343
 21
-62.95793
  0
LINE
  8
別途部材
  6
CONTINUOUS
 10
7.090343
 20
-79.624597
 11
7.090343
 21
-61.95793
  0
LINE
  8
別途部材
  6
CONTINUOUS
 10
8.090343
 20
-79.624597
 11
8.090343
 21
-61.95793
  0
LINE
  8
別途部材
  6
CONTINUOUS
 10
6.090343
 20
-62.95793
 11
7.090343
 21
-61.95793
  0
LINE
  8
別途部材
  6
CONTINUOUS
 10
8.090343
 20
-61.95793
 11
9.090343
 21
-62.95793
  0
LINE
  8
別途部材
  6
CONTINUOUS
 10
7.090343
 20
-61.95793
 11
8.090343
 21
-61.95793
  0
LINE
  8
別途部材
  6
CONTINUOUS
 10
10.090343
 20
-62.95793
 11
11.090343
 21
-61.95793
  0
LINE
  8
別途部材
  6
CONTINUOUS
 10
12.090343
 20
-61.95793
 11
13.090343
 21
-62.95793
  0
LINE
  8
別途部材
  6
CONTINUOUS
 10
11.090343
 20
-61.95793
 11
12.090343
 21
-61.95793
  0
LINE
  8
別途部材
  6
CONTINUOUS
 10
6.090343
 20
-79.624597
 11
6.090343
 21
-62.95793
  0
LINE
  8
別途部材
  6
CONTINUOUS
 10
9.090343
 20
-79.624597
 11
9.090343
 21
-62.95793
  0
LINE
  8
別途部材
  6
CONTINUOUS
 10
10.090343
 20
-79.624597
 11
10.090343
 21
-62.95793
  0
LINE
  8
別途部材
  6
CONTINUOUS
 10
11.090343
 20
-79.624597
 11
11.090343
 21
-61.95793
  0
LINE
  8
別途部材
  6
CONTINUOUS
 10
12.090343
 20
-79.624597
 11
12.090343
 21
-61.95793
  0
LINE
  8
別途部材
  6
CONTINUOUS
 10
13.090343
 20
-79.624597
 11
13.090343
 21
-62.95793
  0
LINE
  8
別途部材
  6
CONTINUOUS
 10
14.090343
 20
-62.95793
 11
15.090343
 21
-61.95793
  0
LINE
  8
別途部材
  6
CONTINUOUS
 10
16.090343
 20
-61.95793
 11
17.090343
 21
-62.95793
  0
LINE
  8
別途部材
  6
CONTINUOUS
 10
15.090343
 20
-61.95793
 11
16.090343
 21
-61.95793
  0
LINE
  8
別途部材
  6
CONTINUOUS
 10
14.090343
 20
-79.624597
 11
14.090343
 21
-62.95793
  0
LINE
  8
別途部材
  6
CONTINUOUS
 10
15.090343
 20
-79.624597
 11
15.090343
 21
-61.95793
  0
LINE
  8
別途部材
  6
CONTINUOUS
 10
16.090343
 20
-79.624597
 11
16.090343
 21
-61.95793
  0
LINE
  8
別途部材
  6
CONTINUOUS
 10
17.090343
 20
-79.624597
 11
17.090343
 21
-62.95793
  0
LINE
  8
別途部材
  6
CONTINUOUS
 10
19.090343
 20
-79.624597
 11
19.090343
 21
-61.95793
  0
LINE
  8
別途部材
  6
CONTINUOUS
 10
20.090343
 20
-79.624597
 11
20.090343
 21
-61.95793
  0
LINE
  8
別途部材
  6
CONTINUOUS
 10
18.090343
 20
-62.95793
 11
19.090343
 21
-61.95793
  0
LINE
  8
別途部材
  6
CONTINUOUS
 10
20.090343
 20
-61.95793
 11
21.090343
 21
-62.95793
  0
LINE
  8
別途部材
  6
CONTINUOUS
 10
19.090343
 20
-61.95793
 11
20.090343
 21
-61.95793
  0
LINE
  8
別途部材
  6
CONTINUOUS
 10
22.090343
 20
-62.95793
 11
23.090343
 21
-61.95793
  0
LINE
  8
別途部材
  6
CONTINUOUS
 10
24.090343
 20
-61.95793
 11
25.090343
 21
-62.95793
  0
LINE
  8
別途部材
  6
CONTINUOUS
 10
23.090343
 20
-61.95793
 11
24.090343
 21
-61.95793
  0
LINE
  8
別途部材
  6
CONTINUOUS
 10
18.090343
 20
-79.624597
 11
18.090343
 21
-62.95793
  0
LINE
  8
別途部材
  6
CONTINUOUS
 10
21.090343
 20
-79.624597
 11
21.090343
 21
-62.95793
  0
LINE
  8
別途部材
  6
CONTINUOUS
 10
22.090343
 20
-79.624597
 11
22.090343
 21
-62.95793
  0
LINE
  8
別途部材
  6
CONTINUOUS
 10
23.090343
 20
-79.624597
 11
23.090343
 21
-61.95793
  0
LINE
  8
別途部材
  6
CONTINUOUS
 10
24.090343
 20
-79.624597
 11
24.090343
 21
-61.95793
  0
LINE
  8
別途部材
  6
CONTINUOUS
 10
25.090343
 20
-79.624597
 11
25.090343
 21
-62.95793
  0
LINE
  8
別途部材
  6
CONTINUOUS
 10
26.090343
 20
-62.95793
 11
27.090343
 21
-61.95793
  0
LINE
  8
別途部材
  6
CONTINUOUS
 10
28.090343
 20
-61.95793
 11
29.090343
 21
-62.95793
  0
LINE
  8
別途部材
  6
CONTINUOUS
 10
27.090343
 20
-61.95793
 11
28.090343
 21
-61.95793
  0
LINE
  8
別途部材
  6
CONTINUOUS
 10
26.090343
 20
-79.624597
 11
26.090343
 21
-62.95793
  0
LINE
  8
別途部材
  6
CONTINUOUS
 10
27.090343
 20
-79.624597
 11
27.090343
 21
-61.95793
  0
LINE
  8
別途部材
  6
CONTINUOUS
 10
28.090343
 20
-79.624597
 11
28.090343
 21
-61.95793
  0
LINE
  8
別途部材
  6
CONTINUOUS
 10
29.090343
 20
-79.624597
 11
29.090343
 21
-62.95793
  0
LINE
  8
別途部材
  6
CONTINUOUS
 10
31.090343
 20
-79.624597
 11
31.090343
 21
-61.95793
  0
LINE
  8
別途部材
  6
CONTINUOUS
 10
32.090343
 20
-79.624597
 11
32.090343
 21
-61.95793
  0
LINE
  8
別途部材
  6
CONTINUOUS
 10
30.090343
 20
-62.95793
 11
31.090343
 21
-61.95793
  0
LINE
  8
別途部材
  6
CONTINUOUS
 10
32.090343
 20
-61.95793
 11
33.090343
 21
-62.95793
  0
LINE
  8
別途部材
  6
CONTINUOUS
 10
31.090343
 20
-61.95793
 11
32.090343
 21
-61.95793
  0
LINE
  8
別途部材
  6
CONTINUOUS
 10
34.090343
 20
-62.95793
 11
35.090343
 21
-61.95793
  0
LINE
  8
別途部材
  6
CONTINUOUS
 10
36.090343
 20
-61.95793
 11
37.090343
 21
-62.95793
  0
LINE
  8
別途部材
  6
CONTINUOUS
 10
35.090343
 20
-61.95793
 11
36.090343
 21
-61.95793
  0
LINE
  8
別途部材
  6
CONTINUOUS
 10
30.090343
 20
-79.624597
 11
30.090343
 21
-62.95793
  0
LINE
  8
別途部材
  6
CONTINUOUS
 10
33.090343
 20
-79.624597
 11
33.090343
 21
-62.95793
  0
LINE
  8
別途部材
  6
CONTINUOUS
 10
34.090343
 20
-79.624597
 11
34.090343
 21
-62.95793
  0
LINE
  8
別途部材
  6
CONTINUOUS
 10
35.090343
 20
-79.624597
 11
35.090343
 21
-61.95793
  0
LINE
  8
別途部材
  6
CONTINUOUS
 10
36.090343
 20
-79.624597
 11
36.090343
 21
-61.95793
  0
LINE
  8
別途部材
  6
CONTINUOUS
 10
37.090343
 20
-79.624597
 11
37.090343
 21
-62.95793
  0
LINE
  8
別途部材
  6
CONTINUOUS
 10
33.090343
 20
-62.95793
 11
34.090343
 21
-62.95793
  0
LINE
  8
別途部材
  6
CONTINUOUS
 10
29.090343
 20
-62.95793
 11
30.090343
 21
-62.95793
  0
LINE
  8
別途部材
  6
CONTINUOUS
 10
25.090343
 20
-62.95793
 11
26.090343
 21
-62.95793
  0
LINE
  8
別途部材
  6
CONTINUOUS
 10
21.090343
 20
-62.95793
 11
22.090343
 21
-62.95793
  0
LINE
  8
別途部材
  6
CONTINUOUS
 10
17.090343
 20
-62.95793
 11
18.090343
 21
-62.95793
  0
LINE
  8
別途部材
  6
CONTINUOUS
 10
13.090343
 20
-62.95793
 11
14.090343
 21
-62.95793
  0
LINE
  8
別途部材
  6
CONTINUOUS
 10
9.090343
 20
-62.95793
 11
10.090343
 21
-62.95793
  0
LINE
  8
別途部材
  6
CONTINUOUS
 10
5.090343
 20
-62.95793
 11
6.090343
 21
-62.95793
  0
LINE
  8
別途部材
  6
CONTINUOUS
 10
1.090343
 20
-62.95793
 11
2.090343
 21
-62.95793
  0
LINE
  8
別途部材
  6
CONTINUOUS
 10
-2.909657
 20
-62.95793
 11
-1.909657
 21
-62.95793
  0
LINE
  8
別途部材
  6
CONTINUOUS
 10
-6.909657
 20
-62.95793
 11
-5.909657
 21
-62.95793
  0
LINE
  8
別途部材
  6
CONTINUOUS
 10
-10.909657
 20
-62.95793
 11
-9.909657
 21
-62.95793
  0
LINE
  8
別途部材
  6
CONTINUOUS
 10
-14.909657
 20
-62.95793
 11
-13.909657
 21
-62.95793
  0
LINE
  8
別途部材
  6
CONTINUOUS
 10
-18.909657
 20
-79.624597
 11
-18.909657
 21
-62.95793
  0
LINE
  8
別途部材
  6
CONTINUOUS
 10
-17.909657
 20
-62.95793
 11
-18.909657
 21
-62.95793
  0
ARC
  8
別途部材
  6
CONTINUOUS
 10
54.590342
 20
-79.624597
 40
16.666667
 50
0.0
 51
90.0
  0
LINE
  8
別途部材
  6
CONTINUOUS
 10
38.090343
 20
-62.95793
 11
39.090343
 21
-61.95793
  0
LINE
  8
別途部材
  6
CONTINUOUS
 10
40.090343
 20
-61.95793
 11
41.090343
 21
-62.95793
  0
LINE
  8
別途部材
  6
CONTINUOUS
 10
39.090343
 20
-61.95793
 11
40.090343
 21
-61.95793
  0
LINE
  8
別途部材
  6
CONTINUOUS
 10
38.090343
 20
-79.624597
 11
38.090343
 21
-62.95793
  0
LINE
  8
別途部材
  6
CONTINUOUS
 10
39.090343
 20
-79.624597
 11
39.090343
 21
-61.95793
  0
LINE
  8
別途部材
  6
CONTINUOUS
 10
40.090343
 20
-79.624597
 11
40.090343
 21
-61.95793
  0
LINE
  8
別途部材
  6
CONTINUOUS
 10
41.090343
 20
-79.624597
 11
41.090343
 21
-62.95793
  0
LINE
  8
別途部材
  6
CONTINUOUS
 10
43.090343
 20
-79.624597
 11
43.090343
 21
-61.95793
  0
LINE
  8
別途部材
  6
CONTINUOUS
 10
44.090343
 20
-79.624597
 11
44.090343
 21
-61.95793
  0
LINE
  8
別途部材
  6
CONTINUOUS
 10
42.090343
 20
-62.95793
 11
43.090343
 21
-61.95793
  0
LINE
  8
別途部材
  6
CONTINUOUS
 10
44.090343
 20
-61.95793
 11
45.090343
 21
-62.95793
  0
LINE
  8
別途部材
  6
CONTINUOUS
 10
43.090343
 20
-61.95793
 11
44.090343
 21
-61.95793
  0
LINE
  8
別途部材
  6
CONTINUOUS
 10
46.090343
 20
-62.95793
 11
47.090343
 21
-61.95793
  0
LINE
  8
別途部材
  6
CONTINUOUS
 10
48.090343
 20
-61.95793
 11
49.090343
 21
-62.95793
  0
LINE
  8
別途部材
  6
CONTINUOUS
 10
47.090343
 20
-61.95793
 11
48.090343
 21
-61.95793
  0
LINE
  8
別途部材
  6
CONTINUOUS
 10
42.090343
 20
-79.624597
 11
42.090343
 21
-62.95793
  0
LINE
  8
別途部材
  6
CONTINUOUS
 10
45.090343
 20
-79.624597
 11
45.090343
 21
-62.95793
  0
LINE
  8
別途部材
  6
CONTINUOUS
 10
46.090343
 20
-79.624597
 11
46.090343
 21
-62.95793
  0
LINE
  8
別途部材
  6
CONTINUOUS
 10
47.090343
 20
-79.624597
 11
47.090343
 21
-61.95793
  0
LINE
  8
別途部材
  6
CONTINUOUS
 10
48.090343
 20
-79.624597
 11
48.090343
 21
-61.95793
  0
LINE
  8
別途部材
  6
CONTINUOUS
 10
49.090343
 20
-79.624597
 11
49.090343
 21
-62.95793
  0
LINE
  8
別途部材
  6
CONTINUOUS
 10
45.090343
 20
-62.95793
 11
46.090343
 21
-62.95793
  0
LINE
  8
別途部材
  6
CONTINUOUS
 10
41.090343
 20
-62.95793
 11
42.090343
 21
-62.95793
  0
LINE
  8
別途部材
  6
CONTINUOUS
 10
37.090343
 20
-62.95793
 11
38.090343
 21
-62.95793
  0
LINE
  8
別途部材
  6
CONTINUOUS
 10
50.090343
 20
-62.95793
 11
51.090343
 21
-61.95793
  0
LINE
  8
別途部材
  6
CONTINUOUS
 10
52.090343
 20
-61.95793
 11
53.090343
 21
-62.95793
  0
LINE
  8
別途部材
  6
CONTINUOUS
 10
51.090343
 20
-61.95793
 11
52.090343
 21
-61.95793
  0
LINE
  8
別途部材
  6
CONTINUOUS
 10
50.090343
 20
-79.624597
 11
50.090343
 21
-62.95793
  0
LINE
  8
別途部材
  6
CONTINUOUS
 10
51.090343
 20
-79.624597
 11
51.090343
 21
-61.95793
  0
LINE
  8
別途部材
  6
CONTINUOUS
 10
52.090343
 20
-79.624597
 11
52.090343
 21
-61.95793
  0
LINE
  8
別途部材
  6
CONTINUOUS
 10
53.090343
 20
-79.624597
 11
53.090343
 21
-62.95793
  0
LINE
  8
別途部材
  6
CONTINUOUS
 10
49.090343
 20
-62.95793
 11
50.090343
 21
-62.95793
  0
LINE
  8
別途部材
  6
CONTINUOUS
 10
54.590343
 20
-62.95793
 11
53.090343
 21
-62.95793
  0
ENDBLK
  0
BLOCK
  2
*DIM_0009
 70
    65
 10
0.0
 20
0.0
  0
LINE
  8
寸法
  6
BYBLOCK
 62
     0
 10
108.626315
 20
64.756625
 11
107.889473
 21
64.756625
  0
LINE
  8
寸法
  6
BYBLOCK
 62
     0
 10
108.626315
 20
-1.910042
 11
107.889473
 21
-1.910042
  0
LINE
  8
寸法
  6
BYBLOCK
 62
     0
 10
107.889473
 20
64.756625
 11
107.889473
 21
-1.910042
  0
POINT
  8
寸法
 62
     0
 10
107.889473
 20
64.756625
  0
POINT
  8
寸法
 62
     0
 10
107.889473
 20
-1.910042
  0
TEXT
  7
TextStyle03
  8
寸法
  6
CONTINUOUS
 62
     0
 10
107.5
 20
19.68125
  1
呼称寸法　2000
 40
3.0
 50
90.0
 72
     5
 11
107.5
 21
43.11875
  0
ENDBLK
  0
BLOCK
  2
*DIM_0010
 70
    65
 10
0.0
 20
0.0
  0
LINE
  8
寸法
  6
BYBLOCK
 62
     0
 10
144.123605
 20
32.42329
 11
144.123605
 21
86.5884
  0
LINE
  8
寸法
  6
BYBLOCK
 62
     0
 10
160.790272
 20
86.5884
 11
144.123605
 21
86.5884
  0
POINT
  8
寸法
 62
     0
 10
160.790272
 20
86.5884
  0
POINT
  8
寸法
 62
     0
 10
144.123605
 20
86.5884
  0
TEXT
  7
TextStyle03
  8
寸法
  6
CONTINUOUS
 62
     0
 10
150.0125
 20
86.95
  1
500
 40
3.0
 72
     5
 11
154.8875
 21
86.95
  0
ENDBLK
  0
BLOCK
  2
*DIM_0011
 70
    65
 10
0.0
 20
0.0
  0
LINE
  8
寸法
  6
BYBLOCK
 62
     0
 10
160.790272
 20
67.42329
 11
160.790272
 21
86.5884
  0
LINE
  8
寸法
  6
BYBLOCK
 62
     0
 10
163.65694
 20
68.756668
 11
163.65694
 21
86.5884
  0
LINE
  8
寸法
  6
BYBLOCK
 62
     0
 10
160.790272
 20
86.5884
 11
163.65694
 21
86.5884
  0
POINT
  8
寸法
 62
     0
 10
160.790272
 20
86.5884
  0
POINT
  8
寸法
 62
     0
 10
163.65694
 20
86.5884
  0
TEXT
  7
TextStyle03
  8
寸法
  6
CONTINUOUS
 62
     0
 10
163.98125
 20
86.95
  1
86
 40
3.0
 72
     5
 11
167.16875
 21
86.95
  0
ENDBLK
  0
BLOCK
  2
*DIM_0012
 70
    65
 10
0.0
 20
0.0
  0
LINE
  8
寸法
  6
BYBLOCK
 62
     0
 10
162.156942
 20
67.756668
 11
107.889473
 21
67.756668
  0
LINE
  8
寸法
  6
BYBLOCK
 62
     0
 10
107.889473
 20
64.756625
 11
107.889473
 21
67.756668
  0
POINT
  8
寸法
 62
     0
 10
107.889473
 20
64.756625
  0
POINT
  8
寸法
 62
     0
 10
107.889473
 20
67.756668
  0
TEXT
  7
TextStyle03
  8
寸法
  6
CONTINUOUS
 62
     0
 10
107.5
 20
68.03125
  1
90
 40
3.0
 50
90.0
 72
     5
 11
107.5
 21
71.21875
  0
ENDBLK
  0
BLOCK
  2
*DIM_0013
 70
    65
 10
0.0
 20
0.0
  0
LINE
  8
寸法
  6
BYBLOCK
 62
     0
 10
162.156942
 20
-4.910083
 11
107.889473
 21
-4.910083
  0
LINE
  8
寸法
  6
BYBLOCK
 62
     0
 10
107.889473
 20
-1.910042
 11
107.889473
 21
-4.910083
  0
POINT
  8
寸法
 62
     0
 10
107.889473
 20
-1.910042
  0
POINT
  8
寸法
 62
     0
 10
107.889473
 20
-4.910083
  0
TEXT
  7
TextStyle03
  8
寸法
  6
CONTINUOUS
 62
     0
 10
107.5
 20
-8.39375
  1
90
 40
3.0
 50
90.0
 72
     5
 11
107.5
 21
-5.20625
  0
ENDBLK
  0
BLOCK
  2
*DIM_0014
 70
    65
 10
0.0
 20
0.0
  0
LINE
  8
寸法
  6
BYBLOCK
 62
     0
 10
73.923675
 20
-79.624597
 11
87.226657
 21
-79.624597
  0
LINE
  8
寸法
  6
BYBLOCK
 62
     0
 10
75.257052
 20
-82.491265
 11
87.226657
 21
-82.491265
  0
LINE
  8
寸法
  6
BYBLOCK
 62
     0
 10
87.226657
 20
-79.624597
 11
87.226657
 21
-82.491265
  0
POINT
  8
寸法
 62
     0
 10
87.226657
 20
-79.624597
  0
POINT
  8
寸法
 62
     0
 10
87.226657
 20
-82.491265
  0
TEXT
  7
TextStyle03
  8
寸法
  6
CONTINUOUS
 62
     0
 10
86.85
 20
-86.04375
  1
86
 40
3.0
 50
90.0
 72
     5
 11
86.85
 21
-82.85625
  0
ENDBLK
  0
BLOCK
  2
*DIM_0015
 70
    65
 10
0.0
 20
0.0
  0
LINE
  8
寸法
  6
BYBLOCK
 62
     0
 10
74.257052
 20
-80.991267
 11
74.257052
 21
-22.536362
  0
LINE
  8
寸法
  6
BYBLOCK
 62
     0
 10
71.257007
 20
-22.536362
 11
74.257052
 21
-22.536362
  0
POINT
  8
寸法
 62
     0
 10
71.257007
 20
-22.536362
  0
POINT
  8
寸法
 62
     0
 10
74.257052
 20
-22.536362
  0
TEXT
  7
TextStyle03
  8
寸法
  6
CONTINUOUS
 62
     0
 10
74.53125
 20
-22.175
  1
90
 40
3.0
 72
     5
 11
77.71875
 21
-22.175
  0
ENDBLK
  0
BLOCK
  2
*DIM_0016
 70
    65
 10
0.0
 20
0.0
  0
LINE
  8
寸法
  6
BYBLOCK
 62
     0
 10
-115.076372
 20
-80.991267
 11
-115.076372
 21
-23.142105
  0
LINE
  8
寸法
  6
BYBLOCK
 62
     0
 10
-112.076325
 20
-23.142105
 11
-115.076372
 21
-23.142105
  0
POINT
  8
寸法
 62
     0
 10
-112.076325
 20
-23.142105
  0
POINT
  8
寸法
 62
     0
 10
-115.076372
 20
-23.142105
  0
TEXT
  7
TextStyle03
  8
寸法
  6
CONTINUOUS
 62
     0
 10
-118.56875
 20
-22.775
  1
90
 40
3.0
 72
     5
 11
-115.38125
 21
-22.775
  0
ENDBLK
  0
BLOCK
  2
*DIM_0017
 70
    65
 10
0.0
 20
0.0
  0
LINE
  8
寸法
  6
BYBLOCK
 62
     0
 10
-115.076325
 20
8.08996
 11
-144.565402
 21
8.08996
  0
LINE
  8
寸法
  6
BYBLOCK
 62
     0
 10
-115.076325
 20
31.423293
 11
-144.565402
 21
31.423293
  0
LINE
  8
寸法
  6
BYBLOCK
 62
     0
 10
-144.565402
 20
8.08996
 11
-144.565402
 21
31.423293
  0
POINT
  8
寸法
 62
     0
 10
-144.565402
 20
8.08996
  0
POINT
  8
寸法
 62
     0
 10
-144.565402
 20
31.423293
  0
TEXT
  7
TextStyle03
  8
寸法
  6
CONTINUOUS
 62
     0
 10
-144.95
 20
17.3125
  1
700
 40
3.0
 50
90.0
 72
     5
 11
-144.95
 21
22.1875
  0
ENDBLK
  0
BLOCK
  2
*DIM_0018
 70
    65
 10
0.0
 20
0.0
  0
LINE
  8
寸法
  6
BYBLOCK
 62
     0
 10
-115.076325
 20
54.756625
 11
-144.565402
 21
54.756625
  0
LINE
  8
寸法
  6
BYBLOCK
 62
     0
 10
-144.565402
 20
31.423293
 11
-144.565402
 21
54.756625
  0
POINT
  8
寸法
 62
     0
 10
-144.565402
 20
54.756625
  0
TEXT
  7
TextStyle03
  8
寸法
  6
CONTINUOUS
 62
     0
 10
-144.95
 20
40.6375
  1
700
 40
3.0
 50
90.0
 72
     5
 11
-144.95
 21
45.5125
  0
ENDBLK
  0
BLOCK
  2
*DIM_0019
 70
    65
 10
0.0
 20
0.0
  0
LINE
  8
寸法
  6
BYBLOCK
 62
     0
 10
-100.40966
 20
67.756625
 11
-100.40966
 21
96.864697
  0
LINE
  8
寸法
  6
BYBLOCK
 62
     0
 10
-73.742993
 20
67.756625
 11
-73.742993
 21
96.864697
  0
LINE
  8
寸法
  6
BYBLOCK
 62
     0
 10
-100.40966
 20
96.864697
 11
-73.742993
 21
96.864697
  0
POINT
  8
寸法
 62
     0
 10
-100.40966
 20
96.864697
  0
POINT
  8
寸法
 62
     0
 10
-73.742993
 20
96.864697
  0
TEXT
  7
TextStyle03
  8
寸法
  6
CONTINUOUS
 62
     0
 10
-89.5375
 20
97.225
  1
800
 40
3.0
 72
     5
 11
-84.6625
 21
97.225
  0
ENDBLK
  0
BLOCK
  2
*DIM_0020
 70
    65
 10
0.0
 20
0.0
  0
LINE
  8
寸法
  6
BYBLOCK
 62
     0
 10
-47.076328
 20
67.756625
 11
-47.076328
 21
96.864697
  0
LINE
  8
寸法
  6
BYBLOCK
 62
     0
 10
-73.742993
 20
96.864697
 11
-47.076328
 21
96.864697
  0
POINT
  8
寸法
 62
     0
 10
-47.076328
 20
96.864697
  0
TEXT
  7
TextStyle03
  8
寸法
  6
CONTINUOUS
 62
     0
 10
-62.8625
 20
97.225
  1
800
 40
3.0
 72
     5
 11
-57.9875
 21
97.225
  0
ENDBLK
  0
BLOCK
  2
*DIM_0021
 70
    65
 10
0.0
 20
0.0
  0
LINE
  8
寸法
  6
BYBLOCK
 62
     0
 10
-20.40966
 20
67.756625
 11
-20.40966
 21
96.864697
  0
LINE
  8
寸法
  6
BYBLOCK
 62
     0
 10
-47.076328
 20
96.864697
 11
-20.40966
 21
96.864697
  0
POINT
  8
寸法
 62
     0
 10
-20.40966
 20
96.864697
  0
TEXT
  7
TextStyle03
  8
寸法
  6
CONTINUOUS
 62
     0
 10
-36.1875
 20
97.225
  1
800
 40
3.0
 72
     5
 11
-31.3125
 21
97.225
  0
ENDBLK
  0
BLOCK
  2
*DIM_0022
 70
    65
 10
0.0
 20
0.0
  0
LINE
  8
寸法
  6
BYBLOCK
 62
     0
 10
6.257007
 20
67.756625
 11
6.257007
 21
96.864697
  0
LINE
  8
寸法
  6
BYBLOCK
 62
     0
 10
-20.40966
 20
96.864697
 11
6.257007
 21
96.864697
  0
POINT
  8
寸法
 62
     0
 10
6.257007
 20
96.864697
  0
TEXT
  7
TextStyle03
  8
寸法
  6
CONTINUOUS
 62
     0
 10
-9.5375
 20
97.225
  1
800
 40
3.0
 72
     5
 11
-4.6625
 21
97.225
  0
ENDBLK
  0
BLOCK
  2
*DIM_0023
 70
    65
 10
0.0
 20
0.0
  0
LINE
  8
寸法
  6
BYBLOCK
 62
     0
 10
32.923673
 20
67.756625
 11
32.923673
 21
96.864697
  0
LINE
  8
寸法
  6
BYBLOCK
 62
     0
 10
6.257007
 20
96.864697
 11
32.923673
 21
96.864697
  0
POINT
  8
寸法
 62
     0
 10
32.923673
 20
96.864697
  0
TEXT
  7
TextStyle03
  8
寸法
  6
CONTINUOUS
 62
     0
 10
17.1375
 20
97.225
  1
800
 40
3.0
 72
     5
 11
22.0125
 21
97.225
  0
ENDBLK
  0
BLOCK
  2
*DIM_0024
 70
    65
 10
0.0
 20
0.0
  0
LINE
  8
寸法
  6
BYBLOCK
 62
     0
 10
59.59034
 20
67.756625
 11
59.59034
 21
96.864697
  0
LINE
  8
寸法
  6
BYBLOCK
 62
     0
 10
32.923673
 20
96.864697
 11
59.59034
 21
96.864697
  0
POINT
  8
寸法
 62
     0
 10
59.59034
 20
96.864697
  0
TEXT
  7
TextStyle03
  8
寸法
  6
CONTINUOUS
 62
     0
 10
43.8125
 20
97.225
  1
800
 40
3.0
 72
     5
 11
48.6875
 21
97.225
  0
ENDBLK
  0
BLOCK
  2
*GRP_0025
 70
    65
 10
0.0
 20
0.0
  0
LINE
  8
ボルト／ビス
  6
CONTINUOUS
 10
-112.742995
 20
-79.624597
 11
-112.742995
 21
-79.157932
  0
LINE
  8
ボルト／ビス
  6
CONTINUOUS
 10
-113.109663
 20
-79.624597
 11
-113.109663
 21
-79.557932
  0
LINE
  8
ボルト／ビス
  6
CONTINUOUS
 10
-113.109663
 20
-79.557932
 11
-112.37633
 21
-79.557932
  0
LINE
  8
ボルト／ビス
  6
CONTINUOUS
 10
-112.37633
 20
-79.557932
 11
-112.37633
 21
-79.624597
  0
LINE
  8
ボルト／ビス
  6
CONTINUOUS
 10
-113.109663
 20
-79.624597
 11
-112.37633
 21
-79.624597
  0
LINE
  8
ボルト／ビス
  6
CONTINUOUS
 10
-113.042995
 20
-79.524597
 11
-113.042995
 21
-79.557932
  0
LINE
  8
ボルト／ビス
  6
CONTINUOUS
 10
-113.042995
 20
-79.524597
 11
-112.442995
 21
-79.524597
  0
LINE
  8
ボルト／ビス
  6
CONTINUOUS
 10
-112.442995
 20
-79.524597
 11
-112.442995
 21
-79.557932
  0
LINE
  8
ボルト／ビス
  6
CONTINUOUS
 62
    64
 10
-112.90337
 20
-79.324597
 11
-112.935445
 21
-79.336272
  0
ARC
  8
ボルト／ビス
  6
CONTINUOUS
 62
    64
 10
-112.887332
 20
-79.429577
 40
0.104978
 50
62.721967
 51
90.0
  0
ARC
  8
ボルト／ビス
  6
CONTINUOUS
 62
    64
 10
-112.742995
 20
-79.727001
 40
0.402402
 50
76.165002
 51
103.834985
  0
LINE
  8
ボルト／ビス
  6
CONTINUOUS
 62
    64
 10
-112.58262
 20
-79.324597
 11
-112.550545
 21
-79.336272
  0
ARC
  8
ボルト／ビス
  6
CONTINUOUS
 62
    64
 10
-112.598657
 20
-79.429577
 40
0.104978
 50
90.0
 51
117.278033
  0
LINE
  8
ボルト／ビス
  6
CONTINUOUS
 62
    64
 10
-112.90337
 20
-79.324597
 11
-112.58262
 21
-79.324597
  0
LINE
  8
ボルト／ビス
  6
CONTINUOUS
 62
    64
 10
-112.550545
 20
-79.336272
 11
-112.550545
 21
-79.457932
  0
LINE
  8
ボルト／ビス
  6
CONTINUOUS
 62
    64
 10
-112.64677
 20
-79.336272
 11
-112.64677
 21
-79.457932
  0
LINE
  8
ボルト／ビス
  6
CONTINUOUS
 62
    64
 10
-112.935445
 20
-79.336272
 11
-112.935445
 21
-79.457932
  0
LINE
  8
ボルト／ビス
  6
CONTINUOUS
 62
    64
 10
-112.83922
 20
-79.336272
 11
-112.83922
 21
-79.457932
  0
LINE
  8
ボルト／ビス
  6
CONTINUOUS
 10
-112.935445
 20
-79.457932
 11
-112.550545
 21
-79.457932
  0
LINE
  8
ボルト／ビス
  6
CONTINUOUS
 10
-112.942995
 20
-79.457932
 11
-112.942995
 21
-79.524597
  0
LINE
  8
ボルト／ビス
  6
CONTINUOUS
 10
-112.942995
 20
-79.457932
 11
-112.542995
 21
-79.457932
  0
LINE
  8
ボルト／ビス
  6
CONTINUOUS
 10
-112.542995
 20
-79.457932
 11
-112.542995
 21
-79.524597
  0
ENDBLK
  0
BLOCK
  2
*GRP_0026
 70
    65
 10
0.0
 20
0.0
  0
LINE
  8
ボルト／ビス
  6
CONTINUOUS
 10
71.923675
 20
-79.624597
 11
71.923675
 21
-79.157932
  0
LINE
  8
ボルト／ビス
  6
CONTINUOUS
 10
71.557007
 20
-79.624597
 11
71.557007
 21
-79.557932
  0
LINE
  8
ボルト／ビス
  6
CONTINUOUS
 10
71.557007
 20
-79.557932
 11
72.29034
 21
-79.557932
  0
LINE
  8
ボルト／ビス
  6
CONTINUOUS
 10
72.29034
 20
-79.557932
 11
72.29034
 21
-79.624597
  0
LINE
  8
ボルト／ビス
  6
CONTINUOUS
 10
71.557007
 20
-79.624597
 11
72.29034
 21
-79.624597
  0
LINE
  8
ボルト／ビス
  6
CONTINUOUS
 10
71.623675
 20
-79.524597
 11
71.623675
 21
-79.557932
  0
LINE
  8
ボルト／ビス
  6
CONTINUOUS
 10
71.623675
 20
-79.524597
 11
72.223675
 21
-79.524597
  0
LINE
  8
ボルト／ビス
  6
CONTINUOUS
 10
72.223675
 20
-79.524597
 11
72.223675
 21
-79.557932
  0
LINE
  8
ボルト／ビス
  6
CONTINUOUS
 62
    64
 10
71.7633
 20
-79.324597
 11
71.731225
 21
-79.336272
  0
ARC
  8
ボルト／ビス
  6
CONTINUOUS
 62
    64
 10
71.779338
 20
-79.429577
 40
0.104978
 50
62.721967
 51
90.0
  0
ARC
  8
ボルト／ビス
  6
CONTINUOUS
 62
    64
 10
71.923675
 20
-79.727001
 40
0.402402
 50
76.165002
 51
103.834985
  0
LINE
  8
ボルト／ビス
  6
CONTINUOUS
 62
    64
 10
72.08405
 20
-79.324597
 11
72.116125
 21
-79.336272
  0
ARC
  8
ボルト／ビス
  6
CONTINUOUS
 62
    64
 10
72.068013
 20
-79.429577
 40
0.104978
 50
90.0
 51
117.278033
  0
LINE
  8
ボルト／ビス
  6
CONTINUOUS
 62
    64
 10
71.7633
 20
-79.324597
 11
72.08405
 21
-79.324597
  0
LINE
  8
ボルト／ビス
  6
CONTINUOUS
 62
    64
 10
72.116125
 20
-79.336272
 11
72.116125
 21
-79.457932
  0
LINE
  8
ボルト／ビス
  6
CONTINUOUS
 62
    64
 10
72.0199
 20
-79.336272
 11
72.0199
 21
-79.457932
  0
LINE
  8
ボルト／ビス
  6
CONTINUOUS
 62
    64
 10
71.731225
 20
-79.336272
 11
71.731225
 21
-79.457932
  0
LINE
  8
ボルト／ビス
  6
CONTINUOUS
 62
    64
 10
71.82745
 20
-79.336272
 11
71.82745
 21
-79.457932
  0
LINE
  8
ボルト／ビス
  6
CONTINUOUS
 10
71.731225
 20
-79.457932
 11
72.116125
 21
-79.457932
  0
LINE
  8
ボルト／ビス
  6
CONTINUOUS
 10
71.723675
 20
-79.457932
 11
71.723675
 21
-79.524597
  0
LINE
  8
ボルト／ビス
  6
CONTINUOUS
 10
71.723675
 20
-79.457932
 11
72.123675
 21
-79.457932
  0
LINE
  8
ボルト／ビス
  6
CONTINUOUS
 10
72.123675
 20
-79.457932
 11
72.123675
 21
-79.524597
  0
ENDBLK
  0
BLOCK
  2
*GRP_0027
 70
    65
 10
0.0
 20
0.0
  0
LINE
  8
ボルト／ビス
  6
CONTINUOUS
 10
160.790272
 20
-2.57671
 11
160.323608
 21
-2.57671
  0
LINE
  8
ボルト／ビス
  6
CONTINUOUS
 10
160.790272
 20
-2.943378
 11
160.723608
 21
-2.943378
  0
LINE
  8
ボルト／ビス
  6
CONTINUOUS
 10
160.723608
 20
-2.943378
 11
160.723608
 21
-2.210045
  0
LINE
  8
ボルト／ビス
  6
CONTINUOUS
 10
160.723608
 20
-2.210045
 11
160.790272
 21
-2.210045
  0
LINE
  8
ボルト／ビス
  6
CONTINUOUS
 10
160.790272
 20
-2.943378
 11
160.790272
 21
-2.210045
  0
LINE
  8
ボルト／ビス
  6
CONTINUOUS
 10
160.690272
 20
-2.87671
 11
160.723608
 21
-2.87671
  0
LINE
  8
ボルト／ビス
  6
CONTINUOUS
 10
160.690272
 20
-2.87671
 11
160.690272
 21
-2.27671
  0
LINE
  8
ボルト／ビス
  6
CONTINUOUS
 10
160.690272
 20
-2.27671
 11
160.723608
 21
-2.27671
  0
LINE
  8
ボルト／ビス
  6
CONTINUOUS
 62
    64
 10
160.490273
 20
-2.737085
 11
160.501947
 21
-2.76916
  0
ARC
  8
ボルト／ビス
  6
CONTINUOUS
 62
    64
 10
160.595253
 20
-2.721047
 40
0.104978
 50
152.721967
 51
180.0
  0
ARC
  8
ボルト／ビス
  6
CONTINUOUS
 62
    64
 10
160.892677
 20
-2.57671
 40
0.402402
 50
166.165002
 51
193.834985
  0
LINE
  8
ボルト／ビス
  6
CONTINUOUS
 62
    64
 10
160.490273
 20
-2.416335
 11
160.501947
 21
-2.38426
  0
ARC
  8
ボルト／ビス
  6
CONTINUOUS
 62
    64
 10
160.595253
 20
-2.432372
 40
0.104978
 50
180.0
 51
207.278033
  0
LINE
  8
ボルト／ビス
  6
CONTINUOUS
 62
    64
 10
160.490273
 20
-2.737085
 11
160.490273
 21
-2.416335
  0
LINE
  8
ボルト／ビス
  6
CONTINUOUS
 62
    64
 10
160.501947
 20
-2.38426
 11
160.623608
 21
-2.38426
  0
LINE
  8
ボルト／ビス
  6
CONTINUOUS
 62
    64
 10
160.501947
 20
-2.480485
 11
160.623608
 21
-2.480485
  0
LINE
  8
ボルト／ビス
  6
CONTINUOUS
 62
    64
 10
160.501947
 20
-2.76916
 11
160.623608
 21
-2.76916
  0
LINE
  8
ボルト／ビス
  6
CONTINUOUS
 62
    64
 10
160.501947
 20
-2.672935
 11
160.623608
 21
-2.672935
  0
LINE
  8
ボルト／ビス
  6
CONTINUOUS
 10
160.623608
 20
-2.76916
 11
160.623608
 21
-2.38426
  0
LINE
  8
ボルト／ビス
  6
CONTINUOUS
 10
160.623608
 20
-2.77671
 11
160.690272
 21
-2.77671
  0
LINE
  8
ボルト／ビス
  6
CONTINUOUS
 10
160.623608
 20
-2.77671
 11
160.623608
 21
-2.37671
  0
LINE
  8
ボルト／ビス
  6
CONTINUOUS
 10
160.623608
 20
-2.37671
 11
160.690272
 21
-2.37671
  0
ENDBLK
  0
BLOCK
  2
*GRP_0028
 70
    65
 10
0.0
 20
0.0
  0
LINE
  8
ボルト／ビス
  6
CONTINUOUS
 10
160.790272
 20
65.42329
 11
160.323608
 21
65.42329
  0
LINE
  8
ボルト／ビス
  6
CONTINUOUS
 10
160.790272
 20
65.056623
 11
160.723608
 21
65.056623
  0
LINE
  8
ボルト／ビス
  6
CONTINUOUS
 10
160.723608
 20
65.056623
 11
160.723608
 21
65.789955
  0
LINE
  8
ボルト／ビス
  6
CONTINUOUS
 10
160.723608
 20
65.789955
 11
160.790272
 21
65.789955
  0
LINE
  8
ボルト／ビス
  6
CONTINUOUS
 10
160.790272
 20
65.056623
 11
160.790272
 21
65.789955
  0
LINE
  8
ボルト／ビス
  6
CONTINUOUS
 10
160.690272
 20
65.12329
 11
160.723608
 21
65.12329
  0
LINE
  8
ボルト／ビス
  6
CONTINUOUS
 10
160.690272
 20
65.12329
 11
160.690272
 21
65.72329
  0
LINE
  8
ボルト／ビス
  6
CONTINUOUS
 10
160.690272
 20
65.72329
 11
160.723608
 21
65.72329
  0
LINE
  8
ボルト／ビス
  6
CONTINUOUS
 62
    64
 10
160.490273
 20
65.262915
 11
160.501947
 21
65.23084
  0
ARC
  8
ボルト／ビス
  6
CONTINUOUS
 62
    64
 10
160.595253
 20
65.278953
 40
0.104978
 50
152.721967
 51
180.0
  0
ARC
  8
ボルト／ビス
  6
CONTINUOUS
 62
    64
 10
160.892677
 20
65.42329
 40
0.402402
 50
166.165002
 51
193.834985
  0
LINE
  8
ボルト／ビス
  6
CONTINUOUS
 62
    64
 10
160.490273
 20
65.583665
 11
160.501947
 21
65.61574
  0
ARC
  8
ボルト／ビス
  6
CONTINUOUS
 62
    64
 10
160.595253
 20
65.567628
 40
0.104978
 50
180.0
 51
207.278033
  0
LINE
  8
ボルト／ビス
  6
CONTINUOUS
 62
    64
 10
160.490273
 20
65.262915
 11
160.490273
 21
65.583665
  0
LINE
  8
ボルト／ビス
  6
CONTINUOUS
 62
    64
 10
160.501947
 20
65.61574
 11
160.623608
 21
65.61574
  0
LINE
  8
ボルト／ビス
  6
CONTINUOUS
 62
    64
 10
160.501947
 20
65.519515
 11
160.623608
 21
65.519515
  0
LINE
  8
ボルト／ビス
  6
CONTINUOUS
 62
    64
 10
160.501947
 20
65.23084
 11
160.623608
 21
65.23084
  0
LINE
  8
ボルト／ビス
  6
CONTINUOUS
 62
    64
 10
160.501947
 20
65.327065
 11
160.623608
 21
65.327065
  0
LINE
  8
ボルト／ビス
  6
CONTINUOUS
 10
160.623608
 20
65.23084
 11
160.623608
 21
65.61574
  0
LINE
  8
ボルト／ビス
  6
CONTINUOUS
 10
160.623608
 20
65.22329
 11
160.690272
 21
65.22329
  0
LINE
  8
ボルト／ビス
  6
CONTINUOUS
 10
160.623608
 20
65.22329
 11
160.623608
 21
65.62329
  0
LINE
  8
ボルト／ビス
  6
CONTINUOUS
 10
160.623608
 20
65.62329
 11
160.690272
 21
65.62329
  0
ENDBLK
  0
ENDSEC
  0
SECTION
  2
ENTITIES
  0
POLYLINE
  8
通り芯
  6
CONTINUOUS
 66
     1
 70
     1
  0
VERTEX
  8
通り芯
 10
-210.0
 20
-148.5
  0
VERTEX
  8
通り芯
 10
210.0
 20
-148.5
  0
VERTEX
  8
通り芯
 10
210.0
 20
148.5
  0
VERTEX
  8
通り芯
 10
-210.0
 20
148.5
  0
SEQEND
  0
INSERT
  2
*GRP_0001
  8
型材断面
  6
CONTINUOUS
 10
0.0
 20
0.0
  0
LINE
  8
型材断面
  6
DASHDOT
 10
71.257007
 20
64.756625
 11
71.257007
 21
-87.251428
  0
LINE
  8
型材断面
  6
DASHDOT
 10
-112.076325
 20
64.756625
 11
-112.076325
 21
-87.251428
  0
LINE
  8
型材断面
  6
DASHDOT
 10
-20.40966
 20
64.756625
 11
-20.40966
 21
-87.251428
  0
LINE
  8
型材断面
  6
DASHDOT
 10
-75.529658
 20
-1.910042
 11
-75.529658
 21
64.756625
  0
LINE
  8
型材断面
  6
DASHDOT
 10
-38.782992
 20
-1.910042
 11
-38.782992
 21
64.756625
  0
LINE
  8
型材断面
  6
DASHDOT
 10
34.710338
 20
-1.910042
 11
34.710338
 21
64.756625
  0
LINE
  8
型材断面
  6
DASHDOT
 10
-2.036327
 20
-1.910042
 11
-2.036327
 21
64.756625
  0
LINE
  8
型材断面
  6
DOT
 10
33.460338
 20
-1.910042
 11
33.460338
 21
64.756625
  0
LINE
  8
型材断面
  6
DOT
 10
35.960338
 20
-1.910042
 11
35.960338
 21
64.756625
  0
LINE
  8
型材断面
  6
DOT
 10
70.207007
 20
32.673293
 11
35.960338
 21
32.673293
  0
LINE
  8
型材断面
  6
DOT
 10
70.207007
 20
30.173293
 11
35.960338
 21
30.173293
  0
LINE
  8
型材断面
  6
DOT
 10
-3.286327
 20
-1.910042
 11
-3.286327
 21
64.756625
  0
LINE
  8
型材断面
  6
DOT
 10
-0.786327
 20
-1.910042
 11
-0.786327
 21
64.756625
  0
LINE
  8
型材断面
  6
DOT
 10
-40.032992
 20
-1.910042
 11
-40.032992
 21
64.756625
  0
LINE
  8
型材断面
  6
DOT
 10
-37.532992
 20
-1.910042
 11
-37.532992
 21
64.756625
  0
LINE
  8
型材断面
  6
DOT
 10
-76.779658
 20
-1.910042
 11
-76.779658
 21
64.756625
  0
LINE
  8
型材断面
  6
DOT
 10
-74.279658
 20
-1.910042
 11
-74.279658
 21
64.756625
  0
LINE
  8
型材断面
  6
DOT
 10
-111.026328
 20
32.673293
 11
-76.779658
 21
32.673293
  0
LINE
  8
型材断面
  6
DOT
 10
-111.026328
 20
30.173293
 11
-76.779658
 21
30.173293
  0
LINE
  8
型材断面
  6
DOT
 10
33.460338
 20
32.673293
 11
-0.786327
 21
32.673293
  0
LINE
  8
型材断面
  6
DOT
 10
33.460338
 20
30.173293
 11
-0.786327
 21
30.173293
  0
LINE
  8
型材断面
  6
DOT
 10
-37.532992
 20
32.673293
 11
-3.286327
 21
32.673293
  0
LINE
  8
型材断面
  6
DOT
 10
-37.532992
 20
30.173293
 11
-3.286327
 21
30.173293
  0
LINE
  8
型材断面
  6
DOT
 10
-40.032992
 20
32.673293
 11
-74.279658
 21
32.673293
  0
LINE
  8
型材断面
  6
DOT
 10
-40.032992
 20
30.173293
 11
-74.279658
 21
30.173293
  0
LINE
  8
型材断面
  6
DASHDOT
 10
168.93377
 20
-1.910042
 11
-112.076325
 21
-1.910042
  0
LINE
  8
型材断面
  6
DASHDOT
 10
168.93377
 20
31.423293
 11
-112.076325
 21
31.423293
  0
LINE
  8
型材断面
  6
DASHDOT
 10
168.93377
 20
64.756625
 11
-112.076325
 21
64.756625
  0
LINE
  8
型材断面
  6
CONTINUOUS
 10
-114.706455
 20
31.423293
 11
-117.296962
 21
32.918923
  0
LINE
  8
型材断面
  6
CONTINUOUS
 10
-114.706455
 20
31.423293
 11
-117.296962
 21
29.927663
  0
LINE
  8
型材断面
  6
CONTINUOUS
 10
-117.296962
 20
29.927663
 11
-117.296962
 21
32.918923
  0
LINE
  8
型材断面
  6
CONTINUOUS
 10
-152.928532
 20
109.263973
 11
-154.424162
 21
106.673465
  0
LINE
  8
型材断面
  6
CONTINUOUS
 10
-152.928532
 20
109.263973
 11
-151.432903
 21
106.673465
  0
LINE
  8
型材断面
  6
CONTINUOUS
 10
-151.432903
 20
106.673465
 11
-154.424162
 21
106.673465
  0
LINE
  8
型材断面
  6
CONTINUOUS
 10
-158.95112
 20
105.73487
 11
-112.709343
 21
105.73487
  0
LINE
  8
型材断面
  6
CONTINUOUS
 10
-95.409657
 20
-4.54017
 11
-96.905288
 21
-7.130678
  0
LINE
  8
型材断面
  6
CONTINUOUS
 10
-95.409657
 20
-4.54017
 11
-93.914027
 21
-7.130678
  0
LINE
  8
型材断面
  6
CONTINUOUS
 10
-93.914027
 20
-7.130678
 11
-96.905288
 21
-7.130678
  0
LINE
  8
型材断面
  6
CONTINUOUS
 10
-95.409657
 20
67.386755
 11
-96.905288
 21
69.977262
  0
LINE
  8
型材断面
  6
CONTINUOUS
 10
-95.409657
 20
67.386755
 11
-93.914027
 21
69.977262
  0
LINE
  8
型材断面
  6
CONTINUOUS
 10
-93.914027
 20
69.977262
 11
-96.905288
 21
69.977262
  0
LINE
  8
型材断面
  6
CONTINUOUS
 10
54.590337
 20
-4.54017
 11
56.085967
 21
-7.130678
  0
LINE
  8
型材断面
  6
CONTINUOUS
 10
54.590337
 20
-4.54017
 11
53.094708
 21
-7.130678
  0
LINE
  8
型材断面
  6
CONTINUOUS
 10
53.094708
 20
-7.130678
 11
56.085967
 21
-7.130678
  0
LINE
  8
型材断面
  6
CONTINUOUS
 10
54.590337
 20
67.386755
 11
56.085967
 21
69.977262
  0
LINE
  8
型材断面
  6
CONTINUOUS
 10
54.590337
 20
67.386755
 11
53.094708
 21
69.977262
  0
LINE
  8
型材断面
  6
CONTINUOUS
 10
53.094708
 20
69.977262
 11
56.085967
 21
69.977262
  0
LINE
  8
型材断面
  6
CONTINUOUS
 10
-20.40966
 20
-4.54017
 11
-18.91403
 21
-7.130678
  0
LINE
  8
型材断面
  6
CONTINUOUS
 10
-20.40966
 20
-4.54017
 11
-21.90529
 21
-7.130678
  0
LINE
  8
型材断面
  6
CONTINUOUS
 10
-21.90529
 20
-7.130678
 11
-18.91403
 21
-7.130678
  0
LINE
  8
型材断面
  6
CONTINUOUS
 10
-20.40966
 20
67.386755
 11
-18.91403
 21
69.977262
  0
LINE
  8
型材断面
  6
CONTINUOUS
 10
-20.40966
 20
67.386755
 11
-21.90529
 21
69.977262
  0
LINE
  8
型材断面
  6
CONTINUOUS
 10
-21.90529
 20
69.977262
 11
-18.91403
 21
69.977262
  0
LINE
  8
型材断面
  6
CONTINUOUS
 10
73.887135
 20
31.423293
 11
76.477643
 21
32.918923
  0
LINE
  8
型材断面
  6
CONTINUOUS
 10
73.887135
 20
31.423293
 11
76.477643
 21
29.927663
  0
LINE
  8
型材断面
  6
CONTINUOUS
 10
76.477643
 20
29.927663
 11
76.477643
 21
32.918923
  0
LINE
  8
型材断面
  6
CONTINUOUS
 10
-158.95112
 20
99.769197
 11
-112.709343
 21
99.769197
  0
LINE
  8
型材断面
  6
CONTINUOUS
 62
    47
 10
163.65694
 20
67.756668
 11
163.156942
 21
67.756668
  0
LINE
  8
型材断面
  6
CONTINUOUS
 62
    47
 10
163.156942
 20
67.756668
 11
162.659763
 21
64.823337
  0
LINE
  8
型材断面
  6
CONTINUOUS
 62
    47
 10
163.65694
 20
67.256677
 11
164.15694
 21
67.256677
  0
LINE
  8
型材断面
  6
CONTINUOUS
 62
    47
 10
162.659763
 20
64.823337
 11
161.790272
 21
64.823337
  0
LINE
  8
型材断面
  6
CONTINUOUS
 10
162.659763
 20
64.823337
 11
162.659763
 21
31.423293
  0
LINE
  8
型材断面
  6
CONTINUOUS
 10
163.156942
 20
67.756668
 11
163.156942
 21
31.423293
  0
LINE
  8
型材断面
  6
CONTINUOUS
 62
    47
 10
163.65694
 20
67.756668
 11
163.65694
 21
31.423293
  0
LINE
  8
型材断面
  6
CONTINUOUS
 10
164.15694
 20
67.256677
 11
164.15694
 21
31.423293
  0
LINE
  8
型材断面
  6
CONTINUOUS
 62
    47
 10
163.65694
 20
-4.910083
 11
163.156942
 21
-4.910083
  0
LINE
  8
型材断面
  6
CONTINUOUS
 62
    47
 10
163.156942
 20
-4.910083
 11
162.659763
 21
-1.976753
  0
LINE
  8
型材断面
  6
CONTINUOUS
 62
    47
 10
163.65694
 20
-4.410092
 11
164.15694
 21
-4.410092
  0
LINE
  8
型材断面
  6
CONTINUOUS
 62
    47
 10
162.659763
 20
-1.976753
 11
161.790272
 21
-1.976753
  0
LINE
  8
型材断面
  6
CONTINUOUS
 10
162.659763
 20
-1.976753
 11
162.659763
 21
31.423293
  0
LINE
  8
型材断面
  6
CONTINUOUS
 10
163.156942
 20
-4.910083
 11
163.156942
 21
31.423293
  0
LINE
  8
型材断面
  6
CONTINUOUS
 62
    47
 10
163.65694
 20
-4.910083
 11
163.65694
 21
31.423293
  0
LINE
  8
型材断面
  6
CONTINUOUS
 10
164.15694
 20
-4.410092
 11
164.15694
 21
31.423293
  0
LINE
  8
型材断面
  6
CONTINUOUS
 62
    47
 10
74.257052
 20
-82.491265
 11
74.257052
 21
-81.991267
  0
LINE
  8
型材断面
  6
CONTINUOUS
 62
    47
 10
74.257052
 20
-81.991267
 11
71.323723
 21
-81.494088
  0
LINE
  8
型材断面
  6
CONTINUOUS
 62
    47
 10
73.757063
 20
-82.491265
 11
73.757063
 21
-82.991265
  0
LINE
  8
型材断面
  6
CONTINUOUS
 62
    47
 10
71.323723
 20
-81.494088
 11
71.323723
 21
-80.624597
  0
LINE
  8
型材断面
  6
CONTINUOUS
 10
73.323675
 20
-3.97671
 11
74.257007
 21
-4.910045
  0
LINE
  8
型材断面
  6
CONTINUOUS
 10
74.257007
 20
31.423293
 11
74.257007
 21
-4.910045
  0
LINE
  8
型材断面
  6
CONTINUOUS
 10
74.257007
 20
-4.910045
 11
-20.40966
 21
-4.910015
  0
LINE
  8
型材断面
  6
CONTINUOUS
 10
73.323675
 20
66.823295
 11
74.257007
 21
67.75663
  0
LINE
  8
型材断面
  6
CONTINUOUS
 10
74.257007
 20
31.423293
 11
74.257007
 21
67.75663
  0
LINE
  8
型材断面
  6
CONTINUOUS
 10
74.257007
 20
67.75663
 11
-20.40966
 21
67.7566
  0
LINE
  8
型材断面
  6
CONTINUOUS
 10
-114.142995
 20
66.823295
 11
-115.076328
 21
67.75663
  0
LINE
  8
型材断面
  6
CONTINUOUS
 10
-115.076328
 20
31.423293
 11
-115.076328
 21
67.75663
  0
LINE
  8
型材断面
  6
CONTINUOUS
 10
-115.076328
 20
67.75663
 11
-20.40966
 21
67.7566
  0
LINE
  8
型材断面
  6
CONTINUOUS
 10
-114.142995
 20
-3.97671
 11
-115.076328
 21
-4.910045
  0
LINE
  8
型材断面
  6
CONTINUOUS
 10
-115.076328
 20
31.423293
 11
-115.076328
 21
-4.910045
  0
LINE
  8
型材断面
  6
CONTINUOUS
 10
-115.076328
 20
-4.910045
 11
-20.40966
 21
-4.910015
  0
LINE
  8
型材断面
  6
CONTINUOUS
 10
73.757063
 20
-82.991265
 11
-20.40966
 21
-82.991265
  0
LINE
  8
型材断面
  6
CONTINUOUS
 62
    47
 10
74.257052
 20
-82.491265
 11
-20.40966
 21
-82.491265
  0
LINE
  8
型材断面
  6
CONTINUOUS
 10
71.323723
 20
-81.494088
 11
-20.40966
 21
-81.494088
  0
LINE
  8
型材断面
  6
CONTINUOUS
 10
74.257052
 20
-81.991267
 11
-20.40966
 21
-81.991267
  0
LINE
  8
型材断面
  6
CONTINUOUS
 62
    47
 10
-115.076372
 20
-82.491265
 11
-115.076372
 21
-81.991267
  0
LINE
  8
型材断面
  6
CONTINUOUS
 62
    47
 10
-115.076372
 20
-81.991267
 11
-112.143042
 21
-81.494088
  0
LINE
  8
型材断面
  6
CONTINUOUS
 62
    47
 10
-114.576382
 20
-82.491265
 11
-114.576382
 21
-82.991265
  0
LINE
  8
型材断面
  6
CONTINUOUS
 62
    47
 10
-112.143042
 20
-81.494088
 11
-112.143042
 21
-80.624597
  0
LINE
  8
型材断面
  6
CONTINUOUS
 10
-114.576382
 20
-82.991265
 11
-20.40966
 21
-82.991265
  0
LINE
  8
型材断面
  6
CONTINUOUS
 62
    47
 10
-115.076372
 20
-82.491265
 11
-20.40966
 21
-82.491265
  0
LINE
  8
型材断面
  6
CONTINUOUS
 10
-112.143042
 20
-81.494088
 11
-20.40966
 21
-81.494088
  0
LINE
  8
型材断面
  6
CONTINUOUS
 10
-115.076372
 20
-81.991267
 11
-20.40966
 21
-81.991267
  0
TEXT
  7
TextStyle03
  8
文字
  6
CONTINUOUS
 10
140.7
 20
-76.875
  1
網入り6.8t
 40
3.0
 72
     5
 11
157.3875
 21
-76.875
  0
TEXT
  7
TextStyle03
  8
文字
  6
CONTINUOUS
 10
144.3
 20
-81.5
  1
×１０枚
 40
3.0
 72
     5
 11
157.425
 21
-81.5
  0
TEXT
  7
TextStyle03
  8
文字
  6
CONTINUOUS
 10
-150.125
 20
106.85
  1
は排水穴位置を示す
 40
3.0
 72
     5
 11
-120.125
 21
106.85
  0
TEXT
  7
TextStyle03
  8
文字
  6
CONTINUOUS
 10
-150.8
 20
2.025
  1
アンカーピッチ
 40
3.0
 50
90.0
 72
     5
 11
-150.8
 21
25.275
  0
TEXT
  7
TextStyle03
  8
文字
  6
CONTINUOUS
 10
-98.025
 20
101.15
  1
アンカーピッチ
 40
3.0
 72
     5
 11
-74.775
 21
101.15
  0
TEXT
  7
TextStyle03
  8
文字
  6
CONTINUOUS
 10
-153.85
 20
100.65
  1
アンカー数量　２０ヶ所
 40
3.0
 72
     5
 11
-117.1
 21
100.65
  0
TEXT
  7
TextStyle03
  8
文字
  6
CONTINUOUS
 10
78.1
 20
125.25
  1
シリーズ：ＴＤ２ＫＬ
 40
5.0
 72
     5
 11
133.725
 21
125.25
  0
TEXT
  7
TextStyle03
  8
文字
  6
CONTINUOUS
 10
78.1
 20
119.625
  1
　　　　　（固定）2000×5500タイプ
 40
5.0
 72
     5
 11
173.1
 21
119.625
  0
TEXT
  7
TextStyle03
  8
文字
  6
CONTINUOUS
 10
78.1
 20
114.0
  1
図面名　：外観姿図
 40
5.0
 72
     5
 11
128.1
 21
114.0
  0
TEXT
  7
TextStyle03
  8
文字
  6
CONTINUOUS
 10
78.1
 20
108.375
  1
　　　　　　
 40
5.0
 72
     5
 11
111.225
 21
108.375
  0
TEXT
  7
TextStyle03
  8
文字
  6
CONTINUOUS
 10
77.65
 20
104.325
  1
ＮＳコード：ＮＳＫＺＬ
 40
5.0
 72
     5
 11
138.9
 21
104.325
  0
INSERT
  2
*DIM_0002
  8
寸法
  6
CONTINUOUS
 10
0.0
 20
0.0
  0
INSERT
  2
*DIM_0003
  8
寸法
  6
CONTINUOUS
 10
0.0
 20
0.0
  0
INSERT
  2
*DIM_0004
  8
寸法
  6
CONTINUOUS
 10
0.0
 20
0.0
  0
INSERT
  2
*DIM_0005
  8
寸法
  6
CONTINUOUS
 10
0.0
 20
0.0
  0
INSERT
  2
*DIM_0006
  8
寸法
  6
CONTINUOUS
 10
0.0
 20
0.0
  0
INSERT
  2
*DIM_0007
  8
寸法
  6
CONTINUOUS
 10
0.0
 20
0.0
  0
INSERT
  2
*DIM_0009
  8
寸法
  6
CONTINUOUS
 10
0.0
 20
0.0
  0
INSERT
  2
*DIM_0010
  8
寸法
  6
CONTINUOUS
 10
0.0
 20
0.0
  0
INSERT
  2
*DIM_0011
  8
寸法
  6
CONTINUOUS
 10
0.0
 20
0.0
  0
INSERT
  2
*DIM_0012
  8
寸法
  6
CONTINUOUS
 10
0.0
 20
0.0
  0
INSERT
  2
*DIM_0013
  8
寸法
  6
CONTINUOUS
 10
0.0
 20
0.0
  0
INSERT
  2
*DIM_0014
  8
寸法
  6
CONTINUOUS
 10
0.0
 20
0.0
  0
INSERT
  2
*DIM_0015
  8
寸法
  6
CONTINUOUS
 10
0.0
 20
0.0
  0
INSERT
  2
*DIM_0016
  8
寸法
  6
CONTINUOUS
 10
0.0
 20
0.0
  0
INSERT
  2
*DIM_0017
  8
寸法
  6
CONTINUOUS
 10
0.0
 20
0.0
  0
INSERT
  2
*DIM_0018
  8
寸法
  6
CONTINUOUS
 10
0.0
 20
0.0
  0
INSERT
  2
*DIM_0019
  8
寸法
  6
CONTINUOUS
 10
0.0
 20
0.0
  0
INSERT
  2
*DIM_0020
  8
寸法
  6
CONTINUOUS
 10
0.0
 20
0.0
  0
INSERT
  2
*DIM_0021
  8
寸法
  6
CONTINUOUS
 10
0.0
 20
0.0
  0
INSERT
  2
*DIM_0022
  8
寸法
  6
CONTINUOUS
 10
0.0
 20
0.0
  0
INSERT
  2
*DIM_0023
  8
寸法
  6
CONTINUOUS
 10
0.0
 20
0.0
  0
INSERT
  2
*DIM_0024
  8
寸法
  6
CONTINUOUS
 10
0.0
 20
0.0
  0
LINE
  8
別途部材
  6
CONTINUOUS
 10
73.323675
 20
-3.97671
 11
72.923675
 21
-3.57671
  0
LINE
  8
別途部材
  6
CONTINUOUS
 10
71.257007
 20
-1.910042
 11
63.197753
 21
6.149215
  0
LINE
  8
別途部材
  6
CONTINUOUS
 10
73.323675
 20
-3.97671
 11
73.323675
 21
31.423293
  0
LINE
  8
別途部材
  6
CONTINUOUS
 10
72.923675
 20
-3.57671
 11
72.923675
 21
31.423293
  0
LINE
  8
別途部材
  6
CONTINUOUS
 10
73.323675
 20
66.823295
 11
72.923675
 21
66.423295
  0
LINE
  8
別途部材
  6
CONTINUOUS
 10
71.257007
 20
64.756627
 11
63.197753
 21
56.69737
  0
LINE
  8
別途部材
  6
CONTINUOUS
 10
73.323675
 20
66.823295
 11
73.323675
 21
31.423293
  0
LINE
  8
別途部材
  6
CONTINUOUS
 10
72.923675
 20
66.423295
 11
72.923675
 21
31.423293
  0
LINE
  8
別途部材
  6
CONTINUOUS
 10
72.923675
 20
-3.57671
 11
-20.40966
 21
-3.57671
  0
LINE
  8
別途部材
  6
CONTINUOUS
 10
73.323675
 20
-3.97671
 11
-20.40966
 21
-3.97671
  0
LINE
  8
別途部材
  6
CONTINUOUS
 10
73.323675
 20
66.823295
 11
-20.40966
 21
66.823295
  0
LINE
  8
別途部材
  6
CONTINUOUS
 10
72.923675
 20
66.423295
 11
-20.40966
 21
66.423295
  0
LINE
  8
別途部材
  6
CONTINUOUS
 10
-114.142995
 20
-3.97671
 11
-113.742995
 21
-3.57671
  0
LINE
  8
別途部材
  6
CONTINUOUS
 10
-112.076328
 20
-1.910042
 11
-104.017073
 21
6.149215
  0
LINE
  8
別途部材
  6
CONTINUOUS
 10
-114.142995
 20
-3.97671
 11
-114.142995
 21
31.423293
  0
LINE
  8
別途部材
  6
CONTINUOUS
 10
-113.742995
 20
-3.57671
 11
-113.742995
 21
31.423293
  0
LINE
  8
別途部材
  6
CONTINUOUS
 10
-114.142995
 20
66.823295
 11
-113.742995
 21
66.423295
  0
LINE
  8
別途部材
  6
CONTINUOUS
 10
-112.076328
 20
64.756627
 11
-104.017073
 21
56.69737
  0
LINE
  8
別途部材
  6
CONTINUOUS
 10
-114.142995
 20
66.823295
 11
-114.142995
 21
31.423293
  0
LINE
  8
別途部材
  6
CONTINUOUS
 10
-113.742995
 20
66.423295
 11
-113.742995
 21
31.423293
  0
LINE
  8
別途部材
  6
CONTINUOUS
 10
-113.742995
 20
-3.57671
 11
-20.40966
 21
-3.57671
  0
LINE
  8
別途部材
  6
CONTINUOUS
 10
-114.142995
 20
-3.97671
 11
-20.40966
 21
-3.97671
  0
LINE
  8
別途部材
  6
CONTINUOUS
 10
-114.142995
 20
66.823295
 11
-20.40966
 21
66.823295
  0
LINE
  8
別途部材
  6
CONTINUOUS
 10
-113.742995
 20
66.423295
 11
-20.40966
 21
66.423295
  0
INSERT
  2
*GRP_0008
  8
別途部材
  6
CONTINUOUS
 10
0.0
 20
0.0
  0
LINE
  8
別途部材
  6
CONTINUOUS
 62
    96
 10
160.790272
 20
-3.57671
 11
161.790272
 21
-3.97671
  0
ARC
  8
別途部材
  6
CONTINUOUS
 10
185.790269
 20
31.42329
 40
41.666665
 50
180.0
 51
233.130105
  0
ARC
  8
別途部材
  6
CONTINUOUS
 10
185.790269
 20
31.423291
 40
41.666665
 50
126.869895
 51
180.0
  0
LINE
  8
別途部材
  6
CONTINUOUS
 10
161.790272
 20
-3.97671
 11
161.790272
 21
31.42329
  0
LINE
  8
別途部材
  6
CONTINUOUS
 62
    96
 10
160.790272
 20
-3.57671
 11
160.790272
 21
31.42329
  0
LINE
  8
別途部材
  6
CONTINUOUS
 62
    96
 10
160.790272
 20
66.42329
 11
161.790272
 21
66.82329
  0
LINE
  8
別途部材
  6
CONTINUOUS
 10
161.790272
 20
66.82329
 11
161.790272
 21
31.42329
  0
LINE
  8
別途部材
  6
CONTINUOUS
 62
    96
 10
160.790272
 20
66.42329
 11
160.790272
 21
31.42329
  0
INSERT
  2
*GRP_0025
  8
別途部材
  6
DOT
 10
0.0
 20
0.0
  0
INSERT
  2
*GRP_0026
  8
別途部材
  6
DOT
 10
0.0
 20
0.0
  0
INSERT
  2
*GRP_0027
  8
別途部材
  6
DOT
 10
0.0
 20
0.0
  0
INSERT
  2
*GRP_0028
  8
別途部材
  6
DOT
 10
0.0
 20
0.0
  0
LINE
  8
曲げ物
  6
CONTINUOUS
 10
161.150468
 20
-84.44603
 11
161.150468
 21
-51.979363
  0
LINE
  8
曲げ物
  6
CONTINUOUS
 10
161.150468
 20
-51.979363
 11
125.470468
 21
-51.979363
  0
LINE
  8
曲げ物
  6
CONTINUOUS
 10
125.470468
 20
-51.979363
 11
125.470468
 21
-84.44603
  0
LINE
  8
曲げ物
  6
CONTINUOUS
 10
161.150468
 20
-84.44603
 11
125.470468
 21
-84.44603
  0
CIRCLE
  8
LAYER010
  6
CONTINUOUS
 62
     7
 10
163.156942
 20
67.756668
 40
0.011113
  0
CIRCLE
  8
LAYER010
  6
CONTINUOUS
 62
     7
 10
163.156942
 20
67.756668
 40
0.011113
  0
CIRCLE
  8
LAYER010
  6
CONTINUOUS
 62
     7
 10
163.156942
 20
-4.910083
 40
0.011113
  0
CIRCLE
  8
LAYER010
  6
CONTINUOUS
 62
     7
 10
163.156942
 20
-4.910083
 40
0.011113
  0
CIRCLE
  8
LAYER010
  6
CONTINUOUS
 62
     7
 10
74.257052
 20
-81.991267
 40
0.011113
  0
CIRCLE
  8
LAYER010
  6
CONTINUOUS
 62
     7
 10
74.257052
 20
-81.991267
 40
0.011113
  0
CIRCLE
  8
LAYER010
  6
CONTINUOUS
 62
     7
 10
-115.076372
 20
-81.991267
 40
0.011113
  0
CIRCLE
  8
LAYER010
  6
CONTINUOUS
 62
     7
 10
-115.076372
 20
-81.991267
 40
0.011113
  0
ENDSEC
  0
EOF
