  0
SECTION
  2
HEADER
  9
$EXTMIN
 10
-210.0
 20
-148.5
  9
$EXTMAX
 10
210.0
 20
148.5
  9
$PDMODE
 70
    32
  9
$PDSIZE
 40
1.5
  9
$LTSCALE
 40
10.0
  0
ENDSEC
  0
SECTION
  2
TABLES
  0
TABLE
  2
LTYPE
 70
    15
  0
LTYPE
  2
CONTINUOUS
 70
    64
  3
実線
 72
    65
 73
     0
 40
0.0
  0
LTYPE
  2
DASHED
 70
    64
  3
破線A
 72
    65
 73
     2
 40
0.6
 49
0.4
 49
-0.2
  0
LTYPE
  2
DASHEDX2
 70
    64
  3
破線B
 72
    65
 73
     2
 40
1.3
 49
0.9
 49
-0.4
  0
LTYPE
  2
DASHDOT
 70
    64
  3
１点鎖線A
 72
    65
 73
     4
 40
0.5375
 49
0.375
 49
-0.05
 49
0.0625
 49
-0.05
  0
LTYPE
  2
DASHDOTX2
 70
    64
  3
１点鎖線B
 72
    65
 73
     4
 40
1.075
 49
0.75
 49
-0.1
 49
0.125
 49
-0.1
  0
LTYPE
  2
DIVIDE2
 70
    64
  3
２点鎖線A
 72
    65
 73
     6
 40
0.5125
 49
0.3
 49
-0.0375
 49
0.05
 49
-0.0375
 49
0.05
 49
-0.0375
  0
LTYPE
  2
DIVIDE
 70
    64
  3
２点鎖線B
 72
    65
 73
     6
 40
1.05
 49
0.55
 49
-0.1
 49
0.1
 49
-0.1
 49
0.1
 49
-0.1
  0
LTYPE
  2
DOT
 70
    64
  3
点線A
 72
    65
 73
     2
 40
0.1125
 49
0.0625
 49
-0.05
  0
LTYPE
  2
DOTX2
 70
    64
  3
点線B
 72
    65
 73
     2
 40
0.275
 49
0.15
 49
-0.125
  0
LTYPE
  2
CONTINUOUS
 70
    64
  3
実線
 72
    65
 73
     0
 40
0.0
  0
LTYPE
  2
CONTINUOUS
 70
    64
  3
実線
 72
    65
 73
     0
 40
0.0
  0
LTYPE
  2
CONTINUOUS
 70
    64
  3
実線
 72
    65
 73
     0
 40
0.0
  0
LTYPE
  2
CONTINUOUS
 70
    64
  3
実線
 72
    65
 73
     0
 40
0.0
  0
LTYPE
  2
CONTINUOUS
 70
    64
  3
実線
 72
    65
 73
     0
 40
0.0
  0
LTYPE
  2
CONTINUOUS
 70
    64
  3
実線
 72
    65
 73
     0
 40
0.0
  0
ENDTAB
  0
TABLE
  2
LAYER
 70
    35
  0
LAYER
  2
通り芯
 70
     0
 62
    15
  6
CONTINUOUS
  0
LAYER
  2
補助線
 70
     0
 62
    16
  6
DOT
  0
LAYER
  2
躯体
 70
     0
 62
    31
  6
CONTINUOUS
  0
LAYER
  2
型材
 70
     0
 62
    32
  6
CONTINUOUS
  0
LAYER
  2
型材断面
 70
     0
 62
    47
  6
CONTINUOUS
  0
LAYER
  2
ガラス
 70
     0
 62
    48
  6
CONTINUOUS
  0
LAYER
  2
ゴム等
 70
     0
 62
    63
  6
CONTINUOUS
  0
LAYER
  2
ボルト／ビス
 70
     0
 62
    64
  6
CONTINUOUS
  0
LAYER
  2
文字
 70
     0
 62
    79
  6
CONTINUOUS
  0
LAYER
  2
寸法
 70
     0
 62
    80
  6
CONTINUOUS
  0
LAYER
  2
ﾊｯﾁﾝｸﾞ
 70
     0
 62
    95
  6
CONTINUOUS
  0
LAYER
  2
別途部材
 70
     0
 62
    96
  6
CONTINUOUS
  0
LAYER
  2
曲げ物
 70
     0
 62
   111
  6
CONTINUOUS
  0
LAYER
  2
鉄骨等
 70
     0
 62
   112
  6
CONTINUOUS
  0
LAYER
  2
St
 70
     0
 62
   127
  6
CONTINUOUS
  0
LAYER
  2
その他部品等
 70
     0
 62
   128
  6
CONTINUOUS
  0
LAYER
  2
ｶﾞｽｹｯﾄ
 70
     0
 62
   143
  6
CONTINUOUS
  0
LAYER
  2
ｽｹｯﾁ
 70
     0
 62
    14
  6
CONTINUOUS
  0
LAYER
  2
0
 70
     0
 62
    17
  6
CONTINUOUS
  0
LAYER
  2
1
 70
     0
 62
    30
  6
CONTINUOUS
  0
LAYER
  2
4
 70
     0
 62
    33
  6
CONTINUOUS
  0
LAYER
  2
ﾚｲﾔ3
 70
     0
 62
    46
  6
CONTINUOUS
  0
LAYER
  2
外形線
 70
     0
 62
    49
  6
CONTINUOUS
  0
LAYER
  2
部品
 70
     0
 62
    14
  6
CONTINUOUS
  0
LAYER
  2
サッシ芯
 70
     0
 62
    17
  6
DASHDOTX2
  0
LAYER
  2
寸法線
 70
     0
 62
    62
  6
CONTINUOUS
  0
LAYER
  2
姿図外形線
 70
     0
 62
    65
  6
CONTINUOUS
  0
LAYER
  2
姿補助線
 70
     0
 62
    30
  6
CONTINUOUS
  0
LAYER
  2
透視線
 70
     0
 62
    78
  6
DOT
  0
LAYER
  2
用紙
 70
     0
 62
    81
  6
CONTINUOUS
  0
LAYER
  2
実線図枠
 70
     0
 62
    94
  6
CONTINUOUS
  0
LAYER
  2
補助図枠
 70
     0
 62
    97
  6
CONTINUOUS
  0
LAYER
  2
建具記号
 70
     0
 62
   110
  6
CONTINUOUS
  0
LAYER
  2
補助文字
 70
     0
 62
   113
  6
CONTINUOUS
  0
LAYER
  2
LAYER010
 70
     0
 62
    11
  6
CONTINUOUS
  0
ENDTAB
  0
TABLE
  2
STYLE
 70
    10
  0
STYLE
  2
STANDARD
 70
     0
 40
1.0
 41
1.0
 42
1.0
 50
0.0
 71
     0
  3
TXT
  4
BIGFONT
  0
STYLE
  2
TATE
 70
     4
 40
1.0
 41
1.0
 42
1.0
 50
0.0
 71
     0
  3
TXT
  4
BIGFONT
  0
STYLE
  2
TextStyle03
 70
     0
 40
1.0
 41
1.0
 42
1.0
 50
0.0
 71
     0
  3
MONOTXT
  4
BIGFONT
  0
STYLE
  2
TextStyle04
 70
     0
 40
1.0
 41
1.0
 42
1.0
 50
0.0
 71
     0
  3
MONOTXT
  4
BIGFONT
  0
STYLE
  2
TextStyle05
 70
     0
 40
1.0
 41
1.0
 42
1.0
 50
0.0
 71
     0
  3
MONOTXT
  4
BIGFONT
  0
STYLE
  2
TextStyle06
 70
     0
 40
1.0
 41
1.0
 42
1.0
 50
0.0
 71
     0
  3
MONOTXT
  4
BIGFONT
  0
STYLE
  2
TextStyle07
 70
     0
 40
1.0
 41
1.0
 42
1.0
 50
0.0
 71
     0
  3
MONOTXT
  4
BIGFONT
  0
STYLE
  2
TextStyle08
 70
     0
 40
1.0
 41
1.0
 42
1.0
 50
0.0
 71
     0
  3
MONOTXT
  4
BIGFONT
  0
STYLE
  2
TextStyle09
 70
     0
 40
1.0
 41
1.0
 42
1.0
 50
0.0
 71
     0
  3
MONOTXT
  4
BIGFONT
  0
STYLE
  2
TextStyle10
 70
     0
 40
1.0
 41
1.0
 42
1.0
 50
0.0
 71
     0
  3
MONOTXT
  4
BIGFONT
  0
ENDTAB
  0
ENDSEC
  0
SECTION
  2
BLOCKS
  0
BLOCK
  2
*GRP_0001
 70
    65
 10
0.0
 20
0.0
  0
LINE
  8
型材断面
  6
CONTINUOUS
 10
195.0
 20
133.5
 11
195.0
 21
-133.5
  0
LINE
  8
型材断面
  6
CONTINUOUS
 10
195.0
 20
-133.5
 11
-185.0
 21
-133.5
  0
LINE
  8
型材断面
  6
CONTINUOUS
 10
-185.0
 20
-133.5
 11
-185.0
 21
133.5
  0
LINE
  8
型材断面
  6
CONTINUOUS
 10
195.0
 20
133.5
 11
-185.0
 21
133.5
  0
LINE
  8
型材断面
  6
CONTINUOUS
 10
145.0
 20
-133.5
 11
145.0
 21
-118.5
  0
LINE
  8
型材断面
  6
CONTINUOUS
 10
195.0
 20
-118.5
 11
145.0
 21
-118.5
  0
ENDBLK
  0
BLOCK
  2
*DIM_0002
 70
    65
 10
0.0
 20
0.0
  0
LINE
  8
寸法
  6
BYBLOCK
 62
     0
 10
-4.287135
 20
-64.87628
 11
20.682515
 21
-64.87628
  0
LINE
  8
寸法
  6
BYBLOCK
 62
     0
 10
20.682515
 20
-70.209613
 11
20.682515
 21
-64.87628
  0
POINT
  8
寸法
 62
     0
 10
20.682515
 20
-70.209613
  0
POINT
  8
寸法
 62
     0
 10
20.682515
 20
-64.87628
  0
TEXT
  7
TextStyle03
  8
寸法
  6
CONTINUOUS
 62
     0
 10
20.3
 20
-69.9875
  1
160
 40
3.0
 50
90.0
 72
     5
 11
20.3
 21
-65.1125
  0
ENDBLK
  0
BLOCK
  2
*DIM_0003
 70
    65
 10
0.0
 20
0.0
  0
LINE
  8
寸法
  6
BYBLOCK
 62
     0
 10
100.79942
 20
-63.785395
 11
108.91095
 21
-63.785395
  0
LINE
  8
寸法
  6
BYBLOCK
 62
     0
 10
100.79942
 20
-83.118728
 11
108.91095
 21
-83.118728
  0
LINE
  8
寸法
  6
BYBLOCK
 62
     0
 10
108.91095
 20
-63.785395
 11
108.91095
 21
-83.118728
  0
POINT
  8
寸法
 62
     0
 10
108.91095
 20
-63.785395
  0
POINT
  8
寸法
 62
     0
 10
108.91095
 20
-83.118728
  0
TEXT
  7
TextStyle03
  8
寸法
  6
CONTINUOUS
 62
     0
 10
108.525
 20
-75.9125
  1
580
 40
3.0
 50
90.0
 72
     5
 11
108.525
 21
-71.0375
  0
ENDBLK
  0
BLOCK
  2
*DIM_0004
 70
    65
 10
0.0
 20
0.0
  0
LINE
  8
寸法
  6
BYBLOCK
 62
     0
 10
4.712865
 20
-13.121378
 11
-95.287135
 21
-13.121378
  0
POINT
  8
寸法
 62
     0
 10
4.712865
 20
-13.121378
  0
POINT
  8
寸法
 62
     0
 10
-95.287135
 20
-13.121378
  0
TEXT
  7
TextStyle03
  8
寸法
  6
CONTINUOUS
 62
     0
 10
-57.01875
 20
-12.75
  1
呼称寸法　3000
 40
3.0
 72
     5
 11
-33.58125
 21
-12.75
  0
ENDBLK
  0
BLOCK
  2
*DIM_0005
 70
    65
 10
0.0
 20
0.0
  0
LINE
  8
寸法
  6
BYBLOCK
 62
     0
 10
99.79942
 20
-62.785395
 11
99.79942
 21
-53.899495
  0
LINE
  8
寸法
  6
BYBLOCK
 62
     0
 10
67.39942
 20
-62.785395
 11
67.39942
 21
-53.899495
  0
LINE
  8
寸法
  6
BYBLOCK
 62
     0
 10
99.79942
 20
-53.899495
 11
67.39942
 21
-53.899495
  0
POINT
  8
寸法
 62
     0
 10
99.79942
 20
-53.899495
  0
POINT
  8
寸法
 62
     0
 10
67.39942
 20
-53.899495
  0
TEXT
  7
TextStyle03
  8
寸法
  6
CONTINUOUS
 62
     0
 10
81.1625
 20
-53.525
  1
972
 40
3.0
 72
     5
 11
86.0375
 21
-53.525
  0
ENDBLK
  0
BLOCK
  2
*DIM_0006
 70
    65
 10
0.0
 20
0.0
  0
LINE
  8
寸法
  6
BYBLOCK
 62
     0
 10
-78.620467
 20
19.183902
 11
-78.620467
 21
14.10329
  0
LINE
  8
寸法
  6
BYBLOCK
 62
     0
 10
-11.953802
 20
19.183902
 11
-11.953802
 21
14.10329
  0
LINE
  8
寸法
  6
BYBLOCK
 62
     0
 10
-78.620467
 20
14.10329
 11
-11.953802
 21
14.10329
  0
POINT
  8
寸法
 62
     0
 10
-78.620467
 20
14.10329
  0
POINT
  8
寸法
 62
     0
 10
-11.953802
 20
14.10329
  0
TEXT
  7
TextStyle03
  8
寸法
  6
CONTINUOUS
 62
     0
 10
-48.55625
 20
14.475
  1
2000
 40
3.0
 72
     5
 11
-41.99375
 21
14.475
  0
ENDBLK
  0
BLOCK
  2
*GRP_0007
 70
    65
 10
0.0
 20
0.0
  0
LINE
  8
別途部材
  6
CONTINUOUS
 62
    96
 10
6.379532
 20
-70.209613
 11
6.779532
 21
-71.209613
  0
ARC
  8
別途部材
  6
CONTINUOUS
 10
-5.287134
 20
-76.917951
 40
12.041668
 50
33.855033
 51
90.0
  0
LINE
  8
別途部材
  6
CONTINUOUS
 10
6.779532
 20
-71.209613
 11
-45.287135
 21
-71.209613
  0
LINE
  8
別途部材
  6
CONTINUOUS
 62
    96
 10
6.379532
 20
-70.209613
 11
-45.287135
 21
-70.209613
  0
LINE
  8
別途部材
  6
CONTINUOUS
 10
-44.787135
 20
-63.87628
 11
-43.787135
 21
-64.87628
  0
LINE
  8
別途部材
  6
CONTINUOUS
 10
-42.787135
 20
-64.87628
 11
-41.787135
 21
-63.87628
  0
LINE
  8
別途部材
  6
CONTINUOUS
 10
-40.787135
 20
-63.87628
 11
-39.787135
 21
-64.87628
  0
LINE
  8
別途部材
  6
CONTINUOUS
 10
-41.787135
 20
-63.87628
 11
-40.787135
 21
-63.87628
  0
LINE
  8
別途部材
  6
CONTINUOUS
 10
-44.787135
 20
-63.87628
 11
-45.287135
 21
-63.87628
  0
LINE
  8
別途部材
  6
CONTINUOUS
 10
-38.787135
 20
-64.87628
 11
-37.787135
 21
-63.87628
  0
LINE
  8
別途部材
  6
CONTINUOUS
 10
-36.787135
 20
-63.87628
 11
-35.787135
 21
-64.87628
  0
LINE
  8
別途部材
  6
CONTINUOUS
 10
-37.787135
 20
-63.87628
 11
-36.787135
 21
-63.87628
  0
LINE
  8
別途部材
  6
CONTINUOUS
 10
-34.787135
 20
-64.87628
 11
-33.787135
 21
-63.87628
  0
LINE
  8
別途部材
  6
CONTINUOUS
 10
-32.787135
 20
-63.87628
 11
-31.787135
 21
-64.87628
  0
LINE
  8
別途部材
  6
CONTINUOUS
 10
-33.787135
 20
-63.87628
 11
-32.787135
 21
-63.87628
  0
LINE
  8
別途部材
  6
CONTINUOUS
 10
-30.787135
 20
-64.87628
 11
-29.787135
 21
-63.87628
  0
LINE
  8
別途部材
  6
CONTINUOUS
 10
-28.787135
 20
-63.87628
 11
-27.787135
 21
-64.87628
  0
LINE
  8
別途部材
  6
CONTINUOUS
 10
-29.787135
 20
-63.87628
 11
-28.787135
 21
-63.87628
  0
LINE
  8
別途部材
  6
CONTINUOUS
 10
-26.787135
 20
-64.87628
 11
-25.787135
 21
-63.87628
  0
LINE
  8
別途部材
  6
CONTINUOUS
 10
-24.787135
 20
-63.87628
 11
-23.787135
 21
-64.87628
  0
LINE
  8
別途部材
  6
CONTINUOUS
 10
-25.787135
 20
-63.87628
 11
-24.787135
 21
-63.87628
  0
LINE
  8
別途部材
  6
CONTINUOUS
 10
-22.787135
 20
-64.87628
 11
-21.787135
 21
-63.87628
  0
LINE
  8
別途部材
  6
CONTINUOUS
 10
-20.787135
 20
-63.87628
 11
-19.787135
 21
-64.87628
  0
LINE
  8
別途部材
  6
CONTINUOUS
 10
-21.787135
 20
-63.87628
 11
-20.787135
 21
-63.87628
  0
LINE
  8
別途部材
  6
CONTINUOUS
 10
-18.787135
 20
-64.87628
 11
-17.787135
 21
-63.87628
  0
LINE
  8
別途部材
  6
CONTINUOUS
 10
-16.787135
 20
-63.87628
 11
-15.787135
 21
-64.87628
  0
LINE
  8
別途部材
  6
CONTINUOUS
 10
-17.787135
 20
-63.87628
 11
-16.787135
 21
-63.87628
  0
LINE
  8
別途部材
  6
CONTINUOUS
 10
-14.787135
 20
-64.87628
 11
-13.787135
 21
-63.87628
  0
LINE
  8
別途部材
  6
CONTINUOUS
 10
-12.787135
 20
-63.87628
 11
-11.787135
 21
-64.87628
  0
LINE
  8
別途部材
  6
CONTINUOUS
 10
-13.787135
 20
-63.87628
 11
-12.787135
 21
-63.87628
  0
LINE
  8
別途部材
  6
CONTINUOUS
 10
-10.787135
 20
-64.87628
 11
-9.787135
 21
-63.87628
  0
LINE
  8
別途部材
  6
CONTINUOUS
 10
-8.787135
 20
-63.87628
 11
-7.787135
 21
-64.87628
  0
LINE
  8
別途部材
  6
CONTINUOUS
 10
-9.787135
 20
-63.87628
 11
-8.787135
 21
-63.87628
  0
LINE
  8
別途部材
  6
CONTINUOUS
 10
-11.787135
 20
-64.87628
 11
-10.787135
 21
-64.87628
  0
LINE
  8
別途部材
  6
CONTINUOUS
 10
-15.787135
 20
-64.87628
 11
-14.787135
 21
-64.87628
  0
LINE
  8
別途部材
  6
CONTINUOUS
 10
-19.787135
 20
-64.87628
 11
-18.787135
 21
-64.87628
  0
LINE
  8
別途部材
  6
CONTINUOUS
 10
-23.787135
 20
-64.87628
 11
-22.787135
 21
-64.87628
  0
LINE
  8
別途部材
  6
CONTINUOUS
 10
-27.787135
 20
-64.87628
 11
-26.787135
 21
-64.87628
  0
LINE
  8
別途部材
  6
CONTINUOUS
 10
-31.787135
 20
-64.87628
 11
-30.787135
 21
-64.87628
  0
LINE
  8
別途部材
  6
CONTINUOUS
 10
-35.787135
 20
-64.87628
 11
-34.787135
 21
-64.87628
  0
LINE
  8
別途部材
  6
CONTINUOUS
 10
-39.787135
 20
-64.87628
 11
-38.787135
 21
-64.87628
  0
LINE
  8
別途部材
  6
CONTINUOUS
 10
-42.787135
 20
-64.87628
 11
-43.787135
 21
-64.87628
  0
LINE
  8
別途部材
  6
CONTINUOUS
 10
-7.787135
 20
-64.87628
 11
-7.787135
 21
-70.209613
  0
LINE
  8
別途部材
  6
CONTINUOUS
 10
-8.787135
 20
-63.87628
 11
-8.787135
 21
-70.209613
  0
LINE
  8
別途部材
  6
CONTINUOUS
 10
-9.787135
 20
-63.87628
 11
-9.787135
 21
-70.209613
  0
LINE
  8
別途部材
  6
CONTINUOUS
 10
-10.787135
 20
-64.87628
 11
-10.787135
 21
-70.209613
  0
LINE
  8
別途部材
  6
CONTINUOUS
 10
-12.787135
 20
-63.87628
 11
-12.787135
 21
-70.209613
  0
LINE
  8
別途部材
  6
CONTINUOUS
 10
-16.787135
 20
-63.87628
 11
-16.787135
 21
-70.209613
  0
LINE
  8
別途部材
  6
CONTINUOUS
 10
-15.787135
 20
-64.87628
 11
-15.787135
 21
-70.209613
  0
LINE
  8
別途部材
  6
CONTINUOUS
 10
-14.787135
 20
-64.87628
 11
-14.787135
 21
-70.209613
  0
LINE
  8
別途部材
  6
CONTINUOUS
 10
-13.787135
 20
-63.87628
 11
-13.787135
 21
-70.209613
  0
LINE
  8
別途部材
  6
CONTINUOUS
 10
-11.787135
 20
-64.87628
 11
-11.787135
 21
-70.209613
  0
LINE
  8
別途部材
  6
CONTINUOUS
 10
-18.787135
 20
-64.87628
 11
-18.787135
 21
-70.209613
  0
LINE
  8
別途部材
  6
CONTINUOUS
 10
-17.787135
 20
-63.87628
 11
-17.787135
 21
-70.209613
  0
LINE
  8
別途部材
  6
CONTINUOUS
 10
-19.787135
 20
-64.87628
 11
-19.787135
 21
-70.209613
  0
LINE
  8
別途部材
  6
CONTINUOUS
 10
-20.787135
 20
-63.87628
 11
-20.787135
 21
-70.209613
  0
LINE
  8
別途部材
  6
CONTINUOUS
 10
-24.787135
 20
-63.87628
 11
-24.787135
 21
-70.209613
  0
LINE
  8
別途部材
  6
CONTINUOUS
 10
-25.787135
 20
-63.87628
 11
-25.787135
 21
-70.209613
  0
LINE
  8
別途部材
  6
CONTINUOUS
 10
-23.787135
 20
-64.87628
 11
-23.787135
 21
-70.209613
  0
LINE
  8
別途部材
  6
CONTINUOUS
 10
-22.787135
 20
-64.87628
 11
-22.787135
 21
-70.209613
  0
LINE
  8
別途部材
  6
CONTINUOUS
 10
-21.787135
 20
-63.87628
 11
-21.787135
 21
-70.209613
  0
LINE
  8
別途部材
  6
CONTINUOUS
 10
-26.787135
 20
-64.87628
 11
-26.787135
 21
-70.209613
  0
LINE
  8
別途部材
  6
CONTINUOUS
 10
-28.787135
 20
-63.87628
 11
-28.787135
 21
-70.209613
  0
LINE
  8
別途部材
  6
CONTINUOUS
 10
-29.787135
 20
-63.87628
 11
-29.787135
 21
-70.209613
  0
LINE
  8
別途部材
  6
CONTINUOUS
 10
-30.787135
 20
-64.87628
 11
-30.787135
 21
-70.209613
  0
LINE
  8
別途部材
  6
CONTINUOUS
 10
-31.787135
 20
-64.87628
 11
-31.787135
 21
-70.209613
  0
LINE
  8
別途部材
  6
CONTINUOUS
 10
-32.787135
 20
-63.87628
 11
-32.787135
 21
-70.209613
  0
LINE
  8
別途部材
  6
CONTINUOUS
 10
-27.787135
 20
-64.87628
 11
-27.787135
 21
-70.209613
  0
LINE
  8
別途部材
  6
CONTINUOUS
 10
-33.787135
 20
-63.87628
 11
-33.787135
 21
-70.209613
  0
LINE
  8
別途部材
  6
CONTINUOUS
 10
-34.787135
 20
-64.87628
 11
-34.787135
 21
-70.209613
  0
LINE
  8
別途部材
  6
CONTINUOUS
 10
-35.787135
 20
-64.87628
 11
-35.787135
 21
-70.209613
  0
LINE
  8
別途部材
  6
CONTINUOUS
 10
-37.787135
 20
-63.87628
 11
-37.787135
 21
-70.209613
  0
LINE
  8
別途部材
  6
CONTINUOUS
 10
-39.787135
 20
-64.87628
 11
-39.787135
 21
-70.209613
  0
LINE
  8
別途部材
  6
CONTINUOUS
 10
-40.787135
 20
-63.87628
 11
-40.787135
 21
-70.209613
  0
LINE
  8
別途部材
  6
CONTINUOUS
 10
-42.787135
 20
-64.87628
 11
-42.787135
 21
-70.209613
  0
LINE
  8
別途部材
  6
CONTINUOUS
 10
-43.787135
 20
-64.87628
 11
-43.787135
 21
-70.209613
  0
LINE
  8
別途部材
  6
CONTINUOUS
 10
-44.787135
 20
-63.87628
 11
-44.787135
 21
-70.209613
  0
LINE
  8
別途部材
  6
CONTINUOUS
 10
-41.787135
 20
-63.87628
 11
-41.787135
 21
-70.209613
  0
LINE
  8
別途部材
  6
CONTINUOUS
 10
-38.787135
 20
-64.87628
 11
-38.787135
 21
-70.209613
  0
LINE
  8
別途部材
  6
CONTINUOUS
 10
-36.787135
 20
-63.87628
 11
-36.787135
 21
-70.209613
  0
LINE
  8
別途部材
  6
CONTINUOUS
 10
-7.787135
 20
-64.87628
 11
-5.287135
 21
-64.87628
  0
LINE
  8
別途部材
  6
CONTINUOUS
 62
    96
 10
-96.9538
 20
-70.209613
 11
-97.3538
 21
-71.209613
  0
ARC
  8
別途部材
  6
CONTINUOUS
 10
-85.287134
 20
-76.917951
 40
12.041668
 50
90.0
 51
146.144967
  0
LINE
  8
別途部材
  6
CONTINUOUS
 10
-97.3538
 20
-71.209613
 11
-45.287135
 21
-71.209613
  0
LINE
  8
別途部材
  6
CONTINUOUS
 62
    96
 10
-96.9538
 20
-70.209613
 11
-45.287135
 21
-70.209613
  0
LINE
  8
別途部材
  6
CONTINUOUS
 10
-45.787135
 20
-63.87628
 11
-46.787135
 21
-64.87628
  0
LINE
  8
別途部材
  6
CONTINUOUS
 10
-47.787135
 20
-64.87628
 11
-48.787135
 21
-63.87628
  0
LINE
  8
別途部材
  6
CONTINUOUS
 10
-49.787135
 20
-63.87628
 11
-50.787135
 21
-64.87628
  0
LINE
  8
別途部材
  6
CONTINUOUS
 10
-48.787135
 20
-63.87628
 11
-49.787135
 21
-63.87628
  0
LINE
  8
別途部材
  6
CONTINUOUS
 10
-45.787135
 20
-63.87628
 11
-45.287135
 21
-63.87628
  0
LINE
  8
別途部材
  6
CONTINUOUS
 10
-51.787135
 20
-64.87628
 11
-52.787135
 21
-63.87628
  0
LINE
  8
別途部材
  6
CONTINUOUS
 10
-53.787135
 20
-63.87628
 11
-54.787135
 21
-64.87628
  0
LINE
  8
別途部材
  6
CONTINUOUS
 10
-52.787135
 20
-63.87628
 11
-53.787135
 21
-63.87628
  0
LINE
  8
別途部材
  6
CONTINUOUS
 10
-55.787135
 20
-64.87628
 11
-56.787135
 21
-63.87628
  0
LINE
  8
別途部材
  6
CONTINUOUS
 10
-57.787135
 20
-63.87628
 11
-58.787135
 21
-64.87628
  0
LINE
  8
別途部材
  6
CONTINUOUS
 10
-56.787135
 20
-63.87628
 11
-57.787135
 21
-63.87628
  0
LINE
  8
別途部材
  6
CONTINUOUS
 10
-59.787135
 20
-64.87628
 11
-60.787135
 21
-63.87628
  0
LINE
  8
別途部材
  6
CONTINUOUS
 10
-61.787135
 20
-63.87628
 11
-62.787135
 21
-64.87628
  0
LINE
  8
別途部材
  6
CONTINUOUS
 10
-60.787135
 20
-63.87628
 11
-61.787135
 21
-63.87628
  0
LINE
  8
別途部材
  6
CONTINUOUS
 10
-63.787135
 20
-64.87628
 11
-64.787135
 21
-63.87628
  0
LINE
  8
別途部材
  6
CONTINUOUS
 10
-65.787135
 20
-63.87628
 11
-66.787135
 21
-64.87628
  0
LINE
  8
別途部材
  6
CONTINUOUS
 10
-64.787135
 20
-63.87628
 11
-65.787135
 21
-63.87628
  0
LINE
  8
別途部材
  6
CONTINUOUS
 10
-67.787135
 20
-64.87628
 11
-68.787135
 21
-63.87628
  0
LINE
  8
別途部材
  6
CONTINUOUS
 10
-69.787135
 20
-63.87628
 11
-70.787135
 21
-64.87628
  0
LINE
  8
別途部材
  6
CONTINUOUS
 10
-68.787135
 20
-63.87628
 11
-69.787135
 21
-63.87628
  0
LINE
  8
別途部材
  6
CONTINUOUS
 10
-71.787135
 20
-64.87628
 11
-72.787135
 21
-63.87628
  0
LINE
  8
別途部材
  6
CONTINUOUS
 10
-73.787135
 20
-63.87628
 11
-74.787135
 21
-64.87628
  0
LINE
  8
別途部材
  6
CONTINUOUS
 10
-72.787135
 20
-63.87628
 11
-73.787135
 21
-63.87628
  0
LINE
  8
別途部材
  6
CONTINUOUS
 10
-75.787135
 20
-64.87628
 11
-76.787135
 21
-63.87628
  0
LINE
  8
別途部材
  6
CONTINUOUS
 10
-77.787135
 20
-63.87628
 11
-78.787135
 21
-64.87628
  0
LINE
  8
別途部材
  6
CONTINUOUS
 10
-76.787135
 20
-63.87628
 11
-77.787135
 21
-63.87628
  0
LINE
  8
別途部材
  6
CONTINUOUS
 10
-79.787135
 20
-64.87628
 11
-80.787135
 21
-63.87628
  0
LINE
  8
別途部材
  6
CONTINUOUS
 10
-81.787135
 20
-63.87628
 11
-82.787135
 21
-64.87628
  0
LINE
  8
別途部材
  6
CONTINUOUS
 10
-80.787135
 20
-63.87628
 11
-81.787135
 21
-63.87628
  0
LINE
  8
別途部材
  6
CONTINUOUS
 10
-78.787135
 20
-64.87628
 11
-79.787135
 21
-64.87628
  0
LINE
  8
別途部材
  6
CONTINUOUS
 10
-74.787135
 20
-64.87628
 11
-75.787135
 21
-64.87628
  0
LINE
  8
別途部材
  6
CONTINUOUS
 10
-70.787135
 20
-64.87628
 11
-71.787135
 21
-64.87628
  0
LINE
  8
別途部材
  6
CONTINUOUS
 10
-66.787135
 20
-64.87628
 11
-67.787135
 21
-64.87628
  0
LINE
  8
別途部材
  6
CONTINUOUS
 10
-62.787135
 20
-64.87628
 11
-63.787135
 21
-64.87628
  0
LINE
  8
別途部材
  6
CONTINUOUS
 10
-58.787135
 20
-64.87628
 11
-59.787135
 21
-64.87628
  0
LINE
  8
別途部材
  6
CONTINUOUS
 10
-54.787135
 20
-64.87628
 11
-55.787135
 21
-64.87628
  0
LINE
  8
別途部材
  6
CONTINUOUS
 10
-50.787135
 20
-64.87628
 11
-51.787135
 21
-64.87628
  0
LINE
  8
別途部材
  6
CONTINUOUS
 10
-47.787135
 20
-64.87628
 11
-46.787135
 21
-64.87628
  0
LINE
  8
別途部材
  6
CONTINUOUS
 10
-82.787135
 20
-64.87628
 11
-82.787135
 21
-70.209613
  0
LINE
  8
別途部材
  6
CONTINUOUS
 10
-81.787135
 20
-63.87628
 11
-81.787135
 21
-70.209613
  0
LINE
  8
別途部材
  6
CONTINUOUS
 10
-80.787135
 20
-63.87628
 11
-80.787135
 21
-70.209613
  0
LINE
  8
別途部材
  6
CONTINUOUS
 10
-79.787135
 20
-64.87628
 11
-79.787135
 21
-70.209613
  0
LINE
  8
別途部材
  6
CONTINUOUS
 10
-77.787135
 20
-63.87628
 11
-77.787135
 21
-70.209613
  0
LINE
  8
別途部材
  6
CONTINUOUS
 10
-73.787135
 20
-63.87628
 11
-73.787135
 21
-70.209613
  0
LINE
  8
別途部材
  6
CONTINUOUS
 10
-74.787135
 20
-64.87628
 11
-74.787135
 21
-70.209613
  0
LINE
  8
別途部材
  6
CONTINUOUS
 10
-75.787135
 20
-64.87628
 11
-75.787135
 21
-70.209613
  0
LINE
  8
別途部材
  6
CONTINUOUS
 10
-76.787135
 20
-63.87628
 11
-76.787135
 21
-70.209613
  0
LINE
  8
別途部材
  6
CONTINUOUS
 10
-78.787135
 20
-64.87628
 11
-78.787135
 21
-70.209613
  0
LINE
  8
別途部材
  6
CONTINUOUS
 10
-71.787135
 20
-64.87628
 11
-71.787135
 21
-70.209613
  0
LINE
  8
別途部材
  6
CONTINUOUS
 10
-72.787135
 20
-63.87628
 11
-72.787135
 21
-70.209613
  0
LINE
  8
別途部材
  6
CONTINUOUS
 10
-70.787135
 20
-64.87628
 11
-70.787135
 21
-70.209613
  0
LINE
  8
別途部材
  6
CONTINUOUS
 10
-69.787135
 20
-63.87628
 11
-69.787135
 21
-70.209613
  0
LINE
  8
別途部材
  6
CONTINUOUS
 10
-65.787135
 20
-63.87628
 11
-65.787135
 21
-70.209613
  0
LINE
  8
別途部材
  6
CONTINUOUS
 10
-64.787135
 20
-63.87628
 11
-64.787135
 21
-70.209613
  0
LINE
  8
別途部材
  6
CONTINUOUS
 10
-66.787135
 20
-64.87628
 11
-66.787135
 21
-70.209613
  0
LINE
  8
別途部材
  6
CONTINUOUS
 10
-67.787135
 20
-64.87628
 11
-67.787135
 21
-70.209613
  0
LINE
  8
別途部材
  6
CONTINUOUS
 10
-68.787135
 20
-63.87628
 11
-68.787135
 21
-70.209613
  0
LINE
  8
別途部材
  6
CONTINUOUS
 10
-63.787135
 20
-64.87628
 11
-63.787135
 21
-70.209613
  0
LINE
  8
別途部材
  6
CONTINUOUS
 10
-61.787135
 20
-63.87628
 11
-61.787135
 21
-70.209613
  0
LINE
  8
別途部材
  6
CONTINUOUS
 10
-60.787135
 20
-63.87628
 11
-60.787135
 21
-70.209613
  0
LINE
  8
別途部材
  6
CONTINUOUS
 10
-59.787135
 20
-64.87628
 11
-59.787135
 21
-70.209613
  0
LINE
  8
別途部材
  6
CONTINUOUS
 10
-58.787135
 20
-64.87628
 11
-58.787135
 21
-70.209613
  0
LINE
  8
別途部材
  6
CONTINUOUS
 10
-57.787135
 20
-63.87628
 11
-57.787135
 21
-70.209613
  0
LINE
  8
別途部材
  6
CONTINUOUS
 10
-62.787135
 20
-64.87628
 11
-62.787135
 21
-70.209613
  0
LINE
  8
別途部材
  6
CONTINUOUS
 10
-56.787135
 20
-63.87628
 11
-56.787135
 21
-70.209613
  0
LINE
  8
別途部材
  6
CONTINUOUS
 10
-55.787135
 20
-64.87628
 11
-55.787135
 21
-70.209613
  0
LINE
  8
別途部材
  6
CONTINUOUS
 10
-54.787135
 20
-64.87628
 11
-54.787135
 21
-70.209613
  0
LINE
  8
別途部材
  6
CONTINUOUS
 10
-52.787135
 20
-63.87628
 11
-52.787135
 21
-70.209613
  0
LINE
  8
別途部材
  6
CONTINUOUS
 10
-50.787135
 20
-64.87628
 11
-50.787135
 21
-70.209613
  0
LINE
  8
別途部材
  6
CONTINUOUS
 10
-49.787135
 20
-63.87628
 11
-49.787135
 21
-70.209613
  0
LINE
  8
別途部材
  6
CONTINUOUS
 10
-47.787135
 20
-64.87628
 11
-47.787135
 21
-70.209613
  0
LINE
  8
別途部材
  6
CONTINUOUS
 10
-46.787135
 20
-64.87628
 11
-46.787135
 21
-70.209613
  0
LINE
  8
別途部材
  6
CONTINUOUS
 10
-45.787135
 20
-63.87628
 11
-45.787135
 21
-70.209613
  0
LINE
  8
別途部材
  6
CONTINUOUS
 10
-48.787135
 20
-63.87628
 11
-48.787135
 21
-70.209613
  0
LINE
  8
別途部材
  6
CONTINUOUS
 10
-51.787135
 20
-64.87628
 11
-51.787135
 21
-70.209613
  0
LINE
  8
別途部材
  6
CONTINUOUS
 10
-53.787135
 20
-63.87628
 11
-53.787135
 21
-70.209613
  0
LINE
  8
別途部材
  6
CONTINUOUS
 10
-82.787135
 20
-64.87628
 11
-85.287135
 21
-64.87628
  0
ENDBLK
  0
BLOCK
  2
*DIM_0008
 70
    65
 10
0.0
 20
0.0
  0
LINE
  8
寸法
  6
BYBLOCK
 62
     0
 10
38.732515
 20
22.814033
 11
38.732515
 21
42.814033
  0
POINT
  8
寸法
 62
     0
 10
38.732515
 20
22.814033
  0
POINT
  8
寸法
 62
     0
 10
38.732515
 20
42.814033
  0
TEXT
  7
TextStyle03
  8
寸法
  6
CONTINUOUS
 62
     0
 10
38.375
 20
21.925
  1
呼称寸法　600
 40
3.0
 50
90.0
 72
     5
 11
38.375
 21
43.675
  0
ENDBLK
  0
BLOCK
  2
*DIM_0009
 70
    65
 10
0.0
 20
0.0
  0
LINE
  8
寸法
  6
BYBLOCK
 62
     0
 10
88.912797
 20
33.814033
 11
88.912797
 21
60.666798
  0
LINE
  8
寸法
  6
BYBLOCK
 62
     0
 10
94.24613
 20
60.666798
 11
88.912797
 21
60.666798
  0
POINT
  8
寸法
 62
     0
 10
94.24613
 20
60.666798
  0
POINT
  8
寸法
 62
     0
 10
88.912797
 20
60.666798
  0
TEXT
  7
TextStyle03
  8
寸法
  6
CONTINUOUS
 62
     0
 10
89.1625
 20
61.025
  1
160
 40
3.0
 72
     5
 11
94.0375
 21
61.025
  0
ENDBLK
  0
BLOCK
  2
*DIM_0010
 70
    65
 10
0.0
 20
0.0
  0
LINE
  8
寸法
  6
BYBLOCK
 62
     0
 10
94.24613
 20
45.4807
 11
94.24613
 21
60.666798
  0
LINE
  8
寸法
  6
BYBLOCK
 62
     0
 10
97.112797
 20
46.814077
 11
97.112797
 21
60.666798
  0
LINE
  8
寸法
  6
BYBLOCK
 62
     0
 10
94.24613
 20
60.666798
 11
97.112797
 21
60.666798
  0
POINT
  8
寸法
 62
     0
 10
94.24613
 20
60.666798
  0
POINT
  8
寸法
 62
     0
 10
97.112797
 20
60.666798
  0
TEXT
  7
TextStyle03
  8
寸法
  6
CONTINUOUS
 62
     0
 10
97.50625
 20
61.025
  1
86
 40
3.0
 72
     5
 11
100.69375
 21
61.025
  0
ENDBLK
  0
BLOCK
  2
*DIM_0011
 70
    65
 10
0.0
 20
0.0
  0
LINE
  8
寸法
  6
BYBLOCK
 62
     0
 10
95.6128
 20
19.813988
 11
38.732515
 21
19.813988
  0
LINE
  8
寸法
  6
BYBLOCK
 62
     0
 10
38.732515
 20
22.814033
 11
38.732515
 21
19.813988
  0
POINT
  8
寸法
 62
     0
 10
38.732515
 20
22.814033
  0
POINT
  8
寸法
 62
     0
 10
38.732515
 20
19.813988
  0
TEXT
  7
TextStyle03
  8
寸法
  6
CONTINUOUS
 62
     0
 10
38.4
 20
16.33125
  1
90
 40
3.0
 50
90.0
 72
     5
 11
38.4
 21
19.51875
  0
ENDBLK
  0
BLOCK
  2
*DIM_0012
 70
    65
 10
0.0
 20
0.0
  0
LINE
  8
寸法
  6
BYBLOCK
 62
     0
 10
95.6128
 20
45.814077
 11
38.732515
 21
45.814077
  0
LINE
  8
寸法
  6
BYBLOCK
 62
     0
 10
38.732515
 20
42.814033
 11
38.732515
 21
45.814077
  0
POINT
  8
寸法
 62
     0
 10
38.732515
 20
42.814033
  0
POINT
  8
寸法
 62
     0
 10
38.732515
 20
45.814077
  0
TEXT
  7
TextStyle03
  8
寸法
  6
CONTINUOUS
 62
     0
 10
38.4
 20
46.08125
  1
90
 40
3.0
 50
90.0
 72
     5
 11
38.4
 21
49.26875
  0
ENDBLK
  0
BLOCK
  2
*DIM_0013
 70
    65
 10
0.0
 20
0.0
  0
LINE
  8
寸法
  6
BYBLOCK
 62
     0
 10
7.379532
 20
-70.209613
 11
20.682515
 21
-70.209613
  0
LINE
  8
寸法
  6
BYBLOCK
 62
     0
 10
8.71291
 20
-73.07628
 11
20.682515
 21
-73.07628
  0
LINE
  8
寸法
  6
BYBLOCK
 62
     0
 10
20.682515
 20
-70.209613
 11
20.682515
 21
-73.07628
  0
POINT
  8
寸法
 62
     0
 10
20.682515
 20
-70.209613
  0
POINT
  8
寸法
 62
     0
 10
20.682515
 20
-73.07628
  0
TEXT
  7
TextStyle03
  8
寸法
  6
CONTINUOUS
 62
     0
 10
20.35
 20
-76.61875
  1
86
 40
3.0
 50
90.0
 72
     5
 11
20.35
 21
-73.43125
  0
ENDBLK
  0
BLOCK
  2
*DIM_0014
 70
    65
 10
0.0
 20
0.0
  0
LINE
  8
寸法
  6
BYBLOCK
 62
     0
 10
7.71291
 20
-71.576282
 11
7.71291
 21
-13.121378
  0
LINE
  8
寸法
  6
BYBLOCK
 62
     0
 10
4.712865
 20
-13.121378
 11
7.71291
 21
-13.121378
  0
POINT
  8
寸法
 62
     0
 10
4.712865
 20
-13.121378
  0
POINT
  8
寸法
 62
     0
 10
7.71291
 20
-13.121378
  0
TEXT
  7
TextStyle03
  8
寸法
  6
CONTINUOUS
 62
     0
 10
8.03125
 20
-12.75
  1
90
 40
3.0
 72
     5
 11
11.21875
 21
-12.75
  0
ENDBLK
  0
BLOCK
  2
*DIM_0015
 70
    65
 10
0.0
 20
0.0
  0
LINE
  8
寸法
  6
BYBLOCK
 62
     0
 10
-98.28718
 20
-71.576282
 11
-98.28718
 21
-13.121378
  0
LINE
  8
寸法
  6
BYBLOCK
 62
     0
 10
-95.287135
 20
-13.121378
 11
-98.28718
 21
-13.121378
  0
POINT
  8
寸法
 62
     0
 10
-95.287135
 20
-13.121378
  0
POINT
  8
寸法
 62
     0
 10
-98.28718
 20
-13.121378
  0
TEXT
  7
TextStyle03
  8
寸法
  6
CONTINUOUS
 62
     0
 10
-101.76875
 20
-12.75
  1
90
 40
3.0
 72
     5
 11
-98.58125
 21
-12.75
  0
ENDBLK
  0
BLOCK
  2
*DIM_0016
 70
    65
 10
0.0
 20
0.0
  0
LINE
  8
寸法
  6
BYBLOCK
 62
     0
 10
-98.287135
 20
39.4807
 11
-111.579972
 21
39.4807
  0
LINE
  8
寸法
  6
BYBLOCK
 62
     0
 10
-98.287135
 20
26.147365
 11
-111.579972
 21
26.147365
  0
LINE
  8
寸法
  6
BYBLOCK
 62
     0
 10
-111.579972
 20
39.4807
 11
-111.579972
 21
26.147365
  0
POINT
  8
寸法
 62
     0
 10
-111.579972
 20
39.4807
  0
POINT
  8
寸法
 62
     0
 10
-111.579972
 20
26.147365
  0
TEXT
  7
TextStyle03
  8
寸法
  6
CONTINUOUS
 62
     0
 10
-112.0
 20
30.3625
  1
400
 40
3.0
 50
90.0
 72
     5
 11
-112.0
 21
35.2375
  0
ENDBLK
  0
BLOCK
  2
*DIM_0017
 70
    65
 10
0.0
 20
0.0
  0
LINE
  8
寸法
  6
BYBLOCK
 62
     0
 10
-85.287135
 20
45.814033
 11
-85.287135
 21
74.922105
  0
LINE
  8
寸法
  6
BYBLOCK
 62
     0
 10
-58.620467
 20
45.814033
 11
-58.620467
 21
74.922105
  0
LINE
  8
寸法
  6
BYBLOCK
 62
     0
 10
-85.287135
 20
74.922105
 11
-58.620467
 21
74.922105
  0
POINT
  8
寸法
 62
     0
 10
-85.287135
 20
74.922105
  0
POINT
  8
寸法
 62
     0
 10
-58.620467
 20
74.922105
  0
TEXT
  7
TextStyle03
  8
寸法
  6
CONTINUOUS
 62
     0
 10
-74.4125
 20
75.275
  1
800
 40
3.0
 72
     5
 11
-69.5375
 21
75.275
  0
ENDBLK
  0
BLOCK
  2
*DIM_0018
 70
    65
 10
0.0
 20
0.0
  0
LINE
  8
寸法
  6
BYBLOCK
 62
     0
 10
-31.953802
 20
45.814033
 11
-31.953802
 21
74.922105
  0
LINE
  8
寸法
  6
BYBLOCK
 62
     0
 10
-58.620467
 20
74.922105
 11
-31.953802
 21
74.922105
  0
POINT
  8
寸法
 62
     0
 10
-31.953802
 20
74.922105
  0
TEXT
  7
TextStyle03
  8
寸法
  6
CONTINUOUS
 62
     0
 10
-47.7375
 20
75.275
  1
800
 40
3.0
 72
     5
 11
-42.8625
 21
75.275
  0
ENDBLK
  0
BLOCK
  2
*DIM_0019
 70
    65
 10
0.0
 20
0.0
  0
LINE
  8
寸法
  6
BYBLOCK
 62
     0
 10
-5.287135
 20
45.814033
 11
-5.287135
 21
74.922105
  0
LINE
  8
寸法
  6
BYBLOCK
 62
     0
 10
-31.953802
 20
74.922105
 11
-5.287135
 21
74.922105
  0
POINT
  8
寸法
 62
     0
 10
-5.287135
 20
74.922105
  0
TEXT
  7
TextStyle03
  8
寸法
  6
CONTINUOUS
 62
     0
 10
-21.0625
 20
75.275
  1
800
 40
3.0
 72
     5
 11
-16.1875
 21
75.275
  0
ENDBLK
  0
BLOCK
  2
*GRP_0020
 70
    65
 10
0.0
 20
0.0
  0
LINE
  8
ボルト／ビス
  6
CONTINUOUS
 10
-95.953802
 20
-70.209613
 11
-95.953802
 21
-69.742945
  0
LINE
  8
ボルト／ビス
  6
CONTINUOUS
 10
-96.32047
 20
-70.209613
 11
-96.32047
 21
-70.142945
  0
LINE
  8
ボルト／ビス
  6
CONTINUOUS
 10
-96.32047
 20
-70.142945
 11
-95.587135
 21
-70.142945
  0
LINE
  8
ボルト／ビス
  6
CONTINUOUS
 10
-95.587135
 20
-70.142945
 11
-95.587135
 21
-70.209613
  0
LINE
  8
ボルト／ビス
  6
CONTINUOUS
 10
-96.32047
 20
-70.209613
 11
-95.587135
 21
-70.209613
  0
LINE
  8
ボルト／ビス
  6
CONTINUOUS
 10
-96.253802
 20
-70.109612
 11
-96.253802
 21
-70.142945
  0
LINE
  8
ボルト／ビス
  6
CONTINUOUS
 10
-96.253802
 20
-70.109612
 11
-95.653802
 21
-70.109612
  0
LINE
  8
ボルト／ビス
  6
CONTINUOUS
 10
-95.653802
 20
-70.109612
 11
-95.653802
 21
-70.142945
  0
LINE
  8
ボルト／ビス
  6
CONTINUOUS
 62
    64
 10
-96.114178
 20
-69.909613
 11
-96.146252
 21
-69.921288
  0
ARC
  8
ボルト／ビス
  6
CONTINUOUS
 62
    64
 10
-96.098139
 20
-70.01459
 40
0.104978
 50
62.721967
 51
90.0
  0
ARC
  8
ボルト／ビス
  6
CONTINUOUS
 62
    64
 10
-95.953801
 20
-70.312014
 40
0.402402
 50
76.165002
 51
103.834985
  0
LINE
  8
ボルト／ビス
  6
CONTINUOUS
 62
    64
 10
-95.793427
 20
-69.909613
 11
-95.761352
 21
-69.921288
  0
ARC
  8
ボルト／ビス
  6
CONTINUOUS
 62
    64
 10
-95.809464
 20
-70.01459
 40
0.104978
 50
90.0
 51
117.278033
  0
LINE
  8
ボルト／ビス
  6
CONTINUOUS
 62
    64
 10
-96.114178
 20
-69.909613
 11
-95.793427
 21
-69.909613
  0
LINE
  8
ボルト／ビス
  6
CONTINUOUS
 62
    64
 10
-95.761352
 20
-69.921288
 11
-95.761352
 21
-70.042945
  0
LINE
  8
ボルト／ビス
  6
CONTINUOUS
 62
    64
 10
-95.857578
 20
-69.921288
 11
-95.857578
 21
-70.042945
  0
LINE
  8
ボルト／ビス
  6
CONTINUOUS
 62
    64
 10
-96.146252
 20
-69.921288
 11
-96.146252
 21
-70.042945
  0
LINE
  8
ボルト／ビス
  6
CONTINUOUS
 62
    64
 10
-96.050028
 20
-69.921288
 11
-96.050028
 21
-70.042945
  0
LINE
  8
ボルト／ビス
  6
CONTINUOUS
 10
-96.146252
 20
-70.042945
 11
-95.761352
 21
-70.042945
  0
LINE
  8
ボルト／ビス
  6
CONTINUOUS
 10
-96.153802
 20
-70.042945
 11
-96.153802
 21
-70.109612
  0
LINE
  8
ボルト／ビス
  6
CONTINUOUS
 10
-96.153802
 20
-70.042945
 11
-95.753802
 21
-70.042945
  0
LINE
  8
ボルト／ビス
  6
CONTINUOUS
 10
-95.753802
 20
-70.042945
 11
-95.753802
 21
-70.109612
  0
ENDBLK
  0
BLOCK
  2
*GRP_0021
 70
    65
 10
0.0
 20
0.0
  0
LINE
  8
ボルト／ビス
  6
CONTINUOUS
 10
5.379532
 20
-70.209613
 11
5.379532
 21
-69.742945
  0
LINE
  8
ボルト／ビス
  6
CONTINUOUS
 10
5.012865
 20
-70.209613
 11
5.012865
 21
-70.142945
  0
LINE
  8
ボルト／ビス
  6
CONTINUOUS
 10
5.012865
 20
-70.142945
 11
5.7462
 21
-70.142945
  0
LINE
  8
ボルト／ビス
  6
CONTINUOUS
 10
5.7462
 20
-70.142945
 11
5.7462
 21
-70.209613
  0
LINE
  8
ボルト／ビス
  6
CONTINUOUS
 10
5.012865
 20
-70.209613
 11
5.7462
 21
-70.209613
  0
LINE
  8
ボルト／ビス
  6
CONTINUOUS
 10
5.079532
 20
-70.109612
 11
5.079532
 21
-70.142945
  0
LINE
  8
ボルト／ビス
  6
CONTINUOUS
 10
5.079532
 20
-70.109612
 11
5.679532
 21
-70.109612
  0
LINE
  8
ボルト／ビス
  6
CONTINUOUS
 10
5.679532
 20
-70.109612
 11
5.679532
 21
-70.142945
  0
LINE
  8
ボルト／ビス
  6
CONTINUOUS
 62
    64
 10
5.219158
 20
-69.909613
 11
5.187082
 21
-69.921288
  0
ARC
  8
ボルト／ビス
  6
CONTINUOUS
 62
    64
 10
5.235196
 20
-70.01459
 40
0.104978
 50
62.721967
 51
90.0
  0
ARC
  8
ボルト／ビス
  6
CONTINUOUS
 62
    64
 10
5.379534
 20
-70.312014
 40
0.402402
 50
76.165002
 51
103.834985
  0
LINE
  8
ボルト／ビス
  6
CONTINUOUS
 62
    64
 10
5.539907
 20
-69.909613
 11
5.571983
 21
-69.921288
  0
ARC
  8
ボルト／ビス
  6
CONTINUOUS
 62
    64
 10
5.523871
 20
-70.01459
 40
0.104978
 50
90.0
 51
117.278033
  0
LINE
  8
ボルト／ビス
  6
CONTINUOUS
 62
    64
 10
5.219158
 20
-69.909613
 11
5.539907
 21
-69.909613
  0
LINE
  8
ボルト／ビス
  6
CONTINUOUS
 62
    64
 10
5.571983
 20
-69.921288
 11
5.571983
 21
-70.042945
  0
LINE
  8
ボルト／ビス
  6
CONTINUOUS
 62
    64
 10
5.475757
 20
-69.921288
 11
5.475757
 21
-70.042945
  0
LINE
  8
ボルト／ビス
  6
CONTINUOUS
 62
    64
 10
5.187082
 20
-69.921288
 11
5.187082
 21
-70.042945
  0
LINE
  8
ボルト／ビス
  6
CONTINUOUS
 62
    64
 10
5.283308
 20
-69.921288
 11
5.283308
 21
-70.042945
  0
LINE
  8
ボルト／ビス
  6
CONTINUOUS
 10
5.187082
 20
-70.042945
 11
5.571983
 21
-70.042945
  0
LINE
  8
ボルト／ビス
  6
CONTINUOUS
 10
5.179532
 20
-70.042945
 11
5.179532
 21
-70.109612
  0
LINE
  8
ボルト／ビス
  6
CONTINUOUS
 10
5.179532
 20
-70.042945
 11
5.579532
 21
-70.042945
  0
LINE
  8
ボルト／ビス
  6
CONTINUOUS
 10
5.579532
 20
-70.042945
 11
5.579532
 21
-70.109612
  0
ENDBLK
  0
BLOCK
  2
*GRP_0022
 70
    65
 10
0.0
 20
0.0
  0
LINE
  8
ボルト／ビス
  6
CONTINUOUS
 10
94.24613
 20
22.147365
 11
93.779463
 21
22.147365
  0
LINE
  8
ボルト／ビス
  6
CONTINUOUS
 10
94.24613
 20
21.780697
 11
94.179463
 21
21.780697
  0
LINE
  8
ボルト／ビス
  6
CONTINUOUS
 10
94.179463
 20
21.780697
 11
94.179463
 21
22.514033
  0
LINE
  8
ボルト／ビス
  6
CONTINUOUS
 10
94.179463
 20
22.514033
 11
94.24613
 21
22.514033
  0
LINE
  8
ボルト／ビス
  6
CONTINUOUS
 10
94.24613
 20
21.780697
 11
94.24613
 21
22.514033
  0
LINE
  8
ボルト／ビス
  6
CONTINUOUS
 10
94.14613
 20
21.847365
 11
94.179463
 21
21.847365
  0
LINE
  8
ボルト／ビス
  6
CONTINUOUS
 10
94.14613
 20
21.847365
 11
94.14613
 21
22.447365
  0
LINE
  8
ボルト／ビス
  6
CONTINUOUS
 10
94.14613
 20
22.447365
 11
94.179463
 21
22.447365
  0
LINE
  8
ボルト／ビス
  6
CONTINUOUS
 62
    64
 10
93.94613
 20
21.98699
 11
93.957805
 21
21.954915
  0
ARC
  8
ボルト／ビス
  6
CONTINUOUS
 62
    64
 10
94.051108
 20
22.003027
 40
0.104978
 50
152.721967
 51
180.0
  0
ARC
  8
ボルト／ビス
  6
CONTINUOUS
 62
    64
 10
94.348532
 20
22.147365
 40
0.402402
 50
166.165002
 51
193.834985
  0
LINE
  8
ボルト／ビス
  6
CONTINUOUS
 62
    64
 10
93.94613
 20
22.30774
 11
93.957805
 21
22.339815
  0
ARC
  8
ボルト／ビス
  6
CONTINUOUS
 62
    64
 10
94.051108
 20
22.291702
 40
0.104978
 50
180.0
 51
207.278033
  0
LINE
  8
ボルト／ビス
  6
CONTINUOUS
 62
    64
 10
93.94613
 20
21.98699
 11
93.94613
 21
22.30774
  0
LINE
  8
ボルト／ビス
  6
CONTINUOUS
 62
    64
 10
93.957805
 20
22.339815
 11
94.079463
 21
22.339815
  0
LINE
  8
ボルト／ビス
  6
CONTINUOUS
 62
    64
 10
93.957805
 20
22.24359
 11
94.079463
 21
22.24359
  0
LINE
  8
ボルト／ビス
  6
CONTINUOUS
 62
    64
 10
93.957805
 20
21.954915
 11
94.079463
 21
21.954915
  0
LINE
  8
ボルト／ビス
  6
CONTINUOUS
 62
    64
 10
93.957805
 20
22.05114
 11
94.079463
 21
22.05114
  0
LINE
  8
ボルト／ビス
  6
CONTINUOUS
 10
94.079463
 20
21.954915
 11
94.079463
 21
22.339815
  0
LINE
  8
ボルト／ビス
  6
CONTINUOUS
 10
94.079463
 20
21.947365
 11
94.14613
 21
21.947365
  0
LINE
  8
ボルト／ビス
  6
CONTINUOUS
 10
94.079463
 20
21.947365
 11
94.079463
 21
22.347365
  0
LINE
  8
ボルト／ビス
  6
CONTINUOUS
 10
94.079463
 20
22.347365
 11
94.14613
 21
22.347365
  0
ENDBLK
  0
BLOCK
  2
*GRP_0023
 70
    65
 10
0.0
 20
0.0
  0
LINE
  8
ボルト／ビス
  6
CONTINUOUS
 10
94.24613
 20
43.4807
 11
93.779463
 21
43.4807
  0
LINE
  8
ボルト／ビス
  6
CONTINUOUS
 10
94.24613
 20
43.114033
 11
94.179463
 21
43.114033
  0
LINE
  8
ボルト／ビス
  6
CONTINUOUS
 10
94.179463
 20
43.114033
 11
94.179463
 21
43.847367
  0
LINE
  8
ボルト／ビス
  6
CONTINUOUS
 10
94.179463
 20
43.847367
 11
94.24613
 21
43.847367
  0
LINE
  8
ボルト／ビス
  6
CONTINUOUS
 10
94.24613
 20
43.114033
 11
94.24613
 21
43.847367
  0
LINE
  8
ボルト／ビス
  6
CONTINUOUS
 10
94.14613
 20
43.1807
 11
94.179463
 21
43.1807
  0
LINE
  8
ボルト／ビス
  6
CONTINUOUS
 10
94.14613
 20
43.1807
 11
94.14613
 21
43.7807
  0
LINE
  8
ボルト／ビス
  6
CONTINUOUS
 10
94.14613
 20
43.7807
 11
94.179463
 21
43.7807
  0
LINE
  8
ボルト／ビス
  6
CONTINUOUS
 62
    64
 10
93.94613
 20
43.320325
 11
93.957805
 21
43.28825
  0
ARC
  8
ボルト／ビス
  6
CONTINUOUS
 62
    64
 10
94.051108
 20
43.336362
 40
0.104978
 50
152.721967
 51
180.0
  0
ARC
  8
ボルト／ビス
  6
CONTINUOUS
 62
    64
 10
94.348532
 20
43.4807
 40
0.402402
 50
166.165002
 51
193.834985
  0
LINE
  8
ボルト／ビス
  6
CONTINUOUS
 62
    64
 10
93.94613
 20
43.641075
 11
93.957805
 21
43.67315
  0
ARC
  8
ボルト／ビス
  6
CONTINUOUS
 62
    64
 10
94.051108
 20
43.625037
 40
0.104978
 50
180.0
 51
207.278033
  0
LINE
  8
ボルト／ビス
  6
CONTINUOUS
 62
    64
 10
93.94613
 20
43.320325
 11
93.94613
 21
43.641075
  0
LINE
  8
ボルト／ビス
  6
CONTINUOUS
 62
    64
 10
93.957805
 20
43.67315
 11
94.079463
 21
43.67315
  0
LINE
  8
ボルト／ビス
  6
CONTINUOUS
 62
    64
 10
93.957805
 20
43.576925
 11
94.079463
 21
43.576925
  0
LINE
  8
ボルト／ビス
  6
CONTINUOUS
 62
    64
 10
93.957805
 20
43.28825
 11
94.079463
 21
43.28825
  0
LINE
  8
ボルト／ビス
  6
CONTINUOUS
 62
    64
 10
93.957805
 20
43.384475
 11
94.079463
 21
43.384475
  0
LINE
  8
ボルト／ビス
  6
CONTINUOUS
 10
94.079463
 20
43.28825
 11
94.079463
 21
43.67315
  0
LINE
  8
ボルト／ビス
  6
CONTINUOUS
 10
94.079463
 20
43.2807
 11
94.14613
 21
43.2807
  0
LINE
  8
ボルト／ビス
  6
CONTINUOUS
 10
94.079463
 20
43.2807
 11
94.079463
 21
43.6807
  0
LINE
  8
ボルト／ビス
  6
CONTINUOUS
 10
94.079463
 20
43.6807
 11
94.14613
 21
43.6807
  0
ENDBLK
  0
ENDSEC
  0
SECTION
  2
ENTITIES
  0
POLYLINE
  8
通り芯
  6
CONTINUOUS
 66
     1
 70
     1
  0
VERTEX
  8
通り芯
 10
-210.0
 20
-148.5
  0
VERTEX
  8
通り芯
 10
210.0
 20
-148.5
  0
VERTEX
  8
通り芯
 10
210.0
 20
148.5
  0
VERTEX
  8
通り芯
 10
-210.0
 20
148.5
  0
SEQEND
  0
INSERT
  2
*GRP_0001
  8
型材断面
  6
CONTINUOUS
 10
0.0
 20
0.0
  0
LINE
  8
型材断面
  6
DASHDOT
 10
4.712865
 20
-77.836442
 11
4.712865
 21
42.814033
  0
LINE
  8
型材断面
  6
DASHDOT
 10
-45.287135
 20
-77.836442
 11
-45.287135
 21
42.814033
  0
LINE
  8
型材断面
  6
DASHDOT
 10
-95.287135
 20
-77.836442
 11
-95.287135
 21
42.814033
  0
LINE
  8
型材断面
  6
DASHDOT
 10
102.389627
 20
42.814033
 11
-95.287135
 21
42.814033
  0
LINE
  8
型材断面
  6
DASHDOT
 10
102.389627
 20
32.814033
 11
-95.287135
 21
32.814033
  0
LINE
  8
型材断面
  6
DASHDOT
 10
102.389627
 20
22.814033
 11
-95.287135
 21
22.814033
  0
LINE
  8
型材断面
  6
DOT
 10
-29.803802
 20
22.814033
 11
-29.803802
 21
42.814033
  0
LINE
  8
型材断面
  6
DASHDOT
 10
-28.553802
 20
22.814033
 11
-28.553802
 21
42.814033
  0
LINE
  8
型材断面
  6
DOT
 10
-27.303802
 20
22.814033
 11
-27.303802
 21
42.814033
  0
LINE
  8
型材断面
  6
DOT
 10
-60.770467
 20
22.814033
 11
-60.770467
 21
42.814033
  0
LINE
  8
型材断面
  6
DASHDOT
 10
-62.020467
 20
22.814033
 11
-62.020467
 21
42.814033
  0
LINE
  8
型材断面
  6
DOT
 10
-63.270467
 20
22.814033
 11
-63.270467
 21
42.814033
  0
LINE
  8
型材断面
  6
CONTINUOUS
 10
-78.620467
 20
45.444162
 11
-80.116097
 21
48.03467
  0
LINE
  8
型材断面
  6
CONTINUOUS
 10
-78.620467
 20
45.444162
 11
-77.124838
 21
48.03467
  0
LINE
  8
型材断面
  6
CONTINUOUS
 10
-77.124838
 20
48.03467
 11
-80.116097
 21
48.03467
  0
LINE
  8
型材断面
  6
CONTINUOUS
 10
-136.139343
 20
87.32138
 11
-137.634973
 21
84.730873
  0
LINE
  8
型材断面
  6
CONTINUOUS
 10
-136.139343
 20
87.32138
 11
-134.643713
 21
84.730873
  0
LINE
  8
型材断面
  6
CONTINUOUS
 10
-134.643713
 20
84.730873
 11
-137.634973
 21
84.730873
  0
LINE
  8
型材断面
  6
CONTINUOUS
 10
-142.16193
 20
83.792277
 11
-95.920153
 21
83.792277
  0
LINE
  8
型材断面
  6
CONTINUOUS
 10
-97.917265
 20
32.814033
 11
-100.507773
 21
34.309663
  0
LINE
  8
型材断面
  6
CONTINUOUS
 10
-97.917265
 20
32.814033
 11
-100.507773
 21
31.318403
  0
LINE
  8
型材断面
  6
CONTINUOUS
 10
-100.507773
 20
31.318403
 11
-100.507773
 21
34.309663
  0
LINE
  8
型材断面
  6
CONTINUOUS
 10
-78.620467
 20
20.183902
 11
-80.116097
 21
17.593395
  0
LINE
  8
型材断面
  6
CONTINUOUS
 10
-78.620467
 20
20.183902
 11
-77.124838
 21
17.593395
  0
LINE
  8
型材断面
  6
CONTINUOUS
 10
-77.124838
 20
17.593395
 11
-80.116097
 21
17.593395
  0
LINE
  8
型材断面
  6
DOT
 10
-27.303802
 20
22.814033
 11
-27.303802
 21
42.814033
  0
LINE
  8
型材断面
  6
CONTINUOUS
 10
-11.953802
 20
45.444162
 11
-10.458173
 21
48.03467
  0
LINE
  8
型材断面
  6
CONTINUOUS
 10
-11.953802
 20
45.444162
 11
-13.449432
 21
48.03467
  0
LINE
  8
型材断面
  6
CONTINUOUS
 10
-13.449432
 20
48.03467
 11
-10.458173
 21
48.03467
  0
LINE
  8
型材断面
  6
CONTINUOUS
 10
-11.953802
 20
20.183902
 11
-10.458173
 21
17.593395
  0
LINE
  8
型材断面
  6
CONTINUOUS
 10
-11.953802
 20
20.183902
 11
-13.449432
 21
17.593395
  0
LINE
  8
型材断面
  6
CONTINUOUS
 10
-13.449432
 20
17.593395
 11
-10.458173
 21
17.593395
  0
LINE
  8
型材断面
  6
CONTINUOUS
 10
7.342995
 20
32.814033
 11
9.933503
 21
34.309663
  0
LINE
  8
型材断面
  6
CONTINUOUS
 10
7.342995
 20
32.814033
 11
9.933503
 21
31.318403
  0
LINE
  8
型材断面
  6
CONTINUOUS
 10
9.933503
 20
31.318403
 11
9.933503
 21
34.309663
  0
LINE
  8
型材断面
  6
CONTINUOUS
 10
-142.16193
 20
78.160932
 11
-95.920153
 21
78.160932
  0
LINE
  8
型材断面
  6
CONTINUOUS
 62
    47
 10
97.112797
 20
19.813988
 11
96.6128
 21
19.813988
  0
LINE
  8
型材断面
  6
CONTINUOUS
 62
    47
 10
96.6128
 20
19.813988
 11
96.11562
 21
22.74732
  0
LINE
  8
型材断面
  6
CONTINUOUS
 62
    47
 10
97.112797
 20
19.813988
 11
97.112797
 21
32.814033
  0
LINE
  8
型材断面
  6
CONTINUOUS
 10
97.612797
 20
20.313977
 11
97.612797
 21
32.814033
  0
LINE
  8
型材断面
  6
CONTINUOUS
 62
    47
 10
97.112797
 20
20.31398
 11
97.612797
 21
20.31398
  0
LINE
  8
型材断面
  6
CONTINUOUS
 10
96.11562
 20
32.814033
 11
96.11562
 21
22.74732
  0
LINE
  8
型材断面
  6
CONTINUOUS
 10
96.6128
 20
19.813988
 11
96.6128
 21
32.814033
  0
LINE
  8
型材断面
  6
CONTINUOUS
 62
    47
 10
96.11562
 20
22.74732
 11
95.24613
 21
22.74732
  0
LINE
  8
型材断面
  6
CONTINUOUS
 62
    47
 10
97.112797
 20
45.814077
 11
96.6128
 21
45.814077
  0
LINE
  8
型材断面
  6
CONTINUOUS
 62
    47
 10
96.6128
 20
45.814077
 11
96.11562
 21
42.880747
  0
LINE
  8
型材断面
  6
CONTINUOUS
 62
    47
 10
97.112797
 20
45.814077
 11
97.112797
 21
32.814033
  0
LINE
  8
型材断面
  6
CONTINUOUS
 10
97.612797
 20
45.314087
 11
97.612797
 21
32.814033
  0
LINE
  8
型材断面
  6
CONTINUOUS
 62
    47
 10
97.112797
 20
45.314087
 11
97.612797
 21
45.314087
  0
LINE
  8
型材断面
  6
CONTINUOUS
 10
96.11562
 20
32.814033
 11
96.11562
 21
42.880747
  0
LINE
  8
型材断面
  6
CONTINUOUS
 10
96.6128
 20
45.814077
 11
96.6128
 21
32.814033
  0
LINE
  8
型材断面
  6
CONTINUOUS
 62
    47
 10
96.11562
 20
42.880747
 11
95.24613
 21
42.880747
  0
LINE
  8
型材断面
  6
CONTINUOUS
 62
    47
 10
7.71291
 20
-73.07628
 11
7.71291
 21
-72.576282
  0
LINE
  8
型材断面
  6
CONTINUOUS
 62
    47
 10
7.71291
 20
-72.576282
 11
4.77958
 21
-72.079103
  0
LINE
  8
型材断面
  6
CONTINUOUS
 62
    47
 10
7.21292
 20
-73.07628
 11
7.21292
 21
-73.57628
  0
LINE
  8
型材断面
  6
CONTINUOUS
 62
    47
 10
4.77958
 20
-72.079103
 11
4.77958
 21
-71.209613
  0
LINE
  8
型材断面
  6
CONTINUOUS
 10
7.71291
 20
32.814033
 11
7.71291
 21
19.813985
  0
LINE
  8
型材断面
  6
CONTINUOUS
 10
6.779532
 20
20.747365
 11
7.71291
 21
19.813992
  0
LINE
  8
型材断面
  6
CONTINUOUS
 10
7.71291
 20
19.813985
 11
-45.287135
 21
19.81401
  0
LINE
  8
型材断面
  6
CONTINUOUS
 10
7.71291
 20
32.814033
 11
7.71291
 21
45.81408
  0
LINE
  8
型材断面
  6
CONTINUOUS
 10
6.779532
 20
44.8807
 11
7.71291
 21
45.814072
  0
LINE
  8
型材断面
  6
CONTINUOUS
 10
7.71291
 20
45.81408
 11
-45.287135
 21
45.814055
  0
LINE
  8
型材断面
  6
CONTINUOUS
 10
-98.28718
 20
32.814033
 11
-98.28718
 21
45.81408
  0
LINE
  8
型材断面
  6
CONTINUOUS
 10
-97.353802
 20
44.8807
 11
-98.28718
 21
45.814072
  0
LINE
  8
型材断面
  6
CONTINUOUS
 10
-98.28718
 20
45.81408
 11
-45.287135
 21
45.814055
  0
LINE
  8
型材断面
  6
CONTINUOUS
 10
-98.28718
 20
32.814033
 11
-98.28718
 21
19.813985
  0
LINE
  8
型材断面
  6
CONTINUOUS
 10
-97.353802
 20
20.747365
 11
-98.28718
 21
19.813992
  0
LINE
  8
型材断面
  6
CONTINUOUS
 10
-98.28718
 20
19.813985
 11
-45.287135
 21
19.81401
  0
LINE
  8
型材断面
  6
CONTINUOUS
 10
7.21292
 20
-73.57628
 11
-45.287135
 21
-73.57628
  0
LINE
  8
型材断面
  6
CONTINUOUS
 62
    47
 10
7.71291
 20
-73.07628
 11
-45.287135
 21
-73.07628
  0
LINE
  8
型材断面
  6
CONTINUOUS
 10
4.77958
 20
-72.079103
 11
-45.287135
 21
-72.079103
  0
LINE
  8
型材断面
  6
CONTINUOUS
 10
7.71291
 20
-72.576282
 11
-45.287135
 21
-72.576282
  0
LINE
  8
型材断面
  6
CONTINUOUS
 62
    47
 10
-98.28718
 20
-73.07628
 11
-98.28718
 21
-72.576282
  0
LINE
  8
型材断面
  6
CONTINUOUS
 62
    47
 10
-98.28718
 20
-72.576282
 11
-95.35385
 21
-72.079103
  0
LINE
  8
型材断面
  6
CONTINUOUS
 62
    47
 10
-97.78719
 20
-73.07628
 11
-97.78719
 21
-73.57628
  0
LINE
  8
型材断面
  6
CONTINUOUS
 62
    47
 10
-95.35385
 20
-72.079103
 11
-95.35385
 21
-71.209613
  0
LINE
  8
型材断面
  6
CONTINUOUS
 10
-97.78719
 20
-73.57628
 11
-45.287135
 21
-73.57628
  0
LINE
  8
型材断面
  6
CONTINUOUS
 62
    47
 10
-98.28718
 20
-73.07628
 11
-45.287135
 21
-73.07628
  0
LINE
  8
型材断面
  6
CONTINUOUS
 10
-95.35385
 20
-72.079103
 11
-45.287135
 21
-72.079103
  0
LINE
  8
型材断面
  6
CONTINUOUS
 10
-98.28718
 20
-72.576282
 11
-45.287135
 21
-72.576282
  0
TEXT
  7
TextStyle03
  8
文字
  6
CONTINUOUS
 10
81.275
 20
-76.7
  1
網入り6.8t
 40
3.0
 72
     5
 11
97.9625
 21
-76.7
  0
TEXT
  7
TextStyle03
  8
文字
  6
CONTINUOUS
 10
87.95
 20
-81.375
  1
×３枚
 40
3.0
 72
     5
 11
97.7
 21
-81.375
  0
TEXT
  7
TextStyle03
  8
文字
  6
CONTINUOUS
 10
-133.325
 20
84.95
  1
は排水穴位置を示す
 40
3.0
 72
     5
 11
-103.325
 21
84.95
  0
TEXT
  7
TextStyle03
  8
文字
  6
CONTINUOUS
 10
-116.35
 20
11.275
  1
アンカーピッチ
 40
3.0
 50
90.0
 72
     5
 11
-116.35
 21
34.525
  0
TEXT
  7
TextStyle03
  8
文字
  6
CONTINUOUS
 10
-85.325
 20
80.2
  1
アンカーピッチ
 40
3.0
 72
     5
 11
-62.075
 21
80.2
  0
TEXT
  7
TextStyle03
  8
文字
  6
CONTINUOUS
 10
-137.05
 20
79.1
  1
アンカー数量　１２ヶ所
 40
3.0
 72
     5
 11
-100.3
 21
79.1
  0
TEXT
  7
TextStyle03
  8
文字
  6
CONTINUOUS
 10
78.1
 20
125.25
  1
シリーズ：ＴＤ２ＫＬ
 40
5.0
 72
     5
 11
133.725
 21
125.25
  0
TEXT
  7
TextStyle03
  8
文字
  6
CONTINUOUS
 10
78.1
 20
119.625
  1
　　　　　（固定）600×3000タイプ
 40
5.0
 72
     5
 11
170.2875
 21
119.625
  0
TEXT
  7
TextStyle03
  8
文字
  6
CONTINUOUS
 10
78.1
 20
114.0
  1
図面名　：外観姿図
 40
5.0
 72
     5
 11
128.1
 21
114.0
  0
TEXT
  7
TextStyle03
  8
文字
  6
CONTINUOUS
 10
78.1
 20
108.375
  1
　　　　　　
 40
5.0
 72
     5
 11
111.225
 21
108.375
  0
TEXT
  7
TextStyle03
  8
文字
  6
CONTINUOUS
 10
77.65
 20
104.325
  1
ＮＳコード：ＮＳＫＺＬ
 40
5.0
 72
     5
 11
138.9
 21
104.325
  0
INSERT
  2
*DIM_0002
  8
寸法
  6
CONTINUOUS
 10
0.0
 20
0.0
  0
INSERT
  2
*DIM_0003
  8
寸法
  6
CONTINUOUS
 10
0.0
 20
0.0
  0
INSERT
  2
*DIM_0004
  8
寸法
  6
CONTINUOUS
 10
0.0
 20
0.0
  0
INSERT
  2
*DIM_0005
  8
寸法
  6
CONTINUOUS
 10
0.0
 20
0.0
  0
INSERT
  2
*DIM_0006
  8
寸法
  6
CONTINUOUS
 10
0.0
 20
0.0
  0
INSERT
  2
*DIM_0008
  8
寸法
  6
CONTINUOUS
 10
0.0
 20
0.0
  0
INSERT
  2
*DIM_0009
  8
寸法
  6
CONTINUOUS
 10
0.0
 20
0.0
  0
INSERT
  2
*DIM_0010
  8
寸法
  6
CONTINUOUS
 10
0.0
 20
0.0
  0
INSERT
  2
*DIM_0011
  8
寸法
  6
CONTINUOUS
 10
0.0
 20
0.0
  0
INSERT
  2
*DIM_0012
  8
寸法
  6
CONTINUOUS
 10
0.0
 20
0.0
  0
INSERT
  2
*DIM_0013
  8
寸法
  6
CONTINUOUS
 10
0.0
 20
0.0
  0
INSERT
  2
*DIM_0014
  8
寸法
  6
CONTINUOUS
 10
0.0
 20
0.0
  0
INSERT
  2
*DIM_0015
  8
寸法
  6
CONTINUOUS
 10
0.0
 20
0.0
  0
INSERT
  2
*DIM_0016
  8
寸法
  6
CONTINUOUS
 10
0.0
 20
0.0
  0
INSERT
  2
*DIM_0017
  8
寸法
  6
CONTINUOUS
 10
0.0
 20
0.0
  0
INSERT
  2
*DIM_0018
  8
寸法
  6
CONTINUOUS
 10
0.0
 20
0.0
  0
INSERT
  2
*DIM_0019
  8
寸法
  6
CONTINUOUS
 10
0.0
 20
0.0
  0
LINE
  8
別途部材
  6
CONTINUOUS
 10
6.779532
 20
20.747365
 11
6.379532
 21
21.147365
  0
LINE
  8
別途部材
  6
CONTINUOUS
 10
4.712865
 20
22.814033
 11
-3.34639
 21
30.87329
  0
LINE
  8
別途部材
  6
CONTINUOUS
 10
6.379532
 20
21.147365
 11
6.379532
 21
32.814033
  0
LINE
  8
別途部材
  6
CONTINUOUS
 10
6.779532
 20
20.747365
 11
6.779532
 21
32.814033
  0
LINE
  8
別途部材
  6
CONTINUOUS
 10
6.779532
 20
44.8807
 11
6.379532
 21
44.4807
  0
LINE
  8
別途部材
  6
CONTINUOUS
 10
4.712865
 20
42.814033
 11
-3.34639
 21
34.754775
  0
LINE
  8
別途部材
  6
CONTINUOUS
 10
6.379532
 20
44.4807
 11
6.379532
 21
32.814033
  0
LINE
  8
別途部材
  6
CONTINUOUS
 10
6.779532
 20
44.8807
 11
6.779532
 21
32.814033
  0
LINE
  8
別途部材
  6
CONTINUOUS
 10
6.779532
 20
44.8807
 11
-45.287135
 21
44.8807
  0
LINE
  8
別途部材
  6
CONTINUOUS
 10
6.379532
 20
44.4807
 11
-45.287135
 21
44.4807
  0
LINE
  8
別途部材
  6
CONTINUOUS
 10
6.379532
 20
21.147365
 11
-45.287135
 21
21.147365
  0
LINE
  8
別途部材
  6
CONTINUOUS
 10
6.779532
 20
20.747365
 11
-45.287135
 21
20.747365
  0
LINE
  8
別途部材
  6
CONTINUOUS
 10
-97.353802
 20
20.747365
 11
-96.953802
 21
21.147365
  0
LINE
  8
別途部材
  6
CONTINUOUS
 10
-95.287135
 20
22.814033
 11
-87.22788
 21
30.87329
  0
LINE
  8
別途部材
  6
CONTINUOUS
 10
-96.953802
 20
21.147365
 11
-96.953802
 21
32.814033
  0
LINE
  8
別途部材
  6
CONTINUOUS
 10
-97.353802
 20
20.747365
 11
-97.353802
 21
32.814033
  0
LINE
  8
別途部材
  6
CONTINUOUS
 10
-97.353802
 20
44.8807
 11
-96.953802
 21
44.4807
  0
LINE
  8
別途部材
  6
CONTINUOUS
 10
-95.287135
 20
42.814033
 11
-87.22788
 21
34.754775
  0
LINE
  8
別途部材
  6
CONTINUOUS
 10
-96.953802
 20
44.4807
 11
-96.953802
 21
32.814033
  0
LINE
  8
別途部材
  6
CONTINUOUS
 10
-97.353802
 20
44.8807
 11
-97.353802
 21
32.814033
  0
LINE
  8
別途部材
  6
CONTINUOUS
 10
-97.353802
 20
44.8807
 11
-45.287135
 21
44.8807
  0
LINE
  8
別途部材
  6
CONTINUOUS
 10
-96.953802
 20
44.4807
 11
-45.287135
 21
44.4807
  0
LINE
  8
別途部材
  6
CONTINUOUS
 10
-96.953802
 20
21.147365
 11
-45.287135
 21
21.147365
  0
LINE
  8
別途部材
  6
CONTINUOUS
 10
-97.353802
 20
20.747365
 11
-45.287135
 21
20.747365
  0
INSERT
  2
*GRP_0007
  8
別途部材
  6
CONTINUOUS
 10
0.0
 20
0.0
  0
LINE
  8
別途部材
  6
CONTINUOUS
 62
    96
 10
94.24613
 20
21.147365
 11
95.24613
 21
20.747365
  0
LINE
  8
別途部材
  6
CONTINUOUS
 62
    96
 10
94.24613
 20
21.147365
 11
94.24613
 21
32.814033
  0
LINE
  8
別途部材
  6
CONTINUOUS
 10
95.24613
 20
20.747365
 11
95.24613
 21
32.814033
  0
LINE
  8
別途部材
  6
CONTINUOUS
 62
    96
 10
94.24613
 20
44.4807
 11
95.24613
 21
44.8807
  0
LINE
  8
別途部材
  6
CONTINUOUS
 62
    96
 10
94.24613
 20
44.4807
 11
94.24613
 21
32.814033
  0
LINE
  8
別途部材
  6
CONTINUOUS
 10
95.24613
 20
44.8807
 11
95.24613
 21
32.814033
  0
ARC
  8
別途部材
  6
CONTINUOUS
 10
100.954465
 20
32.814033
 40
12.041667
 50
123.855033
 51
236.144967
  0
INSERT
  2
*GRP_0020
  8
別途部材
  6
DOT
 10
0.0
 20
0.0
  0
INSERT
  2
*GRP_0021
  8
別途部材
  6
DOT
 10
0.0
 20
0.0
  0
INSERT
  2
*GRP_0022
  8
別途部材
  6
DOT
 10
0.0
 20
0.0
  0
INSERT
  2
*GRP_0023
  8
別途部材
  6
DOT
 10
0.0
 20
0.0
  0
LINE
  8
曲げ物
  6
CONTINUOUS
 10
99.79942
 20
-83.118728
 11
99.79942
 21
-63.785395
  0
LINE
  8
曲げ物
  6
CONTINUOUS
 10
67.39942
 20
-83.118728
 11
67.39942
 21
-63.785395
  0
LINE
  8
曲げ物
  6
CONTINUOUS
 10
99.79942
 20
-63.785395
 11
67.39942
 21
-63.785395
  0
LINE
  8
曲げ物
  6
CONTINUOUS
 10
99.79942
 20
-83.118728
 11
67.39942
 21
-83.118728
  0
CIRCLE
  8
LAYER010
  6
CONTINUOUS
 62
     7
 10
96.6128
 20
19.813988
 40
0.011113
  0
CIRCLE
  8
LAYER010
  6
CONTINUOUS
 62
     7
 10
96.6128
 20
19.813988
 40
0.011113
  0
CIRCLE
  8
LAYER010
  6
CONTINUOUS
 62
     7
 10
96.6128
 20
45.814077
 40
0.011113
  0
CIRCLE
  8
LAYER010
  6
CONTINUOUS
 62
     7
 10
96.6128
 20
45.814077
 40
0.011113
  0
CIRCLE
  8
LAYER010
  6
CONTINUOUS
 62
     7
 10
7.71291
 20
-72.576282
 40
0.011113
  0
CIRCLE
  8
LAYER010
  6
CONTINUOUS
 62
     7
 10
7.71291
 20
-72.576282
 40
0.011113
  0
CIRCLE
  8
LAYER010
  6
CONTINUOUS
 62
     7
 10
-98.28718
 20
-72.576282
 40
0.011113
  0
CIRCLE
  8
LAYER010
  6
CONTINUOUS
 62
     7
 10
-98.28718
 20
-72.576282
 40
0.011113
  0
ENDSEC
  0
EOF
