  0
SECTION
  2
HEADER
  9
$EXTMIN
 10
-210.0
 20
-148.5
  9
$EXTMAX
 10
210.0
 20
148.5
  9
$PDMODE
 70
    32
  9
$PDSIZE
 40
1.5
  9
$LTSCALE
 40
10.0
  0
ENDSEC
  0
SECTION
  2
TABLES
  0
TABLE
  2
LTYPE
 70
    15
  0
LTYPE
  2
CONTINUOUS
 70
    64
  3
実線
 72
    65
 73
     0
 40
0.0
  0
LTYPE
  2
DASHED
 70
    64
  3
破線A
 72
    65
 73
     2
 40
0.6
 49
0.4
 49
-0.2
  0
LTYPE
  2
DASHEDX2
 70
    64
  3
破線B
 72
    65
 73
     2
 40
1.3
 49
0.9
 49
-0.4
  0
LTYPE
  2
DASHDOT
 70
    64
  3
１点鎖線A
 72
    65
 73
     4
 40
0.5375
 49
0.375
 49
-0.05
 49
0.0625
 49
-0.05
  0
LTYPE
  2
DASHDOTX2
 70
    64
  3
１点鎖線B
 72
    65
 73
     4
 40
1.075
 49
0.75
 49
-0.1
 49
0.125
 49
-0.1
  0
LTYPE
  2
DIVIDE2
 70
    64
  3
２点鎖線A
 72
    65
 73
     6
 40
0.5125
 49
0.3
 49
-0.0375
 49
0.05
 49
-0.0375
 49
0.05
 49
-0.0375
  0
LTYPE
  2
DIVIDE
 70
    64
  3
２点鎖線B
 72
    65
 73
     6
 40
1.05
 49
0.55
 49
-0.1
 49
0.1
 49
-0.1
 49
0.1
 49
-0.1
  0
LTYPE
  2
DOT
 70
    64
  3
点線A
 72
    65
 73
     2
 40
0.1125
 49
0.0625
 49
-0.05
  0
LTYPE
  2
DOTX2
 70
    64
  3
点線B
 72
    65
 73
     2
 40
0.275
 49
0.15
 49
-0.125
  0
LTYPE
  2
CONTINUOUS
 70
    64
  3
実線
 72
    65
 73
     0
 40
0.0
  0
LTYPE
  2
CONTINUOUS
 70
    64
  3
実線
 72
    65
 73
     0
 40
0.0
  0
LTYPE
  2
CONTINUOUS
 70
    64
  3
実線
 72
    65
 73
     0
 40
0.0
  0
LTYPE
  2
CONTINUOUS
 70
    64
  3
実線
 72
    65
 73
     0
 40
0.0
  0
LTYPE
  2
CONTINUOUS
 70
    64
  3
実線
 72
    65
 73
     0
 40
0.0
  0
LTYPE
  2
CONTINUOUS
 70
    64
  3
実線
 72
    65
 73
     0
 40
0.0
  0
ENDTAB
  0
TABLE
  2
LAYER
 70
    35
  0
LAYER
  2
通り芯
 70
     0
 62
    15
  6
CONTINUOUS
  0
LAYER
  2
補助線
 70
     0
 62
    16
  6
DOT
  0
LAYER
  2
躯体
 70
     0
 62
    31
  6
CONTINUOUS
  0
LAYER
  2
型材
 70
     0
 62
    32
  6
CONTINUOUS
  0
LAYER
  2
型材断面
 70
     0
 62
    47
  6
CONTINUOUS
  0
LAYER
  2
ガラス
 70
     0
 62
    48
  6
CONTINUOUS
  0
LAYER
  2
ゴム等
 70
     0
 62
    63
  6
CONTINUOUS
  0
LAYER
  2
ボルト／ビス
 70
     0
 62
    64
  6
CONTINUOUS
  0
LAYER
  2
文字
 70
     0
 62
    79
  6
CONTINUOUS
  0
LAYER
  2
寸法
 70
     0
 62
    80
  6
CONTINUOUS
  0
LAYER
  2
ﾊｯﾁﾝｸﾞ
 70
     0
 62
    95
  6
CONTINUOUS
  0
LAYER
  2
別途部材
 70
     0
 62
    96
  6
CONTINUOUS
  0
LAYER
  2
曲げ物
 70
     0
 62
   111
  6
CONTINUOUS
  0
LAYER
  2
鉄骨等
 70
     0
 62
   112
  6
CONTINUOUS
  0
LAYER
  2
St
 70
     0
 62
   127
  6
CONTINUOUS
  0
LAYER
  2
その他部品等
 70
     0
 62
   128
  6
CONTINUOUS
  0
LAYER
  2
ｶﾞｽｹｯﾄ
 70
     0
 62
   143
  6
CONTINUOUS
  0
LAYER
  2
ｽｹｯﾁ
 70
     0
 62
    14
  6
CONTINUOUS
  0
LAYER
  2
0
 70
     0
 62
    17
  6
CONTINUOUS
  0
LAYER
  2
1
 70
     0
 62
    30
  6
CONTINUOUS
  0
LAYER
  2
4
 70
     0
 62
    33
  6
CONTINUOUS
  0
LAYER
  2
ﾚｲﾔ3
 70
     0
 62
    46
  6
CONTINUOUS
  0
LAYER
  2
外形線
 70
     0
 62
    49
  6
CONTINUOUS
  0
LAYER
  2
部品
 70
     0
 62
    14
  6
CONTINUOUS
  0
LAYER
  2
サッシ芯
 70
     0
 62
    17
  6
DASHDOTX2
  0
LAYER
  2
寸法線
 70
     0
 62
    62
  6
CONTINUOUS
  0
LAYER
  2
姿図外形線
 70
     0
 62
    65
  6
CONTINUOUS
  0
LAYER
  2
姿補助線
 70
     0
 62
    30
  6
CONTINUOUS
  0
LAYER
  2
透視線
 70
     0
 62
    78
  6
DOT
  0
LAYER
  2
用紙
 70
     0
 62
    81
  6
CONTINUOUS
  0
LAYER
  2
実線図枠
 70
     0
 62
    94
  6
CONTINUOUS
  0
LAYER
  2
補助図枠
 70
     0
 62
    97
  6
CONTINUOUS
  0
LAYER
  2
建具記号
 70
     0
 62
   110
  6
CONTINUOUS
  0
LAYER
  2
補助文字
 70
     0
 62
   113
  6
CONTINUOUS
  0
LAYER
  2
LAYER010
 70
     0
 62
    11
  6
CONTINUOUS
  0
ENDTAB
  0
TABLE
  2
STYLE
 70
    10
  0
STYLE
  2
STANDARD
 70
     0
 40
1.0
 41
1.0
 42
1.0
 50
0.0
 71
     0
  3
TXT
  4
BIGFONT
  0
STYLE
  2
TATE
 70
     4
 40
1.0
 41
1.0
 42
1.0
 50
0.0
 71
     0
  3
TXT
  4
BIGFONT
  0
STYLE
  2
TextStyle03
 70
     0
 40
1.0
 41
1.0
 42
1.0
 50
0.0
 71
     0
  3
MONOTXT
  4
BIGFONT
  0
STYLE
  2
TextStyle04
 70
     0
 40
1.0
 41
1.0
 42
1.0
 50
0.0
 71
     0
  3
MONOTXT
  4
BIGFONT
  0
STYLE
  2
TextStyle05
 70
     0
 40
1.0
 41
1.0
 42
1.0
 50
0.0
 71
     0
  3
MONOTXT
  4
BIGFONT
  0
STYLE
  2
TextStyle06
 70
     0
 40
1.0
 41
1.0
 42
1.0
 50
0.0
 71
     0
  3
MONOTXT
  4
BIGFONT
  0
STYLE
  2
TextStyle07
 70
     0
 40
1.0
 41
1.0
 42
1.0
 50
0.0
 71
     0
  3
MONOTXT
  4
BIGFONT
  0
STYLE
  2
TextStyle08
 70
     0
 40
1.0
 41
1.0
 42
1.0
 50
0.0
 71
     0
  3
MONOTXT
  4
BIGFONT
  0
STYLE
  2
TextStyle09
 70
     0
 40
1.0
 41
1.0
 42
1.0
 50
0.0
 71
     0
  3
MONOTXT
  4
BIGFONT
  0
STYLE
  2
TextStyle10
 70
     0
 40
1.0
 41
1.0
 42
1.0
 50
0.0
 71
     0
  3
MONOTXT
  4
BIGFONT
  0
ENDTAB
  0
ENDSEC
  0
SECTION
  2
BLOCKS
  0
BLOCK
  2
*GRP_0001
 70
    65
 10
0.0
 20
0.0
  0
LINE
  8
型材断面
  6
CONTINUOUS
 10
195.0
 20
133.5
 11
195.0
 21
-133.5
  0
LINE
  8
型材断面
  6
CONTINUOUS
 10
195.0
 20
-133.5
 11
-185.0
 21
-133.5
  0
LINE
  8
型材断面
  6
CONTINUOUS
 10
-185.0
 20
-133.5
 11
-185.0
 21
133.5
  0
LINE
  8
型材断面
  6
CONTINUOUS
 10
195.0
 20
133.5
 11
-185.0
 21
133.5
  0
LINE
  8
型材断面
  6
CONTINUOUS
 10
145.0
 20
-133.5
 11
145.0
 21
-118.5
  0
LINE
  8
型材断面
  6
CONTINUOUS
 10
195.0
 20
-118.5
 11
145.0
 21
-118.5
  0
ENDBLK
  0
BLOCK
  2
*DIM_0002
 70
    65
 10
0.0
 20
0.0
  0
LINE
  8
寸法
  6
BYBLOCK
 62
     0
 10
43.990438
 20
-61.87628
 11
73.960088
 21
-61.87628
  0
LINE
  8
寸法
  6
BYBLOCK
 62
     0
 10
73.960088
 20
-70.209613
 11
73.960088
 21
-61.87628
  0
POINT
  8
寸法
 62
     0
 10
73.960088
 20
-70.209613
  0
POINT
  8
寸法
 62
     0
 10
73.960088
 20
-61.87628
  0
TEXT
  7
TextStyle03
  8
寸法
  6
CONTINUOUS
 62
     0
 10
73.6
 20
-68.5125
  1
250
 40
3.0
 50
90.0
 72
     5
 11
73.6
 21
-63.6375
  0
ENDBLK
  0
BLOCK
  2
*DIM_0003
 70
    65
 10
0.0
 20
0.0
  0
LINE
  8
寸法
  6
BYBLOCK
 62
     0
 10
154.076993
 20
-53.785395
 11
162.135282
 21
-53.785395
  0
LINE
  8
寸法
  6
BYBLOCK
 62
     0
 10
154.076993
 20
-83.118728
 11
162.135282
 21
-83.118728
  0
LINE
  8
寸法
  6
BYBLOCK
 62
     0
 10
162.135282
 20
-53.785395
 11
162.135282
 21
-83.118728
  0
POINT
  8
寸法
 62
     0
 10
162.135282
 20
-53.785395
  0
POINT
  8
寸法
 62
     0
 10
162.135282
 20
-83.118728
  0
TEXT
  7
TextStyle03
  8
寸法
  6
CONTINUOUS
 62
     0
 10
161.775
 20
-70.9125
  1
880
 40
3.0
 50
90.0
 72
     5
 11
161.775
 21
-66.0375
  0
ENDBLK
  0
BLOCK
  2
*DIM_0004
 70
    65
 10
0.0
 20
0.0
  0
LINE
  8
寸法
  6
BYBLOCK
 62
     0
 10
-108.676228
 20
-13.511205
 11
-108.676228
 21
-13.121378
  0
LINE
  8
寸法
  6
BYBLOCK
 62
     0
 10
57.990438
 20
-13.121378
 11
-108.676228
 21
-13.121378
  0
POINT
  8
寸法
 62
     0
 10
57.990438
 20
-13.121378
  0
POINT
  8
寸法
 62
     0
 10
-108.676228
 20
-13.121378
  0
TEXT
  7
TextStyle03
  8
寸法
  6
CONTINUOUS
 62
     0
 10
-37.06875
 20
-12.775
  1
呼称寸法　5000
 40
3.0
 72
     5
 11
-13.63125
 21
-12.775
  0
ENDBLK
  0
BLOCK
  2
*DIM_0005
 70
    65
 10
0.0
 20
0.0
  0
LINE
  8
寸法
  6
BYBLOCK
 62
     0
 10
120.730325
 20
-52.785395
 11
120.730325
 21
-44.553603
  0
LINE
  8
寸法
  6
BYBLOCK
 62
     0
 10
153.076993
 20
-52.785395
 11
153.076993
 21
-44.553603
  0
LINE
  8
寸法
  6
BYBLOCK
 62
     0
 10
120.730325
 20
-44.553603
 11
153.076993
 21
-44.553603
  0
POINT
  8
寸法
 62
     0
 10
120.730325
 20
-44.553603
  0
POINT
  8
寸法
 62
     0
 10
153.076993
 20
-44.553603
  0
TEXT
  7
TextStyle03
  8
寸法
  6
CONTINUOUS
 62
     0
 10
132.775
 20
-44.2
  1
970.4
 40
3.0
 72
     5
 11
141.025
 21
-44.2
  0
ENDBLK
  0
BLOCK
  2
*DIM_0006
 70
    65
 10
0.0
 20
0.0
  0
LINE
  8
寸法
  6
BYBLOCK
 62
     0
 10
-92.00956
 20
19.183902
 11
-92.00956
 21
13.88158
  0
LINE
  8
寸法
  6
BYBLOCK
 62
     0
 10
-25.342895
 20
19.183905
 11
-25.342895
 21
13.88158
  0
LINE
  8
寸法
  6
BYBLOCK
 62
     0
 10
-92.00956
 20
13.88158
 11
-25.342895
 21
13.88158
  0
POINT
  8
寸法
 62
     0
 10
-92.00956
 20
13.88158
  0
POINT
  8
寸法
 62
     0
 10
-25.342895
 20
13.88158
  0
TEXT
  7
TextStyle03
  8
寸法
  6
CONTINUOUS
 62
     0
 10
-61.98125
 20
14.25
  1
2000
 40
3.0
 72
     5
 11
-55.41875
 21
14.25
  0
ENDBLK
  0
BLOCK
  2
*DIM_0007
 70
    65
 10
0.0
 20
0.0
  0
LINE
  8
寸法
  6
BYBLOCK
 62
     0
 10
41.32377
 20
19.183902
 11
41.32377
 21
13.88158
  0
LINE
  8
寸法
  6
BYBLOCK
 62
     0
 10
-25.342895
 20
13.88158
 11
41.32377
 21
13.88158
  0
POINT
  8
寸法
 62
     0
 10
41.32377
 20
13.88158
  0
TEXT
  7
TextStyle03
  8
寸法
  6
CONTINUOUS
 62
     0
 10
4.69375
 20
14.25
  1
2000
 40
3.0
 72
     5
 11
11.25625
 21
14.25
  0
ENDBLK
  0
BLOCK
  2
*GRP_0008
 70
    65
 10
0.0
 20
0.0
  0
LINE
  8
別途部材
  6
CONTINUOUS
 62
    96
 10
-110.342895
 20
-70.209613
 11
-110.742895
 21
-71.209613
  0
LINE
  8
別途部材
  6
CONTINUOUS
 62
    96
 10
-110.342895
 20
-70.209613
 11
-25.342895
 21
-70.209613
  0
LINE
  8
別途部材
  6
CONTINUOUS
 10
-110.742895
 20
-71.209613
 11
-25.342895
 21
-71.209613
  0
LINE
  8
別途部材
  6
CONTINUOUS
 10
-25.842895
 20
-60.87628
 11
-26.842895
 21
-61.87628
  0
LINE
  8
別途部材
  6
CONTINUOUS
 10
-27.842895
 20
-61.87628
 11
-28.842895
 21
-60.87628
  0
LINE
  8
別途部材
  6
CONTINUOUS
 10
-29.842895
 20
-60.87628
 11
-30.842895
 21
-61.87628
  0
LINE
  8
別途部材
  6
CONTINUOUS
 10
-28.842895
 20
-60.87628
 11
-29.842895
 21
-60.87628
  0
LINE
  8
別途部材
  6
CONTINUOUS
 10
-25.842895
 20
-60.87628
 11
-25.342895
 21
-60.87628
  0
LINE
  8
別途部材
  6
CONTINUOUS
 10
-31.842895
 20
-61.87628
 11
-32.842895
 21
-60.87628
  0
LINE
  8
別途部材
  6
CONTINUOUS
 10
-33.842895
 20
-60.87628
 11
-34.842895
 21
-61.87628
  0
LINE
  8
別途部材
  6
CONTINUOUS
 10
-32.842895
 20
-60.87628
 11
-33.842895
 21
-60.87628
  0
LINE
  8
別途部材
  6
CONTINUOUS
 10
-35.842895
 20
-61.87628
 11
-36.842895
 21
-60.87628
  0
LINE
  8
別途部材
  6
CONTINUOUS
 10
-37.842895
 20
-60.87628
 11
-38.842895
 21
-61.87628
  0
LINE
  8
別途部材
  6
CONTINUOUS
 10
-36.842895
 20
-60.87628
 11
-37.842895
 21
-60.87628
  0
LINE
  8
別途部材
  6
CONTINUOUS
 10
-39.842895
 20
-61.87628
 11
-40.842895
 21
-60.87628
  0
LINE
  8
別途部材
  6
CONTINUOUS
 10
-41.842895
 20
-60.87628
 11
-42.842895
 21
-61.87628
  0
LINE
  8
別途部材
  6
CONTINUOUS
 10
-40.842895
 20
-60.87628
 11
-41.842895
 21
-60.87628
  0
LINE
  8
別途部材
  6
CONTINUOUS
 10
-43.842895
 20
-61.87628
 11
-44.842895
 21
-60.87628
  0
LINE
  8
別途部材
  6
CONTINUOUS
 10
-45.842895
 20
-60.87628
 11
-46.842895
 21
-61.87628
  0
LINE
  8
別途部材
  6
CONTINUOUS
 10
-44.842895
 20
-60.87628
 11
-45.842895
 21
-60.87628
  0
LINE
  8
別途部材
  6
CONTINUOUS
 10
-47.842895
 20
-61.87628
 11
-48.842895
 21
-60.87628
  0
LINE
  8
別途部材
  6
CONTINUOUS
 10
-49.842895
 20
-60.87628
 11
-50.842895
 21
-61.87628
  0
LINE
  8
別途部材
  6
CONTINUOUS
 10
-48.842895
 20
-60.87628
 11
-49.842895
 21
-60.87628
  0
LINE
  8
別途部材
  6
CONTINUOUS
 10
-51.842895
 20
-61.87628
 11
-52.842895
 21
-60.87628
  0
LINE
  8
別途部材
  6
CONTINUOUS
 10
-53.842895
 20
-60.87628
 11
-54.842895
 21
-61.87628
  0
LINE
  8
別途部材
  6
CONTINUOUS
 10
-52.842895
 20
-60.87628
 11
-53.842895
 21
-60.87628
  0
LINE
  8
別途部材
  6
CONTINUOUS
 10
-55.842895
 20
-61.87628
 11
-56.842895
 21
-60.87628
  0
LINE
  8
別途部材
  6
CONTINUOUS
 10
-57.842895
 20
-60.87628
 11
-58.842895
 21
-61.87628
  0
LINE
  8
別途部材
  6
CONTINUOUS
 10
-56.842895
 20
-60.87628
 11
-57.842895
 21
-60.87628
  0
LINE
  8
別途部材
  6
CONTINUOUS
 10
-59.842895
 20
-61.87628
 11
-60.842895
 21
-60.87628
  0
LINE
  8
別途部材
  6
CONTINUOUS
 10
-61.842895
 20
-60.87628
 11
-62.842895
 21
-61.87628
  0
LINE
  8
別途部材
  6
CONTINUOUS
 10
-60.842895
 20
-60.87628
 11
-61.842895
 21
-60.87628
  0
LINE
  8
別途部材
  6
CONTINUOUS
 10
-63.842895
 20
-61.87628
 11
-64.842895
 21
-60.87628
  0
LINE
  8
別途部材
  6
CONTINUOUS
 10
-65.842895
 20
-60.87628
 11
-66.842895
 21
-61.87628
  0
LINE
  8
別途部材
  6
CONTINUOUS
 10
-64.842895
 20
-60.87628
 11
-65.842895
 21
-60.87628
  0
LINE
  8
別途部材
  6
CONTINUOUS
 10
-67.842895
 20
-61.87628
 11
-68.842895
 21
-60.87628
  0
LINE
  8
別途部材
  6
CONTINUOUS
 10
-69.842895
 20
-60.87628
 11
-70.842895
 21
-61.87628
  0
LINE
  8
別途部材
  6
CONTINUOUS
 10
-68.842895
 20
-60.87628
 11
-69.842895
 21
-60.87628
  0
LINE
  8
別途部材
  6
CONTINUOUS
 10
-66.842895
 20
-61.87628
 11
-67.842895
 21
-61.87628
  0
LINE
  8
別途部材
  6
CONTINUOUS
 10
-62.842895
 20
-61.87628
 11
-63.842895
 21
-61.87628
  0
LINE
  8
別途部材
  6
CONTINUOUS
 10
-58.842895
 20
-61.87628
 11
-59.842895
 21
-61.87628
  0
LINE
  8
別途部材
  6
CONTINUOUS
 10
-54.842895
 20
-61.87628
 11
-55.842895
 21
-61.87628
  0
LINE
  8
別途部材
  6
CONTINUOUS
 10
-50.842895
 20
-61.87628
 11
-51.842895
 21
-61.87628
  0
LINE
  8
別途部材
  6
CONTINUOUS
 10
-46.842895
 20
-61.87628
 11
-47.842895
 21
-61.87628
  0
LINE
  8
別途部材
  6
CONTINUOUS
 10
-42.842895
 20
-61.87628
 11
-43.842895
 21
-61.87628
  0
LINE
  8
別途部材
  6
CONTINUOUS
 10
-38.842895
 20
-61.87628
 11
-39.842895
 21
-61.87628
  0
LINE
  8
別途部材
  6
CONTINUOUS
 10
-34.842895
 20
-61.87628
 11
-35.842895
 21
-61.87628
  0
LINE
  8
別途部材
  6
CONTINUOUS
 10
-30.842895
 20
-61.87628
 11
-31.842895
 21
-61.87628
  0
LINE
  8
別途部材
  6
CONTINUOUS
 10
-27.842895
 20
-61.87628
 11
-26.842895
 21
-61.87628
  0
LINE
  8
別途部材
  6
CONTINUOUS
 10
-71.842895
 20
-61.87628
 11
-72.842895
 21
-60.87628
  0
LINE
  8
別途部材
  6
CONTINUOUS
 10
-73.842895
 20
-60.87628
 11
-74.842895
 21
-61.87628
  0
LINE
  8
別途部材
  6
CONTINUOUS
 10
-72.842895
 20
-60.87628
 11
-73.842895
 21
-60.87628
  0
LINE
  8
別途部材
  6
CONTINUOUS
 10
-75.842895
 20
-61.87628
 11
-76.842895
 21
-60.87628
  0
LINE
  8
別途部材
  6
CONTINUOUS
 10
-77.842895
 20
-60.87628
 11
-78.842895
 21
-61.87628
  0
LINE
  8
別途部材
  6
CONTINUOUS
 10
-76.842895
 20
-60.87628
 11
-77.842895
 21
-60.87628
  0
LINE
  8
別途部材
  6
CONTINUOUS
 10
-79.842895
 20
-61.87628
 11
-80.842895
 21
-60.87628
  0
LINE
  8
別途部材
  6
CONTINUOUS
 10
-81.842895
 20
-60.87628
 11
-82.842895
 21
-61.87628
  0
LINE
  8
別途部材
  6
CONTINUOUS
 10
-80.842895
 20
-60.87628
 11
-81.842895
 21
-60.87628
  0
LINE
  8
別途部材
  6
CONTINUOUS
 10
-83.842895
 20
-61.87628
 11
-84.842895
 21
-60.87628
  0
LINE
  8
別途部材
  6
CONTINUOUS
 10
-85.842895
 20
-60.87628
 11
-86.842895
 21
-61.87628
  0
LINE
  8
別途部材
  6
CONTINUOUS
 10
-84.842895
 20
-60.87628
 11
-85.842895
 21
-60.87628
  0
LINE
  8
別途部材
  6
CONTINUOUS
 10
-87.842895
 20
-61.87628
 11
-88.842895
 21
-60.87628
  0
LINE
  8
別途部材
  6
CONTINUOUS
 10
-89.842895
 20
-60.87628
 11
-90.842895
 21
-61.87628
  0
LINE
  8
別途部材
  6
CONTINUOUS
 10
-88.842895
 20
-60.87628
 11
-89.842895
 21
-60.87628
  0
LINE
  8
別途部材
  6
CONTINUOUS
 10
-91.842895
 20
-61.87628
 11
-92.842895
 21
-60.87628
  0
LINE
  8
別途部材
  6
CONTINUOUS
 10
-93.842895
 20
-60.87628
 11
-94.842895
 21
-61.87628
  0
LINE
  8
別途部材
  6
CONTINUOUS
 10
-92.842895
 20
-60.87628
 11
-93.842895
 21
-60.87628
  0
LINE
  8
別途部材
  6
CONTINUOUS
 10
-90.842895
 20
-61.87628
 11
-91.842895
 21
-61.87628
  0
LINE
  8
別途部材
  6
CONTINUOUS
 10
-86.842895
 20
-61.87628
 11
-87.842895
 21
-61.87628
  0
LINE
  8
別途部材
  6
CONTINUOUS
 10
-82.842895
 20
-61.87628
 11
-83.842895
 21
-61.87628
  0
LINE
  8
別途部材
  6
CONTINUOUS
 10
-78.842895
 20
-61.87628
 11
-79.842895
 21
-61.87628
  0
LINE
  8
別途部材
  6
CONTINUOUS
 10
-74.842895
 20
-61.87628
 11
-75.842895
 21
-61.87628
  0
LINE
  8
別途部材
  6
CONTINUOUS
 10
-70.842895
 20
-61.87628
 11
-71.842895
 21
-61.87628
  0
LINE
  8
別途部材
  6
CONTINUOUS
 10
-94.842895
 20
-61.87628
 11
-94.842895
 21
-70.209613
  0
LINE
  8
別途部材
  6
CONTINUOUS
 10
-93.842895
 20
-60.87628
 11
-93.842895
 21
-70.209613
  0
LINE
  8
別途部材
  6
CONTINUOUS
 10
-91.842895
 20
-61.87628
 11
-91.842895
 21
-70.209613
  0
LINE
  8
別途部材
  6
CONTINUOUS
 10
-92.842895
 20
-60.87628
 11
-92.842895
 21
-70.209613
  0
LINE
  8
別途部材
  6
CONTINUOUS
 10
-89.842895
 20
-60.87628
 11
-89.842895
 21
-70.209613
  0
LINE
  8
別途部材
  6
CONTINUOUS
 10
-90.842895
 20
-61.87628
 11
-90.842895
 21
-70.209613
  0
LINE
  8
別途部材
  6
CONTINUOUS
 10
-87.842895
 20
-61.87628
 11
-87.842895
 21
-70.209613
  0
LINE
  8
別途部材
  6
CONTINUOUS
 10
-88.842895
 20
-60.87628
 11
-88.842895
 21
-70.209613
  0
LINE
  8
別途部材
  6
CONTINUOUS
 10
-86.842895
 20
-61.87628
 11
-86.842895
 21
-70.209613
  0
LINE
  8
別途部材
  6
CONTINUOUS
 10
-84.842895
 20
-60.87628
 11
-84.842895
 21
-70.209613
  0
LINE
  8
別途部材
  6
CONTINUOUS
 10
-85.842895
 20
-60.87628
 11
-85.842895
 21
-70.209613
  0
LINE
  8
別途部材
  6
CONTINUOUS
 10
-83.842895
 20
-61.87628
 11
-83.842895
 21
-70.209613
  0
LINE
  8
別途部材
  6
CONTINUOUS
 10
-82.842895
 20
-61.87628
 11
-82.842895
 21
-70.209613
  0
LINE
  8
別途部材
  6
CONTINUOUS
 10
-81.842895
 20
-60.87628
 11
-81.842895
 21
-70.209613
  0
LINE
  8
別途部材
  6
CONTINUOUS
 10
-80.842895
 20
-60.87628
 11
-80.842895
 21
-70.209613
  0
LINE
  8
別途部材
  6
CONTINUOUS
 10
-76.842895
 20
-60.87628
 11
-76.842895
 21
-70.209613
  0
LINE
  8
別途部材
  6
CONTINUOUS
 10
-69.842895
 20
-60.87628
 11
-69.842895
 21
-70.209613
  0
LINE
  8
別途部材
  6
CONTINUOUS
 10
-65.842895
 20
-60.87628
 11
-65.842895
 21
-70.209613
  0
LINE
  8
別途部材
  6
CONTINUOUS
 10
-63.842895
 20
-61.87628
 11
-63.842895
 21
-70.209613
  0
LINE
  8
別途部材
  6
CONTINUOUS
 10
-68.842895
 20
-60.87628
 11
-68.842895
 21
-70.209613
  0
LINE
  8
別途部材
  6
CONTINUOUS
 10
-72.842895
 20
-60.87628
 11
-72.842895
 21
-70.209613
  0
LINE
  8
別途部材
  6
CONTINUOUS
 10
-74.842895
 20
-61.87628
 11
-74.842895
 21
-70.209613
  0
LINE
  8
別途部材
  6
CONTINUOUS
 10
-77.842895
 20
-60.87628
 11
-77.842895
 21
-70.209613
  0
LINE
  8
別途部材
  6
CONTINUOUS
 10
-78.842895
 20
-61.87628
 11
-78.842895
 21
-70.209613
  0
LINE
  8
別途部材
  6
CONTINUOUS
 10
-79.842895
 20
-61.87628
 11
-79.842895
 21
-70.209613
  0
LINE
  8
別途部材
  6
CONTINUOUS
 10
-75.842895
 20
-61.87628
 11
-75.842895
 21
-70.209613
  0
LINE
  8
別途部材
  6
CONTINUOUS
 10
-73.842895
 20
-60.87628
 11
-73.842895
 21
-70.209613
  0
LINE
  8
別途部材
  6
CONTINUOUS
 10
-71.842895
 20
-61.87628
 11
-71.842895
 21
-70.209613
  0
LINE
  8
別途部材
  6
CONTINUOUS
 10
-70.842895
 20
-61.87628
 11
-70.842895
 21
-70.209613
  0
LINE
  8
別途部材
  6
CONTINUOUS
 10
-67.842895
 20
-61.87628
 11
-67.842895
 21
-70.209613
  0
LINE
  8
別途部材
  6
CONTINUOUS
 10
-66.842895
 20
-61.87628
 11
-66.842895
 21
-70.209613
  0
LINE
  8
別途部材
  6
CONTINUOUS
 10
-64.842895
 20
-60.87628
 11
-64.842895
 21
-70.209613
  0
LINE
  8
別途部材
  6
CONTINUOUS
 10
-61.842895
 20
-60.87628
 11
-61.842895
 21
-70.209613
  0
LINE
  8
別途部材
  6
CONTINUOUS
 10
-62.842895
 20
-61.87628
 11
-62.842895
 21
-70.209613
  0
LINE
  8
別途部材
  6
CONTINUOUS
 10
-60.842895
 20
-60.87628
 11
-60.842895
 21
-70.209613
  0
LINE
  8
別途部材
  6
CONTINUOUS
 10
-59.842895
 20
-61.87628
 11
-59.842895
 21
-70.209613
  0
LINE
  8
別途部材
  6
CONTINUOUS
 10
-58.842895
 20
-61.87628
 11
-58.842895
 21
-70.209613
  0
LINE
  8
別途部材
  6
CONTINUOUS
 10
-57.842895
 20
-60.87628
 11
-57.842895
 21
-70.209613
  0
LINE
  8
別途部材
  6
CONTINUOUS
 10
-55.842895
 20
-61.87628
 11
-55.842895
 21
-70.209613
  0
LINE
  8
別途部材
  6
CONTINUOUS
 10
-56.842895
 20
-60.87628
 11
-56.842895
 21
-70.209613
  0
LINE
  8
別途部材
  6
CONTINUOUS
 10
-53.842895
 20
-60.87628
 11
-53.842895
 21
-70.209613
  0
LINE
  8
別途部材
  6
CONTINUOUS
 10
-54.842895
 20
-61.87628
 11
-54.842895
 21
-70.209613
  0
LINE
  8
別途部材
  6
CONTINUOUS
 10
-50.842895
 20
-61.87628
 11
-50.842895
 21
-70.209613
  0
LINE
  8
別途部材
  6
CONTINUOUS
 10
-49.842895
 20
-60.87628
 11
-49.842895
 21
-70.209613
  0
LINE
  8
別途部材
  6
CONTINUOUS
 10
-48.842895
 20
-60.87628
 11
-48.842895
 21
-70.209613
  0
LINE
  8
別途部材
  6
CONTINUOUS
 10
-51.842895
 20
-61.87628
 11
-51.842895
 21
-70.209613
  0
LINE
  8
別途部材
  6
CONTINUOUS
 10
-52.842895
 20
-60.87628
 11
-52.842895
 21
-70.209613
  0
LINE
  8
別途部材
  6
CONTINUOUS
 10
-44.842895
 20
-60.87628
 11
-44.842895
 21
-70.209613
  0
LINE
  8
別途部材
  6
CONTINUOUS
 10
-46.842895
 20
-61.87628
 11
-46.842895
 21
-70.209613
  0
LINE
  8
別途部材
  6
CONTINUOUS
 10
-47.842895
 20
-61.87628
 11
-47.842895
 21
-70.209613
  0
LINE
  8
別途部材
  6
CONTINUOUS
 10
-45.842895
 20
-60.87628
 11
-45.842895
 21
-70.209613
  0
LINE
  8
別途部材
  6
CONTINUOUS
 10
-43.842895
 20
-61.87628
 11
-43.842895
 21
-70.209613
  0
LINE
  8
別途部材
  6
CONTINUOUS
 10
-41.842895
 20
-60.87628
 11
-41.842895
 21
-70.209613
  0
LINE
  8
別途部材
  6
CONTINUOUS
 10
-40.842895
 20
-60.87628
 11
-40.842895
 21
-70.209613
  0
LINE
  8
別途部材
  6
CONTINUOUS
 10
-38.842895
 20
-61.87628
 11
-38.842895
 21
-70.209613
  0
LINE
  8
別途部材
  6
CONTINUOUS
 10
-39.842895
 20
-61.87628
 11
-39.842895
 21
-70.209613
  0
LINE
  8
別途部材
  6
CONTINUOUS
 10
-42.842895
 20
-61.87628
 11
-42.842895
 21
-70.209613
  0
LINE
  8
別途部材
  6
CONTINUOUS
 10
-37.842895
 20
-60.87628
 11
-37.842895
 21
-70.209613
  0
LINE
  8
別途部材
  6
CONTINUOUS
 10
-35.842895
 20
-61.87628
 11
-35.842895
 21
-70.209613
  0
LINE
  8
別途部材
  6
CONTINUOUS
 10
-36.842895
 20
-60.87628
 11
-36.842895
 21
-70.209613
  0
LINE
  8
別途部材
  6
CONTINUOUS
 10
-34.842895
 20
-61.87628
 11
-34.842895
 21
-70.209613
  0
LINE
  8
別途部材
  6
CONTINUOUS
 10
-33.842895
 20
-60.87628
 11
-33.842895
 21
-70.209613
  0
LINE
  8
別途部材
  6
CONTINUOUS
 10
-31.842895
 20
-61.87628
 11
-31.842895
 21
-70.209613
  0
LINE
  8
別途部材
  6
CONTINUOUS
 10
-32.842895
 20
-60.87628
 11
-32.842895
 21
-70.209613
  0
LINE
  8
別途部材
  6
CONTINUOUS
 10
-30.842895
 20
-61.87628
 11
-30.842895
 21
-70.209613
  0
LINE
  8
別途部材
  6
CONTINUOUS
 10
-29.842895
 20
-60.87628
 11
-29.842895
 21
-70.209613
  0
LINE
  8
別途部材
  6
CONTINUOUS
 10
-27.842895
 20
-61.87628
 11
-27.842895
 21
-70.209613
  0
LINE
  8
別途部材
  6
CONTINUOUS
 10
-28.842895
 20
-60.87628
 11
-28.842895
 21
-70.209613
  0
LINE
  8
別途部材
  6
CONTINUOUS
 10
-26.842895
 20
-61.87628
 11
-26.842895
 21
-70.209613
  0
LINE
  8
別途部材
  6
CONTINUOUS
 10
-25.842895
 20
-60.87628
 11
-25.842895
 21
-70.209613
  0
ARC
  8
別途部材
  6
CONTINUOUS
 10
-93.676227
 20
-79.542947
 40
17.666667
 50
93.786444
 51
148.109204
  0
LINE
  8
別途部材
  6
CONTINUOUS
 62
    96
 10
59.657105
 20
-70.209613
 11
60.057105
 21
-71.209613
  0
LINE
  8
別途部材
  6
CONTINUOUS
 62
    96
 10
59.657105
 20
-70.209613
 11
-25.342895
 21
-70.209613
  0
LINE
  8
別途部材
  6
CONTINUOUS
 10
60.057105
 20
-71.209613
 11
-25.342895
 21
-71.209613
  0
LINE
  8
別途部材
  6
CONTINUOUS
 10
-24.842895
 20
-60.87628
 11
-23.842895
 21
-61.87628
  0
LINE
  8
別途部材
  6
CONTINUOUS
 10
-22.842895
 20
-61.87628
 11
-21.842895
 21
-60.87628
  0
LINE
  8
別途部材
  6
CONTINUOUS
 10
-20.842895
 20
-60.87628
 11
-19.842895
 21
-61.87628
  0
LINE
  8
別途部材
  6
CONTINUOUS
 10
-21.842895
 20
-60.87628
 11
-20.842895
 21
-60.87628
  0
LINE
  8
別途部材
  6
CONTINUOUS
 10
-24.842895
 20
-60.87628
 11
-25.342895
 21
-60.87628
  0
LINE
  8
別途部材
  6
CONTINUOUS
 10
-18.842895
 20
-61.87628
 11
-17.842895
 21
-60.87628
  0
LINE
  8
別途部材
  6
CONTINUOUS
 10
-16.842895
 20
-60.87628
 11
-15.842895
 21
-61.87628
  0
LINE
  8
別途部材
  6
CONTINUOUS
 10
-17.842895
 20
-60.87628
 11
-16.842895
 21
-60.87628
  0
LINE
  8
別途部材
  6
CONTINUOUS
 10
-14.842895
 20
-61.87628
 11
-13.842895
 21
-60.87628
  0
LINE
  8
別途部材
  6
CONTINUOUS
 10
-12.842895
 20
-60.87628
 11
-11.842895
 21
-61.87628
  0
LINE
  8
別途部材
  6
CONTINUOUS
 10
-13.842895
 20
-60.87628
 11
-12.842895
 21
-60.87628
  0
LINE
  8
別途部材
  6
CONTINUOUS
 10
-10.842895
 20
-61.87628
 11
-9.842895
 21
-60.87628
  0
LINE
  8
別途部材
  6
CONTINUOUS
 10
-8.842895
 20
-60.87628
 11
-7.842895
 21
-61.87628
  0
LINE
  8
別途部材
  6
CONTINUOUS
 10
-9.842895
 20
-60.87628
 11
-8.842895
 21
-60.87628
  0
LINE
  8
別途部材
  6
CONTINUOUS
 10
-6.842895
 20
-61.87628
 11
-5.842895
 21
-60.87628
  0
LINE
  8
別途部材
  6
CONTINUOUS
 10
-4.842895
 20
-60.87628
 11
-3.842895
 21
-61.87628
  0
LINE
  8
別途部材
  6
CONTINUOUS
 10
-5.842895
 20
-60.87628
 11
-4.842895
 21
-60.87628
  0
LINE
  8
別途部材
  6
CONTINUOUS
 10
-2.842895
 20
-61.87628
 11
-1.842895
 21
-60.87628
  0
LINE
  8
別途部材
  6
CONTINUOUS
 10
-0.842895
 20
-60.87628
 11
0.157105
 21
-61.87628
  0
LINE
  8
別途部材
  6
CONTINUOUS
 10
-1.842895
 20
-60.87628
 11
-0.842895
 21
-60.87628
  0
LINE
  8
別途部材
  6
CONTINUOUS
 10
1.157105
 20
-61.87628
 11
2.157105
 21
-60.87628
  0
LINE
  8
別途部材
  6
CONTINUOUS
 10
3.157105
 20
-60.87628
 11
4.157105
 21
-61.87628
  0
LINE
  8
別途部材
  6
CONTINUOUS
 10
2.157105
 20
-60.87628
 11
3.157105
 21
-60.87628
  0
LINE
  8
別途部材
  6
CONTINUOUS
 10
5.157105
 20
-61.87628
 11
6.157105
 21
-60.87628
  0
LINE
  8
別途部材
  6
CONTINUOUS
 10
7.157105
 20
-60.87628
 11
8.157105
 21
-61.87628
  0
LINE
  8
別途部材
  6
CONTINUOUS
 10
6.157105
 20
-60.87628
 11
7.157105
 21
-60.87628
  0
LINE
  8
別途部材
  6
CONTINUOUS
 10
9.157105
 20
-61.87628
 11
10.157105
 21
-60.87628
  0
LINE
  8
別途部材
  6
CONTINUOUS
 10
11.157105
 20
-60.87628
 11
12.157105
 21
-61.87628
  0
LINE
  8
別途部材
  6
CONTINUOUS
 10
10.157105
 20
-60.87628
 11
11.157105
 21
-60.87628
  0
LINE
  8
別途部材
  6
CONTINUOUS
 10
13.157105
 20
-61.87628
 11
14.157105
 21
-60.87628
  0
LINE
  8
別途部材
  6
CONTINUOUS
 10
15.157105
 20
-60.87628
 11
16.157105
 21
-61.87628
  0
LINE
  8
別途部材
  6
CONTINUOUS
 10
14.157105
 20
-60.87628
 11
15.157105
 21
-60.87628
  0
LINE
  8
別途部材
  6
CONTINUOUS
 10
17.157105
 20
-61.87628
 11
18.157105
 21
-60.87628
  0
LINE
  8
別途部材
  6
CONTINUOUS
 10
19.157105
 20
-60.87628
 11
20.157105
 21
-61.87628
  0
LINE
  8
別途部材
  6
CONTINUOUS
 10
18.157105
 20
-60.87628
 11
19.157105
 21
-60.87628
  0
LINE
  8
別途部材
  6
CONTINUOUS
 10
16.157105
 20
-61.87628
 11
17.157105
 21
-61.87628
  0
LINE
  8
別途部材
  6
CONTINUOUS
 10
12.157105
 20
-61.87628
 11
13.157105
 21
-61.87628
  0
LINE
  8
別途部材
  6
CONTINUOUS
 10
8.157105
 20
-61.87628
 11
9.157105
 21
-61.87628
  0
LINE
  8
別途部材
  6
CONTINUOUS
 10
4.157105
 20
-61.87628
 11
5.157105
 21
-61.87628
  0
LINE
  8
別途部材
  6
CONTINUOUS
 10
0.157105
 20
-61.87628
 11
1.157105
 21
-61.87628
  0
LINE
  8
別途部材
  6
CONTINUOUS
 10
-3.842895
 20
-61.87628
 11
-2.842895
 21
-61.87628
  0
LINE
  8
別途部材
  6
CONTINUOUS
 10
-7.842895
 20
-61.87628
 11
-6.842895
 21
-61.87628
  0
LINE
  8
別途部材
  6
CONTINUOUS
 10
-11.842895
 20
-61.87628
 11
-10.842895
 21
-61.87628
  0
LINE
  8
別途部材
  6
CONTINUOUS
 10
-15.842895
 20
-61.87628
 11
-14.842895
 21
-61.87628
  0
LINE
  8
別途部材
  6
CONTINUOUS
 10
-19.842895
 20
-61.87628
 11
-18.842895
 21
-61.87628
  0
LINE
  8
別途部材
  6
CONTINUOUS
 10
-22.842895
 20
-61.87628
 11
-23.842895
 21
-61.87628
  0
LINE
  8
別途部材
  6
CONTINUOUS
 10
21.157105
 20
-61.87628
 11
22.157105
 21
-60.87628
  0
LINE
  8
別途部材
  6
CONTINUOUS
 10
23.157105
 20
-60.87628
 11
24.157105
 21
-61.87628
  0
LINE
  8
別途部材
  6
CONTINUOUS
 10
22.157105
 20
-60.87628
 11
23.157105
 21
-60.87628
  0
LINE
  8
別途部材
  6
CONTINUOUS
 10
25.157105
 20
-61.87628
 11
26.157105
 21
-60.87628
  0
LINE
  8
別途部材
  6
CONTINUOUS
 10
27.157105
 20
-60.87628
 11
28.157105
 21
-61.87628
  0
LINE
  8
別途部材
  6
CONTINUOUS
 10
26.157105
 20
-60.87628
 11
27.157105
 21
-60.87628
  0
LINE
  8
別途部材
  6
CONTINUOUS
 10
29.157105
 20
-61.87628
 11
30.157105
 21
-60.87628
  0
LINE
  8
別途部材
  6
CONTINUOUS
 10
31.157105
 20
-60.87628
 11
32.157105
 21
-61.87628
  0
LINE
  8
別途部材
  6
CONTINUOUS
 10
30.157105
 20
-60.87628
 11
31.157105
 21
-60.87628
  0
LINE
  8
別途部材
  6
CONTINUOUS
 10
33.157105
 20
-61.87628
 11
34.157105
 21
-60.87628
  0
LINE
  8
別途部材
  6
CONTINUOUS
 10
35.157105
 20
-60.87628
 11
36.157105
 21
-61.87628
  0
LINE
  8
別途部材
  6
CONTINUOUS
 10
34.157105
 20
-60.87628
 11
35.157105
 21
-60.87628
  0
LINE
  8
別途部材
  6
CONTINUOUS
 10
37.157105
 20
-61.87628
 11
38.157105
 21
-60.87628
  0
LINE
  8
別途部材
  6
CONTINUOUS
 10
39.157105
 20
-60.87628
 11
40.157105
 21
-61.87628
  0
LINE
  8
別途部材
  6
CONTINUOUS
 10
38.157105
 20
-60.87628
 11
39.157105
 21
-60.87628
  0
LINE
  8
別途部材
  6
CONTINUOUS
 10
41.157105
 20
-61.87628
 11
42.157105
 21
-60.87628
  0
LINE
  8
別途部材
  6
CONTINUOUS
 10
43.157105
 20
-60.87628
 11
44.157105
 21
-61.87628
  0
LINE
  8
別途部材
  6
CONTINUOUS
 10
42.157105
 20
-60.87628
 11
43.157105
 21
-60.87628
  0
LINE
  8
別途部材
  6
CONTINUOUS
 10
40.157105
 20
-61.87628
 11
41.157105
 21
-61.87628
  0
LINE
  8
別途部材
  6
CONTINUOUS
 10
36.157105
 20
-61.87628
 11
37.157105
 21
-61.87628
  0
LINE
  8
別途部材
  6
CONTINUOUS
 10
32.157105
 20
-61.87628
 11
33.157105
 21
-61.87628
  0
LINE
  8
別途部材
  6
CONTINUOUS
 10
28.157105
 20
-61.87628
 11
29.157105
 21
-61.87628
  0
LINE
  8
別途部材
  6
CONTINUOUS
 10
24.157105
 20
-61.87628
 11
25.157105
 21
-61.87628
  0
LINE
  8
別途部材
  6
CONTINUOUS
 10
20.157105
 20
-61.87628
 11
21.157105
 21
-61.87628
  0
LINE
  8
別途部材
  6
CONTINUOUS
 10
44.157105
 20
-61.87628
 11
44.157105
 21
-70.209613
  0
LINE
  8
別途部材
  6
CONTINUOUS
 10
43.157105
 20
-60.87628
 11
43.157105
 21
-70.209613
  0
LINE
  8
別途部材
  6
CONTINUOUS
 10
41.157105
 20
-61.87628
 11
41.157105
 21
-70.209613
  0
LINE
  8
別途部材
  6
CONTINUOUS
 10
42.157105
 20
-60.87628
 11
42.157105
 21
-70.209613
  0
LINE
  8
別途部材
  6
CONTINUOUS
 10
39.157105
 20
-60.87628
 11
39.157105
 21
-70.209613
  0
LINE
  8
別途部材
  6
CONTINUOUS
 10
40.157105
 20
-61.87628
 11
40.157105
 21
-70.209613
  0
LINE
  8
別途部材
  6
CONTINUOUS
 10
37.157105
 20
-61.87628
 11
37.157105
 21
-70.209613
  0
LINE
  8
別途部材
  6
CONTINUOUS
 10
38.157105
 20
-60.87628
 11
38.157105
 21
-70.209613
  0
LINE
  8
別途部材
  6
CONTINUOUS
 10
36.157105
 20
-61.87628
 11
36.157105
 21
-70.209613
  0
LINE
  8
別途部材
  6
CONTINUOUS
 10
34.157105
 20
-60.87628
 11
34.157105
 21
-70.209613
  0
LINE
  8
別途部材
  6
CONTINUOUS
 10
35.157105
 20
-60.87628
 11
35.157105
 21
-70.209613
  0
LINE
  8
別途部材
  6
CONTINUOUS
 10
33.157105
 20
-61.87628
 11
33.157105
 21
-70.209613
  0
LINE
  8
別途部材
  6
CONTINUOUS
 10
32.157105
 20
-61.87628
 11
32.157105
 21
-70.209613
  0
LINE
  8
別途部材
  6
CONTINUOUS
 10
31.157105
 20
-60.87628
 11
31.157105
 21
-70.209613
  0
LINE
  8
別途部材
  6
CONTINUOUS
 10
30.157105
 20
-60.87628
 11
30.157105
 21
-70.209613
  0
LINE
  8
別途部材
  6
CONTINUOUS
 10
26.157105
 20
-60.87628
 11
26.157105
 21
-70.209613
  0
LINE
  8
別途部材
  6
CONTINUOUS
 10
19.157105
 20
-60.87628
 11
19.157105
 21
-70.209613
  0
LINE
  8
別途部材
  6
CONTINUOUS
 10
15.157105
 20
-60.87628
 11
15.157105
 21
-70.209613
  0
LINE
  8
別途部材
  6
CONTINUOUS
 10
13.157105
 20
-61.87628
 11
13.157105
 21
-70.209613
  0
LINE
  8
別途部材
  6
CONTINUOUS
 10
18.157105
 20
-60.87628
 11
18.157105
 21
-70.209613
  0
LINE
  8
別途部材
  6
CONTINUOUS
 10
22.157105
 20
-60.87628
 11
22.157105
 21
-70.209613
  0
LINE
  8
別途部材
  6
CONTINUOUS
 10
24.157105
 20
-61.87628
 11
24.157105
 21
-70.209613
  0
LINE
  8
別途部材
  6
CONTINUOUS
 10
27.157105
 20
-60.87628
 11
27.157105
 21
-70.209613
  0
LINE
  8
別途部材
  6
CONTINUOUS
 10
28.157105
 20
-61.87628
 11
28.157105
 21
-70.209613
  0
LINE
  8
別途部材
  6
CONTINUOUS
 10
29.157105
 20
-61.87628
 11
29.157105
 21
-70.209613
  0
LINE
  8
別途部材
  6
CONTINUOUS
 10
25.157105
 20
-61.87628
 11
25.157105
 21
-70.209613
  0
LINE
  8
別途部材
  6
CONTINUOUS
 10
23.157105
 20
-60.87628
 11
23.157105
 21
-70.209613
  0
LINE
  8
別途部材
  6
CONTINUOUS
 10
21.157105
 20
-61.87628
 11
21.157105
 21
-70.209613
  0
LINE
  8
別途部材
  6
CONTINUOUS
 10
20.157105
 20
-61.87628
 11
20.157105
 21
-70.209613
  0
LINE
  8
別途部材
  6
CONTINUOUS
 10
17.157105
 20
-61.87628
 11
17.157105
 21
-70.209613
  0
LINE
  8
別途部材
  6
CONTINUOUS
 10
16.157105
 20
-61.87628
 11
16.157105
 21
-70.209613
  0
LINE
  8
別途部材
  6
CONTINUOUS
 10
14.157105
 20
-60.87628
 11
14.157105
 21
-70.209613
  0
LINE
  8
別途部材
  6
CONTINUOUS
 10
11.157105
 20
-60.87628
 11
11.157105
 21
-70.209613
  0
LINE
  8
別途部材
  6
CONTINUOUS
 10
12.157105
 20
-61.87628
 11
12.157105
 21
-70.209613
  0
LINE
  8
別途部材
  6
CONTINUOUS
 10
10.157105
 20
-60.87628
 11
10.157105
 21
-70.209613
  0
LINE
  8
別途部材
  6
CONTINUOUS
 10
9.157105
 20
-61.87628
 11
9.157105
 21
-70.209613
  0
LINE
  8
別途部材
  6
CONTINUOUS
 10
8.157105
 20
-61.87628
 11
8.157105
 21
-70.209613
  0
LINE
  8
別途部材
  6
CONTINUOUS
 10
7.157105
 20
-60.87628
 11
7.157105
 21
-70.209613
  0
LINE
  8
別途部材
  6
CONTINUOUS
 10
5.157105
 20
-61.87628
 11
5.157105
 21
-70.209613
  0
LINE
  8
別途部材
  6
CONTINUOUS
 10
6.157105
 20
-60.87628
 11
6.157105
 21
-70.209613
  0
LINE
  8
別途部材
  6
CONTINUOUS
 10
3.157105
 20
-60.87628
 11
3.157105
 21
-70.209613
  0
LINE
  8
別途部材
  6
CONTINUOUS
 10
4.157105
 20
-61.87628
 11
4.157105
 21
-70.209613
  0
LINE
  8
別途部材
  6
CONTINUOUS
 10
0.157105
 20
-61.87628
 11
0.157105
 21
-70.209613
  0
LINE
  8
別途部材
  6
CONTINUOUS
 10
-0.842895
 20
-60.87628
 11
-0.842895
 21
-70.209613
  0
LINE
  8
別途部材
  6
CONTINUOUS
 10
-1.842895
 20
-60.87628
 11
-1.842895
 21
-70.209613
  0
LINE
  8
別途部材
  6
CONTINUOUS
 10
1.157105
 20
-61.87628
 11
1.157105
 21
-70.209613
  0
LINE
  8
別途部材
  6
CONTINUOUS
 10
2.157105
 20
-60.87628
 11
2.157105
 21
-70.209613
  0
LINE
  8
別途部材
  6
CONTINUOUS
 10
-5.842895
 20
-60.87628
 11
-5.842895
 21
-70.209613
  0
LINE
  8
別途部材
  6
CONTINUOUS
 10
-3.842895
 20
-61.87628
 11
-3.842895
 21
-70.209613
  0
LINE
  8
別途部材
  6
CONTINUOUS
 10
-2.842895
 20
-61.87628
 11
-2.842895
 21
-70.209613
  0
LINE
  8
別途部材
  6
CONTINUOUS
 10
-4.842895
 20
-60.87628
 11
-4.842895
 21
-70.209613
  0
LINE
  8
別途部材
  6
CONTINUOUS
 10
-6.842895
 20
-61.87628
 11
-6.842895
 21
-70.209613
  0
LINE
  8
別途部材
  6
CONTINUOUS
 10
-8.842895
 20
-60.87628
 11
-8.842895
 21
-70.209613
  0
LINE
  8
別途部材
  6
CONTINUOUS
 10
-9.842895
 20
-60.87628
 11
-9.842895
 21
-70.209613
  0
LINE
  8
別途部材
  6
CONTINUOUS
 10
-11.842895
 20
-61.87628
 11
-11.842895
 21
-70.209613
  0
LINE
  8
別途部材
  6
CONTINUOUS
 10
-10.842895
 20
-61.87628
 11
-10.842895
 21
-70.209613
  0
LINE
  8
別途部材
  6
CONTINUOUS
 10
-7.842895
 20
-61.87628
 11
-7.842895
 21
-70.209613
  0
LINE
  8
別途部材
  6
CONTINUOUS
 10
-12.842895
 20
-60.87628
 11
-12.842895
 21
-70.209613
  0
LINE
  8
別途部材
  6
CONTINUOUS
 10
-14.842895
 20
-61.87628
 11
-14.842895
 21
-70.209613
  0
LINE
  8
別途部材
  6
CONTINUOUS
 10
-13.842895
 20
-60.87628
 11
-13.842895
 21
-70.209613
  0
LINE
  8
別途部材
  6
CONTINUOUS
 10
-15.842895
 20
-61.87628
 11
-15.842895
 21
-70.209613
  0
LINE
  8
別途部材
  6
CONTINUOUS
 10
-16.842895
 20
-60.87628
 11
-16.842895
 21
-70.209613
  0
LINE
  8
別途部材
  6
CONTINUOUS
 10
-18.842895
 20
-61.87628
 11
-18.842895
 21
-70.209613
  0
LINE
  8
別途部材
  6
CONTINUOUS
 10
-17.842895
 20
-60.87628
 11
-17.842895
 21
-70.209613
  0
LINE
  8
別途部材
  6
CONTINUOUS
 10
-19.842895
 20
-61.87628
 11
-19.842895
 21
-70.209613
  0
LINE
  8
別途部材
  6
CONTINUOUS
 10
-20.842895
 20
-60.87628
 11
-20.842895
 21
-70.209613
  0
LINE
  8
別途部材
  6
CONTINUOUS
 10
-22.842895
 20
-61.87628
 11
-22.842895
 21
-70.209613
  0
LINE
  8
別途部材
  6
CONTINUOUS
 10
-21.842895
 20
-60.87628
 11
-21.842895
 21
-70.209613
  0
LINE
  8
別途部材
  6
CONTINUOUS
 10
-23.842895
 20
-61.87628
 11
-23.842895
 21
-70.209613
  0
LINE
  8
別途部材
  6
CONTINUOUS
 10
-24.842895
 20
-60.87628
 11
-24.842895
 21
-70.209613
  0
ARC
  8
別途部材
  6
CONTINUOUS
 10
42.990437
 20
-79.542947
 40
17.666667
 50
31.890796
 51
86.213556
  0
ENDBLK
  0
BLOCK
  2
*DIM_0009
 70
    65
 10
0.0
 20
0.0
  0
LINE
  8
寸法
  6
BYBLOCK
 62
     0
 10
139.19037
 20
38.814033
 11
139.19037
 21
68.369967
  0
LINE
  8
寸法
  6
BYBLOCK
 62
     0
 10
147.523703
 20
68.369967
 11
139.19037
 21
68.369967
  0
POINT
  8
寸法
 62
     0
 10
147.523703
 20
68.369967
  0
POINT
  8
寸法
 62
     0
 10
139.19037
 20
68.369967
  0
TEXT
  7
TextStyle03
  8
寸法
  6
CONTINUOUS
 62
     0
 10
140.9125
 20
68.725
  1
250
 40
3.0
 72
     5
 11
145.7875
 21
68.725
  0
ENDBLK
  0
BLOCK
  2
*DIM_0010
 70
    65
 10
0.0
 20
0.0
  0
LINE
  8
寸法
  6
BYBLOCK
 62
     0
 10
92.010088
 20
22.814033
 11
92.010088
 21
52.814033
  0
POINT
  8
寸法
 62
     0
 10
92.010088
 20
22.814033
  0
POINT
  8
寸法
 62
     0
 10
92.010088
 20
52.814033
  0
TEXT
  7
TextStyle03
  8
寸法
  6
CONTINUOUS
 62
     0
 10
91.65
 20
26.9
  1
呼称寸法　900
 40
3.0
 50
90.0
 72
     5
 11
91.65
 21
48.65
  0
ENDBLK
  0
BLOCK
  2
*DIM_0011
 70
    65
 10
0.0
 20
0.0
  0
LINE
  8
寸法
  6
BYBLOCK
 62
     0
 10
148.890373
 20
55.814077
 11
92.010088
 21
55.814077
  0
LINE
  8
寸法
  6
BYBLOCK
 62
     0
 10
92.010088
 20
52.814033
 11
92.010088
 21
55.814077
  0
POINT
  8
寸法
 62
     0
 10
92.010088
 20
52.814033
  0
POINT
  8
寸法
 62
     0
 10
92.010088
 20
55.814077
  0
TEXT
  7
TextStyle03
  8
寸法
  6
CONTINUOUS
 62
     0
 10
91.65
 20
56.05625
  1
90
 40
3.0
 50
90.0
 72
     5
 11
91.65
 21
59.24375
  0
ENDBLK
  0
BLOCK
  2
*DIM_0012
 70
    65
 10
0.0
 20
0.0
  0
LINE
  8
寸法
  6
BYBLOCK
 62
     0
 10
148.890373
 20
19.813988
 11
92.010088
 21
19.813988
  0
LINE
  8
寸法
  6
BYBLOCK
 62
     0
 10
92.010088
 20
22.814033
 11
92.010088
 21
19.813988
  0
POINT
  8
寸法
 62
     0
 10
92.010088
 20
22.814033
  0
POINT
  8
寸法
 62
     0
 10
92.010088
 20
19.813988
  0
TEXT
  7
TextStyle03
  8
寸法
  6
CONTINUOUS
 62
     0
 10
91.65
 20
16.30625
  1
90
 40
3.0
 50
90.0
 72
     5
 11
91.65
 21
19.49375
  0
ENDBLK
  0
BLOCK
  2
*DIM_0013
 70
    65
 10
0.0
 20
0.0
  0
LINE
  8
寸法
  6
BYBLOCK
 62
     0
 10
147.523703
 20
55.4807
 11
147.523703
 21
68.369967
  0
LINE
  8
寸法
  6
BYBLOCK
 62
     0
 10
150.39037
 20
56.814077
 11
150.39037
 21
68.369967
  0
LINE
  8
寸法
  6
BYBLOCK
 62
     0
 10
147.523703
 20
68.369967
 11
150.39037
 21
68.369967
  0
POINT
  8
寸法
 62
     0
 10
147.523703
 20
68.369967
  0
POINT
  8
寸法
 62
     0
 10
150.39037
 20
68.369967
  0
TEXT
  7
TextStyle03
  8
寸法
  6
CONTINUOUS
 62
     0
 10
150.73125
 20
68.725
  1
86
 40
3.0
 72
     5
 11
153.91875
 21
68.725
  0
ENDBLK
  0
BLOCK
  2
*DIM_0014
 70
    65
 10
0.0
 20
0.0
  0
LINE
  8
寸法
  6
BYBLOCK
 62
     0
 10
60.657105
 20
-70.209613
 11
73.960088
 21
-70.209613
  0
LINE
  8
寸法
  6
BYBLOCK
 62
     0
 10
61.990482
 20
-73.07628
 11
73.960088
 21
-73.07628
  0
LINE
  8
寸法
  6
BYBLOCK
 62
     0
 10
73.960088
 20
-70.209613
 11
73.960088
 21
-73.07628
  0
POINT
  8
寸法
 62
     0
 10
73.960088
 20
-70.209613
  0
POINT
  8
寸法
 62
     0
 10
73.960088
 20
-73.07628
  0
TEXT
  7
TextStyle03
  8
寸法
  6
CONTINUOUS
 62
     0
 10
73.6
 20
-76.64375
  1
86
 40
3.0
 50
90.0
 72
     5
 11
73.6
 21
-73.45625
  0
ENDBLK
  0
BLOCK
  2
*DIM_0015
 70
    65
 10
0.0
 20
0.0
  0
LINE
  8
寸法
  6
BYBLOCK
 62
     0
 10
60.990482
 20
-71.576282
 11
60.990482
 21
-13.121378
  0
LINE
  8
寸法
  6
BYBLOCK
 62
     0
 10
57.990438
 20
-13.121378
 11
60.990482
 21
-13.121378
  0
POINT
  8
寸法
 62
     0
 10
57.990438
 20
-13.121378
  0
POINT
  8
寸法
 62
     0
 10
60.990482
 20
-13.121378
  0
TEXT
  7
TextStyle03
  8
寸法
  6
CONTINUOUS
 62
     0
 10
61.28125
 20
-12.775
  1
90
 40
3.0
 72
     5
 11
64.46875
 21
-12.775
  0
ENDBLK
  0
BLOCK
  2
*DIM_0016
 70
    65
 10
0.0
 20
0.0
  0
LINE
  8
寸法
  6
BYBLOCK
 62
     0
 10
-111.676272
 20
-71.576282
 11
-111.676272
 21
-13.121378
  0
LINE
  8
寸法
  6
BYBLOCK
 62
     0
 10
-108.676228
 20
-13.121378
 11
-111.676272
 21
-13.121378
  0
POINT
  8
寸法
 62
     0
 10
-108.676228
 20
-13.121378
  0
POINT
  8
寸法
 62
     0
 10
-111.676272
 20
-13.121378
  0
TEXT
  7
TextStyle03
  8
寸法
  6
CONTINUOUS
 62
     0
 10
-115.16875
 20
-12.75
  1
90
 40
3.0
 72
     5
 11
-111.98125
 21
-12.75
  0
ENDBLK
  0
BLOCK
  2
*DIM_0017
 70
    65
 10
0.0
 20
0.0
  0
LINE
  8
寸法
  6
BYBLOCK
 62
     0
 10
-111.676228
 20
47.814033
 11
-124.969065
 21
47.814033
  0
LINE
  8
寸法
  6
BYBLOCK
 62
     0
 10
-111.676228
 20
27.814033
 11
-124.969065
 21
27.814033
  0
LINE
  8
寸法
  6
BYBLOCK
 62
     0
 10
-124.969065
 20
47.814033
 11
-124.969065
 21
27.814033
  0
POINT
  8
寸法
 62
     0
 10
-124.969065
 20
47.814033
  0
POINT
  8
寸法
 62
     0
 10
-124.969065
 20
27.814033
  0
TEXT
  7
TextStyle03
  8
寸法
  6
CONTINUOUS
 62
     0
 10
-125.325
 20
35.3625
  1
600
 40
3.0
 50
90.0
 72
     5
 11
-125.325
 21
40.2375
  0
ENDBLK
  0
BLOCK
  2
*DIM_0018
 70
    65
 10
0.0
 20
0.0
  0
LINE
  8
寸法
  6
BYBLOCK
 62
     0
 10
-100.342893
 20
55.814033
 11
-100.342893
 21
84.922105
  0
LINE
  8
寸法
  6
BYBLOCK
 62
     0
 10
-75.342893
 20
55.814033
 11
-75.342893
 21
84.922105
  0
LINE
  8
寸法
  6
BYBLOCK
 62
     0
 10
-100.342893
 20
84.922105
 11
-75.342893
 21
84.922105
  0
POINT
  8
寸法
 62
     0
 10
-100.342893
 20
84.922105
  0
POINT
  8
寸法
 62
     0
 10
-75.342893
 20
84.922105
  0
TEXT
  7
TextStyle03
  8
寸法
  6
CONTINUOUS
 62
     0
 10
-90.3125
 20
85.275
  1
750
 40
3.0
 72
     5
 11
-85.4375
 21
85.275
  0
ENDBLK
  0
BLOCK
  2
*DIM_0019
 70
    65
 10
0.0
 20
0.0
  0
LINE
  8
寸法
  6
BYBLOCK
 62
     0
 10
-50.342893
 20
55.814033
 11
-50.342893
 21
84.922105
  0
LINE
  8
寸法
  6
BYBLOCK
 62
     0
 10
-75.342893
 20
84.922105
 11
-50.342893
 21
84.922105
  0
POINT
  8
寸法
 62
     0
 10
-50.342893
 20
84.922105
  0
TEXT
  7
TextStyle03
  8
寸法
  6
CONTINUOUS
 62
     0
 10
-65.3125
 20
85.275
  1
750
 40
3.0
 72
     5
 11
-60.4375
 21
85.275
  0
ENDBLK
  0
BLOCK
  2
*DIM_0020
 70
    65
 10
0.0
 20
0.0
  0
LINE
  8
寸法
  6
BYBLOCK
 62
     0
 10
-25.342893
 20
55.814033
 11
-25.342893
 21
84.922105
  0
LINE
  8
寸法
  6
BYBLOCK
 62
     0
 10
-50.342893
 20
84.922105
 11
-25.342893
 21
84.922105
  0
POINT
  8
寸法
 62
     0
 10
-25.342893
 20
84.922105
  0
TEXT
  7
TextStyle03
  8
寸法
  6
CONTINUOUS
 62
     0
 10
-40.3125
 20
85.275
  1
750
 40
3.0
 72
     5
 11
-35.4375
 21
85.275
  0
ENDBLK
  0
BLOCK
  2
*DIM_0021
 70
    65
 10
0.0
 20
0.0
  0
LINE
  8
寸法
  6
BYBLOCK
 62
     0
 10
-0.342893
 20
55.814033
 11
-0.342893
 21
84.922105
  0
LINE
  8
寸法
  6
BYBLOCK
 62
     0
 10
-25.342893
 20
84.922105
 11
-0.342893
 21
84.922105
  0
POINT
  8
寸法
 62
     0
 10
-0.342893
 20
84.922105
  0
TEXT
  7
TextStyle03
  8
寸法
  6
CONTINUOUS
 62
     0
 10
-15.3125
 20
85.275
  1
750
 40
3.0
 72
     5
 11
-10.4375
 21
85.275
  0
ENDBLK
  0
BLOCK
  2
*DIM_0022
 70
    65
 10
0.0
 20
0.0
  0
LINE
  8
寸法
  6
BYBLOCK
 62
     0
 10
24.657107
 20
55.814033
 11
24.657107
 21
84.922105
  0
LINE
  8
寸法
  6
BYBLOCK
 62
     0
 10
-0.342893
 20
84.922105
 11
24.657107
 21
84.922105
  0
POINT
  8
寸法
 62
     0
 10
24.657107
 20
84.922105
  0
TEXT
  7
TextStyle03
  8
寸法
  6
CONTINUOUS
 62
     0
 10
9.6875
 20
85.275
  1
750
 40
3.0
 72
     5
 11
14.5625
 21
85.275
  0
ENDBLK
  0
BLOCK
  2
*DIM_0023
 70
    65
 10
0.0
 20
0.0
  0
LINE
  8
寸法
  6
BYBLOCK
 62
     0
 10
49.657107
 20
55.814033
 11
49.657107
 21
84.922105
  0
LINE
  8
寸法
  6
BYBLOCK
 62
     0
 10
24.657107
 20
84.922105
 11
49.657107
 21
84.922105
  0
POINT
  8
寸法
 62
     0
 10
49.657107
 20
84.922105
  0
TEXT
  7
TextStyle03
  8
寸法
  6
CONTINUOUS
 62
     0
 10
34.6875
 20
85.275
  1
750
 40
3.0
 72
     5
 11
39.5625
 21
85.275
  0
ENDBLK
  0
BLOCK
  2
*GRP_0024
 70
    65
 10
0.0
 20
0.0
  0
LINE
  8
ボルト／ビス
  6
CONTINUOUS
 10
-109.342895
 20
-70.209613
 11
-109.342895
 21
-69.742945
  0
LINE
  8
ボルト／ビス
  6
CONTINUOUS
 10
-109.709562
 20
-70.209613
 11
-109.709562
 21
-70.142945
  0
LINE
  8
ボルト／ビス
  6
CONTINUOUS
 10
-109.709562
 20
-70.142945
 11
-108.97623
 21
-70.142945
  0
LINE
  8
ボルト／ビス
  6
CONTINUOUS
 10
-108.97623
 20
-70.142945
 11
-108.97623
 21
-70.209613
  0
LINE
  8
ボルト／ビス
  6
CONTINUOUS
 10
-109.709562
 20
-70.209613
 11
-108.97623
 21
-70.209613
  0
LINE
  8
ボルト／ビス
  6
CONTINUOUS
 10
-109.642895
 20
-70.109612
 11
-109.642895
 21
-70.142945
  0
LINE
  8
ボルト／ビス
  6
CONTINUOUS
 10
-109.642895
 20
-70.109612
 11
-109.042895
 21
-70.109612
  0
LINE
  8
ボルト／ビス
  6
CONTINUOUS
 10
-109.042895
 20
-70.109612
 11
-109.042895
 21
-70.142945
  0
LINE
  8
ボルト／ビス
  6
CONTINUOUS
 62
    64
 10
-109.50327
 20
-69.909613
 11
-109.535345
 21
-69.921288
  0
ARC
  8
ボルト／ビス
  6
CONTINUOUS
 62
    64
 10
-109.487232
 20
-70.01459
 40
0.104978
 50
62.721967
 51
90.0
  0
ARC
  8
ボルト／ビス
  6
CONTINUOUS
 62
    64
 10
-109.342894
 20
-70.312014
 40
0.402402
 50
76.165002
 51
103.834985
  0
LINE
  8
ボルト／ビス
  6
CONTINUOUS
 62
    64
 10
-109.18252
 20
-69.909613
 11
-109.150445
 21
-69.921288
  0
ARC
  8
ボルト／ビス
  6
CONTINUOUS
 62
    64
 10
-109.198557
 20
-70.01459
 40
0.104978
 50
90.0
 51
117.278033
  0
LINE
  8
ボルト／ビス
  6
CONTINUOUS
 62
    64
 10
-109.50327
 20
-69.909613
 11
-109.18252
 21
-69.909613
  0
LINE
  8
ボルト／ビス
  6
CONTINUOUS
 62
    64
 10
-109.150445
 20
-69.921288
 11
-109.150445
 21
-70.042945
  0
LINE
  8
ボルト／ビス
  6
CONTINUOUS
 62
    64
 10
-109.24667
 20
-69.921288
 11
-109.24667
 21
-70.042945
  0
LINE
  8
ボルト／ビス
  6
CONTINUOUS
 62
    64
 10
-109.535345
 20
-69.921288
 11
-109.535345
 21
-70.042945
  0
LINE
  8
ボルト／ビス
  6
CONTINUOUS
 62
    64
 10
-109.43912
 20
-69.921288
 11
-109.43912
 21
-70.042945
  0
LINE
  8
ボルト／ビス
  6
CONTINUOUS
 10
-109.535345
 20
-70.042945
 11
-109.150445
 21
-70.042945
  0
LINE
  8
ボルト／ビス
  6
CONTINUOUS
 10
-109.542895
 20
-70.042945
 11
-109.542895
 21
-70.109612
  0
LINE
  8
ボルト／ビス
  6
CONTINUOUS
 10
-109.542895
 20
-70.042945
 11
-109.142895
 21
-70.042945
  0
LINE
  8
ボルト／ビス
  6
CONTINUOUS
 10
-109.142895
 20
-70.042945
 11
-109.142895
 21
-70.109612
  0
ENDBLK
  0
BLOCK
  2
*GRP_0025
 70
    65
 10
0.0
 20
0.0
  0
LINE
  8
ボルト／ビス
  6
CONTINUOUS
 10
58.657105
 20
-70.209613
 11
58.657105
 21
-69.742945
  0
LINE
  8
ボルト／ビス
  6
CONTINUOUS
 10
58.290438
 20
-70.209613
 11
58.290438
 21
-70.142945
  0
LINE
  8
ボルト／ビス
  6
CONTINUOUS
 10
58.290438
 20
-70.142945
 11
59.02377
 21
-70.142945
  0
LINE
  8
ボルト／ビス
  6
CONTINUOUS
 10
59.02377
 20
-70.142945
 11
59.02377
 21
-70.209613
  0
LINE
  8
ボルト／ビス
  6
CONTINUOUS
 10
58.290438
 20
-70.209613
 11
59.02377
 21
-70.209613
  0
LINE
  8
ボルト／ビス
  6
CONTINUOUS
 10
58.357105
 20
-70.109612
 11
58.357105
 21
-70.142945
  0
LINE
  8
ボルト／ビス
  6
CONTINUOUS
 10
58.357105
 20
-70.109612
 11
58.957105
 21
-70.109612
  0
LINE
  8
ボルト／ビス
  6
CONTINUOUS
 10
58.957105
 20
-70.109612
 11
58.957105
 21
-70.142945
  0
LINE
  8
ボルト／ビス
  6
CONTINUOUS
 62
    64
 10
58.49673
 20
-69.909613
 11
58.464655
 21
-69.921288
  0
ARC
  8
ボルト／ビス
  6
CONTINUOUS
 62
    64
 10
58.512768
 20
-70.01459
 40
0.104978
 50
62.721967
 51
90.0
  0
ARC
  8
ボルト／ビス
  6
CONTINUOUS
 62
    64
 10
58.657106
 20
-70.312014
 40
0.402402
 50
76.165002
 51
103.834985
  0
LINE
  8
ボルト／ビス
  6
CONTINUOUS
 62
    64
 10
58.81748
 20
-69.909613
 11
58.849555
 21
-69.921288
  0
ARC
  8
ボルト／ビス
  6
CONTINUOUS
 62
    64
 10
58.801443
 20
-70.01459
 40
0.104978
 50
90.0
 51
117.278033
  0
LINE
  8
ボルト／ビス
  6
CONTINUOUS
 62
    64
 10
58.49673
 20
-69.909613
 11
58.81748
 21
-69.909613
  0
LINE
  8
ボルト／ビス
  6
CONTINUOUS
 62
    64
 10
58.849555
 20
-69.921288
 11
58.849555
 21
-70.042945
  0
LINE
  8
ボルト／ビス
  6
CONTINUOUS
 62
    64
 10
58.75333
 20
-69.921288
 11
58.75333
 21
-70.042945
  0
LINE
  8
ボルト／ビス
  6
CONTINUOUS
 62
    64
 10
58.464655
 20
-69.921288
 11
58.464655
 21
-70.042945
  0
LINE
  8
ボルト／ビス
  6
CONTINUOUS
 62
    64
 10
58.56088
 20
-69.921288
 11
58.56088
 21
-70.042945
  0
LINE
  8
ボルト／ビス
  6
CONTINUOUS
 10
58.464655
 20
-70.042945
 11
58.849555
 21
-70.042945
  0
LINE
  8
ボルト／ビス
  6
CONTINUOUS
 10
58.457105
 20
-70.042945
 11
58.457105
 21
-70.109612
  0
LINE
  8
ボルト／ビス
  6
CONTINUOUS
 10
58.457105
 20
-70.042945
 11
58.857105
 21
-70.042945
  0
LINE
  8
ボルト／ビス
  6
CONTINUOUS
 10
58.857105
 20
-70.042945
 11
58.857105
 21
-70.109612
  0
ENDBLK
  0
BLOCK
  2
*GRP_0026
 70
    65
 10
0.0
 20
0.0
  0
LINE
  8
ボルト／ビス
  6
CONTINUOUS
 10
147.523703
 20
22.147365
 11
147.057035
 21
22.147365
  0
LINE
  8
ボルト／ビス
  6
CONTINUOUS
 10
147.523703
 20
21.780697
 11
147.457035
 21
21.780697
  0
LINE
  8
ボルト／ビス
  6
CONTINUOUS
 10
147.457035
 20
21.780697
 11
147.457035
 21
22.51403
  0
LINE
  8
ボルト／ビス
  6
CONTINUOUS
 10
147.457035
 20
22.51403
 11
147.523703
 21
22.51403
  0
LINE
  8
ボルト／ビス
  6
CONTINUOUS
 10
147.523703
 20
21.780697
 11
147.523703
 21
22.51403
  0
LINE
  8
ボルト／ビス
  6
CONTINUOUS
 10
147.423703
 20
21.847365
 11
147.457035
 21
21.847365
  0
LINE
  8
ボルト／ビス
  6
CONTINUOUS
 10
147.423703
 20
21.847365
 11
147.423703
 21
22.447365
  0
LINE
  8
ボルト／ビス
  6
CONTINUOUS
 10
147.423703
 20
22.447365
 11
147.457035
 21
22.447365
  0
LINE
  8
ボルト／ビス
  6
CONTINUOUS
 62
    64
 10
147.223703
 20
21.98699
 11
147.235377
 21
21.954915
  0
ARC
  8
ボルト／ビス
  6
CONTINUOUS
 62
    64
 10
147.32868
 20
22.003028
 40
0.104978
 50
152.721967
 51
180.0
  0
ARC
  8
ボルト／ビス
  6
CONTINUOUS
 62
    64
 10
147.626103
 20
22.147366
 40
0.402402
 50
166.165002
 51
193.834985
  0
LINE
  8
ボルト／ビス
  6
CONTINUOUS
 62
    64
 10
147.223703
 20
22.30774
 11
147.235377
 21
22.339815
  0
ARC
  8
ボルト／ビス
  6
CONTINUOUS
 62
    64
 10
147.32868
 20
22.291703
 40
0.104978
 50
180.0
 51
207.278033
  0
LINE
  8
ボルト／ビス
  6
CONTINUOUS
 62
    64
 10
147.223703
 20
21.98699
 11
147.223703
 21
22.30774
  0
LINE
  8
ボルト／ビス
  6
CONTINUOUS
 62
    64
 10
147.235377
 20
22.339815
 11
147.357035
 21
22.339815
  0
LINE
  8
ボルト／ビス
  6
CONTINUOUS
 62
    64
 10
147.235377
 20
22.24359
 11
147.357035
 21
22.24359
  0
LINE
  8
ボルト／ビス
  6
CONTINUOUS
 62
    64
 10
147.235377
 20
21.954915
 11
147.357035
 21
21.954915
  0
LINE
  8
ボルト／ビス
  6
CONTINUOUS
 62
    64
 10
147.235377
 20
22.05114
 11
147.357035
 21
22.05114
  0
LINE
  8
ボルト／ビス
  6
CONTINUOUS
 10
147.357035
 20
21.954915
 11
147.357035
 21
22.339815
  0
LINE
  8
ボルト／ビス
  6
CONTINUOUS
 10
147.357035
 20
21.947365
 11
147.423703
 21
21.947365
  0
LINE
  8
ボルト／ビス
  6
CONTINUOUS
 10
147.357035
 20
21.947365
 11
147.357035
 21
22.347365
  0
LINE
  8
ボルト／ビス
  6
CONTINUOUS
 10
147.357035
 20
22.347365
 11
147.423703
 21
22.347365
  0
ENDBLK
  0
BLOCK
  2
*GRP_0027
 70
    65
 10
0.0
 20
0.0
  0
LINE
  8
ボルト／ビス
  6
CONTINUOUS
 10
147.523703
 20
53.4807
 11
147.057035
 21
53.4807
  0
LINE
  8
ボルト／ビス
  6
CONTINUOUS
 10
147.523703
 20
53.114033
 11
147.457035
 21
53.114033
  0
LINE
  8
ボルト／ビス
  6
CONTINUOUS
 10
147.457035
 20
53.114033
 11
147.457035
 21
53.847365
  0
LINE
  8
ボルト／ビス
  6
CONTINUOUS
 10
147.457035
 20
53.847365
 11
147.523703
 21
53.847365
  0
LINE
  8
ボルト／ビス
  6
CONTINUOUS
 10
147.523703
 20
53.114033
 11
147.523703
 21
53.847365
  0
LINE
  8
ボルト／ビス
  6
CONTINUOUS
 10
147.423703
 20
53.1807
 11
147.457035
 21
53.1807
  0
LINE
  8
ボルト／ビス
  6
CONTINUOUS
 10
147.423703
 20
53.1807
 11
147.423703
 21
53.7807
  0
LINE
  8
ボルト／ビス
  6
CONTINUOUS
 10
147.423703
 20
53.7807
 11
147.457035
 21
53.7807
  0
LINE
  8
ボルト／ビス
  6
CONTINUOUS
 62
    64
 10
147.223703
 20
53.320325
 11
147.235377
 21
53.28825
  0
ARC
  8
ボルト／ビス
  6
CONTINUOUS
 62
    64
 10
147.32868
 20
53.336363
 40
0.104978
 50
152.721967
 51
180.0
  0
ARC
  8
ボルト／ビス
  6
CONTINUOUS
 62
    64
 10
147.626103
 20
53.480701
 40
0.402402
 50
166.165002
 51
193.834985
  0
LINE
  8
ボルト／ビス
  6
CONTINUOUS
 62
    64
 10
147.223703
 20
53.641075
 11
147.235377
 21
53.67315
  0
ARC
  8
ボルト／ビス
  6
CONTINUOUS
 62
    64
 10
147.32868
 20
53.625038
 40
0.104978
 50
180.0
 51
207.278033
  0
LINE
  8
ボルト／ビス
  6
CONTINUOUS
 62
    64
 10
147.223703
 20
53.320325
 11
147.223703
 21
53.641075
  0
LINE
  8
ボルト／ビス
  6
CONTINUOUS
 62
    64
 10
147.235377
 20
53.67315
 11
147.357035
 21
53.67315
  0
LINE
  8
ボルト／ビス
  6
CONTINUOUS
 62
    64
 10
147.235377
 20
53.576925
 11
147.357035
 21
53.576925
  0
LINE
  8
ボルト／ビス
  6
CONTINUOUS
 62
    64
 10
147.235377
 20
53.28825
 11
147.357035
 21
53.28825
  0
LINE
  8
ボルト／ビス
  6
CONTINUOUS
 62
    64
 10
147.235377
 20
53.384475
 11
147.357035
 21
53.384475
  0
LINE
  8
ボルト／ビス
  6
CONTINUOUS
 10
147.357035
 20
53.28825
 11
147.357035
 21
53.67315
  0
LINE
  8
ボルト／ビス
  6
CONTINUOUS
 10
147.357035
 20
53.2807
 11
147.423703
 21
53.2807
  0
LINE
  8
ボルト／ビス
  6
CONTINUOUS
 10
147.357035
 20
53.2807
 11
147.357035
 21
53.6807
  0
LINE
  8
ボルト／ビス
  6
CONTINUOUS
 10
147.357035
 20
53.6807
 11
147.423703
 21
53.6807
  0
ENDBLK
  0
ENDSEC
  0
SECTION
  2
ENTITIES
  0
POLYLINE
  8
通り芯
  6
CONTINUOUS
 66
     1
 70
     1
  0
VERTEX
  8
通り芯
 10
-210.0
 20
-148.5
  0
VERTEX
  8
通り芯
 10
210.0
 20
-148.5
  0
VERTEX
  8
通り芯
 10
210.0
 20
148.5
  0
VERTEX
  8
通り芯
 10
-210.0
 20
148.5
  0
SEQEND
  0
INSERT
  2
*GRP_0001
  8
型材断面
  6
CONTINUOUS
 10
0.0
 20
0.0
  0
LINE
  8
型材断面
  6
DASHDOT
 10
57.990438
 20
-77.836442
 11
57.990438
 21
52.814033
  0
LINE
  8
型材断面
  6
DASHDOT
 10
-25.342895
 20
-77.836442
 11
-25.342895
 21
52.814033
  0
LINE
  8
型材断面
  6
DASHDOT
 10
-108.676228
 20
-77.836442
 11
-108.676228
 21
52.814033
  0
LINE
  8
型材断面
  6
DASHDOT
 10
155.6672
 20
52.814033
 11
-108.676228
 21
52.814033
  0
LINE
  8
型材断面
  6
DASHDOT
 10
155.6672
 20
37.814033
 11
-108.676228
 21
37.814033
  0
LINE
  8
型材断面
  6
DASHDOT
 10
155.6672
 20
22.814033
 11
-108.676228
 21
22.814033
  0
LINE
  8
型材断面
  6
DOT
 10
-74.212897
 20
22.814033
 11
-74.212897
 21
52.814033
  0
LINE
  8
型材断面
  6
DOT
 10
-76.712897
 20
22.814033
 11
-76.712897
 21
52.814033
  0
LINE
  8
型材断面
  6
DASHDOT
 10
-75.462897
 20
22.814033
 11
-75.462897
 21
52.814033
  0
LINE
  8
型材断面
  6
DASHDOT
 10
-42.049565
 20
22.814033
 11
-42.049565
 21
52.814033
  0
LINE
  8
型材断面
  6
DOT
 10
-40.799565
 20
22.814033
 11
-40.799565
 21
52.814033
  0
LINE
  8
型材断面
  6
DOT
 10
-43.299565
 20
22.814033
 11
-43.299565
 21
52.814033
  0
LINE
  8
型材断面
  6
DOT
 10
23.527108
 20
22.814033
 11
23.527108
 21
52.814033
  0
LINE
  8
型材断面
  6
DOT
 10
26.027108
 20
22.814033
 11
26.027108
 21
52.814033
  0
LINE
  8
型材断面
  6
DASHDOT
 10
24.777108
 20
22.814033
 11
24.777108
 21
52.814033
  0
LINE
  8
型材断面
  6
DASHDOT
 10
-8.636225
 20
22.814033
 11
-8.636225
 21
52.814033
  0
LINE
  8
型材断面
  6
DOT
 10
-9.886225
 20
22.814033
 11
-9.886225
 21
52.814033
  0
LINE
  8
型材断面
  6
DOT
 10
-7.386225
 20
22.814033
 11
-7.386225
 21
52.814033
  0
LINE
  8
型材断面
  6
CONTINUOUS
 10
-92.00956
 20
55.444162
 11
-93.50519
 21
58.03467
  0
LINE
  8
型材断面
  6
CONTINUOUS
 10
-92.00956
 20
55.444162
 11
-90.51393
 21
58.03467
  0
LINE
  8
型材断面
  6
CONTINUOUS
 10
-90.51393
 20
58.03467
 11
-93.50519
 21
58.03467
  0
LINE
  8
型材断面
  6
CONTINUOUS
 10
-149.528435
 20
97.32138
 11
-151.024065
 21
94.730873
  0
LINE
  8
型材断面
  6
CONTINUOUS
 10
-149.528435
 20
97.32138
 11
-148.032805
 21
94.730873
  0
LINE
  8
型材断面
  6
CONTINUOUS
 10
-148.032805
 20
94.730873
 11
-151.024065
 21
94.730873
  0
LINE
  8
型材断面
  6
CONTINUOUS
 10
-155.551022
 20
93.792277
 11
-109.309245
 21
93.792277
  0
LINE
  8
型材断面
  6
CONTINUOUS
 10
-111.306358
 20
37.814033
 11
-113.896865
 21
39.309663
  0
LINE
  8
型材断面
  6
CONTINUOUS
 10
-111.306358
 20
37.814033
 11
-113.896865
 21
36.318403
  0
LINE
  8
型材断面
  6
CONTINUOUS
 10
-113.896865
 20
36.318403
 11
-113.896865
 21
39.309663
  0
LINE
  8
型材断面
  6
CONTINUOUS
 10
-92.00956
 20
20.183902
 11
-93.50519
 21
17.593395
  0
LINE
  8
型材断面
  6
CONTINUOUS
 10
-92.00956
 20
20.183902
 11
-90.51393
 21
17.593395
  0
LINE
  8
型材断面
  6
CONTINUOUS
 10
-90.51393
 20
17.593395
 11
-93.50519
 21
17.593395
  0
LINE
  8
型材断面
  6
CONTINUOUS
 10
41.32377
 20
55.444162
 11
42.8194
 21
58.03467
  0
LINE
  8
型材断面
  6
CONTINUOUS
 10
41.32377
 20
55.444162
 11
39.82814
 21
58.03467
  0
LINE
  8
型材断面
  6
CONTINUOUS
 10
39.82814
 20
58.03467
 11
42.8194
 21
58.03467
  0
LINE
  8
型材断面
  6
CONTINUOUS
 10
60.620567
 20
37.814033
 11
63.211075
 21
39.309663
  0
LINE
  8
型材断面
  6
CONTINUOUS
 10
60.620567
 20
37.814033
 11
63.211075
 21
36.318403
  0
LINE
  8
型材断面
  6
CONTINUOUS
 10
63.211075
 20
36.318403
 11
63.211075
 21
39.309663
  0
LINE
  8
型材断面
  6
CONTINUOUS
 10
41.32377
 20
20.183902
 11
42.8194
 21
17.593395
  0
LINE
  8
型材断面
  6
CONTINUOUS
 10
41.32377
 20
20.183902
 11
39.82814
 21
17.593395
  0
LINE
  8
型材断面
  6
CONTINUOUS
 10
39.82814
 20
17.593395
 11
42.8194
 21
17.593395
  0
LINE
  8
型材断面
  6
CONTINUOUS
 10
-25.342895
 20
55.44416
 11
-23.847265
 21
58.034668
  0
LINE
  8
型材断面
  6
CONTINUOUS
 10
-25.342895
 20
55.44416
 11
-26.838525
 21
58.034668
  0
LINE
  8
型材断面
  6
CONTINUOUS
 10
-26.838525
 20
58.034668
 11
-23.847265
 21
58.034668
  0
LINE
  8
型材断面
  6
CONTINUOUS
 10
-25.342895
 20
20.1839
 11
-23.847265
 21
17.593392
  0
LINE
  8
型材断面
  6
CONTINUOUS
 10
-25.342895
 20
20.1839
 11
-26.838525
 21
17.593392
  0
LINE
  8
型材断面
  6
CONTINUOUS
 10
-26.838525
 20
17.593392
 11
-23.847265
 21
17.593392
  0
LINE
  8
型材断面
  6
CONTINUOUS
 10
-155.551022
 20
87.325113
 11
-109.309245
 21
87.325113
  0
LINE
  8
型材断面
  6
CONTINUOUS
 62
    47
 10
150.39037
 20
55.814077
 11
149.890373
 21
55.814077
  0
LINE
  8
型材断面
  6
CONTINUOUS
 62
    47
 10
149.890373
 20
55.814077
 11
149.393193
 21
52.880747
  0
LINE
  8
型材断面
  6
CONTINUOUS
 62
    47
 10
150.39037
 20
55.314087
 11
150.89037
 21
55.314087
  0
LINE
  8
型材断面
  6
CONTINUOUS
 62
    47
 10
149.393193
 20
52.880747
 11
148.523703
 21
52.880747
  0
LINE
  8
型材断面
  6
CONTINUOUS
 10
149.890373
 20
55.814077
 11
149.890373
 21
37.814033
  0
LINE
  8
型材断面
  6
CONTINUOUS
 10
149.393193
 20
52.880747
 11
149.393193
 21
37.814033
  0
LINE
  8
型材断面
  6
CONTINUOUS
 62
    47
 10
150.39037
 20
55.814077
 11
150.39037
 21
37.814033
  0
LINE
  8
型材断面
  6
CONTINUOUS
 10
150.89037
 20
55.314087
 11
150.89037
 21
37.814033
  0
LINE
  8
型材断面
  6
CONTINUOUS
 62
    47
 10
150.39037
 20
19.813988
 11
149.890373
 21
19.813988
  0
LINE
  8
型材断面
  6
CONTINUOUS
 62
    47
 10
149.890373
 20
19.813988
 11
149.393193
 21
22.747317
  0
LINE
  8
型材断面
  6
CONTINUOUS
 62
    47
 10
150.39037
 20
20.313977
 11
150.89037
 21
20.313977
  0
LINE
  8
型材断面
  6
CONTINUOUS
 62
    47
 10
149.393193
 20
22.747317
 11
148.523703
 21
22.747317
  0
LINE
  8
型材断面
  6
CONTINUOUS
 10
149.890373
 20
19.813988
 11
149.890373
 21
37.814033
  0
LINE
  8
型材断面
  6
CONTINUOUS
 10
149.393193
 20
22.747317
 11
149.393193
 21
37.814033
  0
LINE
  8
型材断面
  6
CONTINUOUS
 62
    47
 10
150.39037
 20
19.813988
 11
150.39037
 21
37.814033
  0
LINE
  8
型材断面
  6
CONTINUOUS
 10
150.89037
 20
20.313977
 11
150.89037
 21
37.814033
  0
LINE
  8
型材断面
  6
CONTINUOUS
 62
    47
 10
60.990482
 20
-73.07628
 11
60.990482
 21
-72.576282
  0
LINE
  8
型材断面
  6
CONTINUOUS
 62
    47
 10
60.990482
 20
-72.576282
 11
58.057152
 21
-72.079103
  0
LINE
  8
型材断面
  6
CONTINUOUS
 62
    47
 10
60.490493
 20
-73.07628
 11
60.490493
 21
-73.57628
  0
LINE
  8
型材断面
  6
CONTINUOUS
 62
    47
 10
58.057152
 20
-72.079103
 11
58.057152
 21
-71.209613
  0
LINE
  8
型材断面
  6
CONTINUOUS
 10
60.490493
 20
-73.57628
 11
-25.342895
 21
-73.57628
  0
LINE
  8
型材断面
  6
CONTINUOUS
 62
    47
 10
60.990482
 20
-73.07628
 11
-25.342895
 21
-73.07628
  0
LINE
  8
型材断面
  6
CONTINUOUS
 10
58.057152
 20
-72.079103
 11
-25.342895
 21
-72.079103
  0
LINE
  8
型材断面
  6
CONTINUOUS
 10
60.990482
 20
-72.576282
 11
-25.342895
 21
-72.576282
  0
LINE
  8
型材断面
  6
CONTINUOUS
 62
    47
 10
-111.676272
 20
-73.07628
 11
-111.676272
 21
-72.576282
  0
LINE
  8
型材断面
  6
CONTINUOUS
 62
    47
 10
-111.676272
 20
-72.576282
 11
-108.742943
 21
-72.079103
  0
LINE
  8
型材断面
  6
CONTINUOUS
 62
    47
 10
-111.176282
 20
-73.07628
 11
-111.176282
 21
-73.57628
  0
LINE
  8
型材断面
  6
CONTINUOUS
 62
    47
 10
-108.742943
 20
-72.079103
 11
-108.742943
 21
-71.209613
  0
LINE
  8
型材断面
  6
CONTINUOUS
 10
-111.176282
 20
-73.57628
 11
-25.342895
 21
-73.57628
  0
LINE
  8
型材断面
  6
CONTINUOUS
 62
    47
 10
-111.676272
 20
-73.07628
 11
-25.342895
 21
-73.07628
  0
LINE
  8
型材断面
  6
CONTINUOUS
 10
-108.742943
 20
-72.079103
 11
-25.342895
 21
-72.079103
  0
LINE
  8
型材断面
  6
CONTINUOUS
 10
-111.676272
 20
-72.576282
 11
-25.342895
 21
-72.576282
  0
TEXT
  7
TextStyle03
  8
文字
  6
CONTINUOUS
 10
134.525
 20
-76.7
  1
網入り6.8t
 40
3.0
 72
     5
 11
151.2125
 21
-76.7
  0
TEXT
  7
TextStyle03
  8
文字
  6
CONTINUOUS
 10
141.2
 20
-81.375
  1
×５枚
 40
3.0
 72
     5
 11
150.95
 21
-81.375
  0
TEXT
  7
TextStyle03
  8
文字
  6
CONTINUOUS
 10
-146.725
 20
94.925
  1
は排水穴位置を示す
 40
3.0
 72
     5
 11
-116.725
 21
94.925
  0
TEXT
  7
TextStyle03
  8
文字
  6
CONTINUOUS
 10
-129.65
 20
16.275
  1
アンカーピッチ
 40
3.0
 50
90.0
 72
     5
 11
-129.65
 21
39.525
  0
TEXT
  7
TextStyle03
  8
文字
  6
CONTINUOUS
 10
-97.95
 20
90.25
  1
アンカーピッチ
 40
3.0
 72
     5
 11
-74.7
 21
90.25
  0
TEXT
  7
TextStyle03
  8
文字
  6
CONTINUOUS
 10
-150.45
 20
88.225
  1
アンカー数量　１８ヶ所
 40
3.0
 72
     5
 11
-113.7
 21
88.225
  0
TEXT
  7
TextStyle03
  8
文字
  6
CONTINUOUS
 10
78.1
 20
125.25
  1
シリーズ：ＴＤ２ＫＬ
 40
5.0
 72
     5
 11
133.725
 21
125.25
  0
TEXT
  7
TextStyle03
  8
文字
  6
CONTINUOUS
 10
78.1
 20
119.625
  1
　　　　　（固定）900×5000タイプ
 40
5.0
 72
     5
 11
170.2875
 21
119.625
  0
TEXT
  7
TextStyle03
  8
文字
  6
CONTINUOUS
 10
78.1
 20
114.0
  1
図面名　：外観姿図
 40
5.0
 72
     5
 11
128.1
 21
114.0
  0
TEXT
  7
TextStyle03
  8
文字
  6
CONTINUOUS
 10
78.1
 20
108.375
  1
　　　　　　
 40
5.0
 72
     5
 11
111.225
 21
108.375
  0
TEXT
  7
TextStyle03
  8
文字
  6
CONTINUOUS
 10
77.65
 20
104.325
  1
ＮＳコード：ＮＳＫＺＬ
 40
5.0
 72
     5
 11
138.9
 21
104.325
  0
INSERT
  2
*DIM_0002
  8
寸法
  6
CONTINUOUS
 10
0.0
 20
0.0
  0
INSERT
  2
*DIM_0003
  8
寸法
  6
CONTINUOUS
 10
0.0
 20
0.0
  0
INSERT
  2
*DIM_0004
  8
寸法
  6
CONTINUOUS
 10
0.0
 20
0.0
  0
INSERT
  2
*DIM_0005
  8
寸法
  6
CONTINUOUS
 10
0.0
 20
0.0
  0
INSERT
  2
*DIM_0006
  8
寸法
  6
CONTINUOUS
 10
0.0
 20
0.0
  0
INSERT
  2
*DIM_0007
  8
寸法
  6
CONTINUOUS
 10
0.0
 20
0.0
  0
INSERT
  2
*DIM_0009
  8
寸法
  6
CONTINUOUS
 10
0.0
 20
0.0
  0
INSERT
  2
*DIM_0010
  8
寸法
  6
CONTINUOUS
 10
0.0
 20
0.0
  0
INSERT
  2
*DIM_0011
  8
寸法
  6
CONTINUOUS
 10
0.0
 20
0.0
  0
INSERT
  2
*DIM_0012
  8
寸法
  6
CONTINUOUS
 10
0.0
 20
0.0
  0
INSERT
  2
*DIM_0013
  8
寸法
  6
CONTINUOUS
 10
0.0
 20
0.0
  0
INSERT
  2
*DIM_0014
  8
寸法
  6
CONTINUOUS
 10
0.0
 20
0.0
  0
INSERT
  2
*DIM_0015
  8
寸法
  6
CONTINUOUS
 10
0.0
 20
0.0
  0
LINE
  8
寸法
  6
CONTINUOUS
 10
60.990482
 20
19.813988
 11
60.990482
 21
37.814033
  0
LINE
  8
寸法
  6
CONTINUOUS
 10
60.057105
 20
20.747365
 11
60.990482
 21
19.813988
  0
LINE
  8
寸法
  6
CONTINUOUS
 10
60.990482
 20
19.813988
 11
-25.342895
 21
19.814012
  0
LINE
  8
寸法
  6
CONTINUOUS
 10
60.990482
 20
55.814077
 11
60.990482
 21
37.814033
  0
LINE
  8
寸法
  6
CONTINUOUS
 10
60.057105
 20
54.8807
 11
60.990482
 21
55.814077
  0
LINE
  8
寸法
  6
CONTINUOUS
 10
60.990482
 20
55.814077
 11
-25.342895
 21
55.814053
  0
LINE
  8
寸法
  6
CONTINUOUS
 10
-111.676272
 20
55.814077
 11
-111.676272
 21
37.814033
  0
LINE
  8
寸法
  6
CONTINUOUS
 10
-110.742895
 20
54.8807
 11
-111.676272
 21
55.814077
  0
LINE
  8
寸法
  6
CONTINUOUS
 10
-111.676272
 20
55.814077
 11
-25.342895
 21
55.814053
  0
LINE
  8
寸法
  6
CONTINUOUS
 10
-111.676272
 20
19.813988
 11
-111.676272
 21
37.814033
  0
LINE
  8
寸法
  6
CONTINUOUS
 10
-110.742895
 20
20.747365
 11
-111.676272
 21
19.813988
  0
LINE
  8
寸法
  6
CONTINUOUS
 10
-111.676272
 20
19.813988
 11
-25.342895
 21
19.814012
  0
INSERT
  2
*DIM_0016
  8
寸法
  6
CONTINUOUS
 10
0.0
 20
0.0
  0
INSERT
  2
*DIM_0017
  8
寸法
  6
CONTINUOUS
 10
0.0
 20
0.0
  0
INSERT
  2
*DIM_0018
  8
寸法
  6
CONTINUOUS
 10
0.0
 20
0.0
  0
INSERT
  2
*DIM_0019
  8
寸法
  6
CONTINUOUS
 10
0.0
 20
0.0
  0
INSERT
  2
*DIM_0020
  8
寸法
  6
CONTINUOUS
 10
0.0
 20
0.0
  0
INSERT
  2
*DIM_0021
  8
寸法
  6
CONTINUOUS
 10
0.0
 20
0.0
  0
INSERT
  2
*DIM_0022
  8
寸法
  6
CONTINUOUS
 10
0.0
 20
0.0
  0
INSERT
  2
*DIM_0023
  8
寸法
  6
CONTINUOUS
 10
0.0
 20
0.0
  0
LINE
  8
別途部材
  6
CONTINUOUS
 10
60.057105
 20
20.747365
 11
59.657105
 21
21.147365
  0
LINE
  8
別途部材
  6
CONTINUOUS
 10
57.990438
 20
22.814033
 11
49.931183
 21
30.87329
  0
LINE
  8
別途部材
  6
CONTINUOUS
 10
59.657105
 20
21.147365
 11
59.657105
 21
37.814033
  0
LINE
  8
別途部材
  6
CONTINUOUS
 10
60.057105
 20
20.747365
 11
60.057105
 21
37.814033
  0
LINE
  8
別途部材
  6
CONTINUOUS
 10
60.057105
 20
54.8807
 11
59.657105
 21
54.4807
  0
LINE
  8
別途部材
  6
CONTINUOUS
 10
57.990438
 20
52.814033
 11
49.931183
 21
44.754775
  0
LINE
  8
別途部材
  6
CONTINUOUS
 10
59.657105
 20
54.4807
 11
59.657105
 21
37.814033
  0
LINE
  8
別途部材
  6
CONTINUOUS
 10
60.057105
 20
54.8807
 11
60.057105
 21
37.814033
  0
LINE
  8
別途部材
  6
CONTINUOUS
 10
59.657105
 20
54.4807
 11
-25.342895
 21
54.4807
  0
LINE
  8
別途部材
  6
CONTINUOUS
 10
60.057105
 20
54.8807
 11
-25.342895
 21
54.8807
  0
LINE
  8
別途部材
  6
CONTINUOUS
 10
59.657105
 20
21.147365
 11
-25.342895
 21
21.147365
  0
LINE
  8
別途部材
  6
CONTINUOUS
 10
60.057105
 20
20.747365
 11
-25.342895
 21
20.747365
  0
LINE
  8
別途部材
  6
CONTINUOUS
 10
-110.742895
 20
20.747365
 11
-110.342895
 21
21.147365
  0
LINE
  8
別途部材
  6
CONTINUOUS
 10
-108.676228
 20
22.814033
 11
-100.616972
 21
30.87329
  0
LINE
  8
別途部材
  6
CONTINUOUS
 10
-110.342895
 20
21.147365
 11
-110.342895
 21
37.814033
  0
LINE
  8
別途部材
  6
CONTINUOUS
 10
-110.742895
 20
20.747365
 11
-110.742895
 21
37.814033
  0
LINE
  8
別途部材
  6
CONTINUOUS
 10
-110.742895
 20
54.8807
 11
-110.342895
 21
54.4807
  0
LINE
  8
別途部材
  6
CONTINUOUS
 10
-108.676228
 20
52.814033
 11
-100.616972
 21
44.754775
  0
LINE
  8
別途部材
  6
CONTINUOUS
 10
-110.342895
 20
54.4807
 11
-110.342895
 21
37.814033
  0
LINE
  8
別途部材
  6
CONTINUOUS
 10
-110.742895
 20
54.8807
 11
-110.742895
 21
37.814033
  0
LINE
  8
別途部材
  6
CONTINUOUS
 10
-110.342895
 20
54.4807
 11
-25.342895
 21
54.4807
  0
LINE
  8
別途部材
  6
CONTINUOUS
 10
-110.742895
 20
54.8807
 11
-25.342895
 21
54.8807
  0
LINE
  8
別途部材
  6
CONTINUOUS
 10
-110.342895
 20
21.147365
 11
-25.342895
 21
21.147365
  0
LINE
  8
別途部材
  6
CONTINUOUS
 10
-110.742895
 20
20.747365
 11
-25.342895
 21
20.747365
  0
INSERT
  2
*GRP_0008
  8
別途部材
  6
CONTINUOUS
 10
0.0
 20
0.0
  0
LINE
  8
別途部材
  6
CONTINUOUS
 62
    96
 10
147.523703
 20
21.147365
 11
148.523703
 21
20.747365
  0
LINE
  8
別途部材
  6
CONTINUOUS
 62
    96
 10
147.523703
 20
21.147365
 11
147.523703
 21
37.814033
  0
LINE
  8
別途部材
  6
CONTINUOUS
 10
148.523703
 20
20.747365
 11
148.523703
 21
37.814033
  0
LINE
  8
別途部材
  6
CONTINUOUS
 62
    96
 10
147.523703
 20
54.4807
 11
148.523703
 21
54.8807
  0
LINE
  8
別途部材
  6
CONTINUOUS
 62
    96
 10
147.523703
 20
54.4807
 11
147.523703
 21
37.814033
  0
LINE
  8
別途部材
  6
CONTINUOUS
 10
148.523703
 20
54.8807
 11
148.523703
 21
37.814033
  0
ARC
  8
別途部材
  6
CONTINUOUS
 10
156.857037
 20
37.814033
 40
17.666667
 50
121.890796
 51
238.109204
  0
INSERT
  2
*GRP_0024
  8
別途部材
  6
DOT
 10
0.0
 20
0.0
  0
INSERT
  2
*GRP_0025
  8
別途部材
  6
DOT
 10
0.0
 20
0.0
  0
INSERT
  2
*GRP_0026
  8
別途部材
  6
DOT
 10
0.0
 20
0.0
  0
INSERT
  2
*GRP_0027
  8
別途部材
  6
DOT
 10
0.0
 20
0.0
  0
LINE
  8
曲げ物
  6
CONTINUOUS
 10
153.076993
 20
-83.118728
 11
153.076993
 21
-53.785395
  0
LINE
  8
曲げ物
  6
CONTINUOUS
 10
120.730325
 20
-83.118728
 11
120.730325
 21
-53.785395
  0
LINE
  8
曲げ物
  6
CONTINUOUS
 10
153.076993
 20
-53.785395
 11
120.730325
 21
-53.785395
  0
LINE
  8
曲げ物
  6
CONTINUOUS
 10
153.076993
 20
-83.118728
 11
120.730325
 21
-83.118728
  0
CIRCLE
  8
LAYER010
  6
CONTINUOUS
 62
     7
 10
149.890373
 20
55.814077
 40
0.011113
  0
CIRCLE
  8
LAYER010
  6
CONTINUOUS
 62
     7
 10
149.890373
 20
55.814077
 40
0.011113
  0
CIRCLE
  8
LAYER010
  6
CONTINUOUS
 62
     7
 10
149.890373
 20
19.813988
 40
0.011113
  0
CIRCLE
  8
LAYER010
  6
CONTINUOUS
 62
     7
 10
149.890373
 20
19.813988
 40
0.011113
  0
CIRCLE
  8
LAYER010
  6
CONTINUOUS
 62
     7
 10
60.990482
 20
-72.576282
 40
0.011113
  0
CIRCLE
  8
LAYER010
  6
CONTINUOUS
 62
     7
 10
60.990482
 20
-72.576282
 40
0.011113
  0
CIRCLE
  8
LAYER010
  6
CONTINUOUS
 62
     7
 10
-111.676272
 20
-72.576282
 40
0.011113
  0
CIRCLE
  8
LAYER010
  6
CONTINUOUS
 62
     7
 10
-111.676272
 20
-72.576282
 40
0.011113
  0
ENDSEC
  0
EOF
