  0
SECTION
  2
HEADER
  9
$EXTMIN
 10
-210.0
 20
-148.5
  9
$EXTMAX
 10
210.0
 20
148.5
  9
$PDMODE
 70
    32
  9
$PDSIZE
 40
1.5
  9
$LTSCALE
 40
10.0
  0
ENDSEC
  0
SECTION
  2
TABLES
  0
TABLE
  2
LTYPE
 70
    15
  0
LTYPE
  2
CONTINUOUS
 70
    64
  3
実線
 72
    65
 73
     0
 40
0.0
  0
LTYPE
  2
DASHED
 70
    64
  3
破線A
 72
    65
 73
     2
 40
0.6
 49
0.4
 49
-0.2
  0
LTYPE
  2
DASHEDX2
 70
    64
  3
破線B
 72
    65
 73
     2
 40
1.3
 49
0.9
 49
-0.4
  0
LTYPE
  2
DASHDOT
 70
    64
  3
１点鎖線A
 72
    65
 73
     4
 40
0.5375
 49
0.375
 49
-0.05
 49
0.0625
 49
-0.05
  0
LTYPE
  2
DASHDOTX2
 70
    64
  3
１点鎖線B
 72
    65
 73
     4
 40
1.075
 49
0.75
 49
-0.1
 49
0.125
 49
-0.1
  0
LTYPE
  2
DIVIDE2
 70
    64
  3
２点鎖線A
 72
    65
 73
     6
 40
0.5125
 49
0.3
 49
-0.0375
 49
0.05
 49
-0.0375
 49
0.05
 49
-0.0375
  0
LTYPE
  2
DIVIDE
 70
    64
  3
２点鎖線B
 72
    65
 73
     6
 40
1.05
 49
0.55
 49
-0.1
 49
0.1
 49
-0.1
 49
0.1
 49
-0.1
  0
LTYPE
  2
DOT
 70
    64
  3
点線A
 72
    65
 73
     2
 40
0.1125
 49
0.0625
 49
-0.05
  0
LTYPE
  2
DOTX2
 70
    64
  3
点線B
 72
    65
 73
     2
 40
0.275
 49
0.15
 49
-0.125
  0
LTYPE
  2
CONTINUOUS
 70
    64
  3
実線
 72
    65
 73
     0
 40
0.0
  0
LTYPE
  2
CONTINUOUS
 70
    64
  3
実線
 72
    65
 73
     0
 40
0.0
  0
LTYPE
  2
CONTINUOUS
 70
    64
  3
実線
 72
    65
 73
     0
 40
0.0
  0
LTYPE
  2
CONTINUOUS
 70
    64
  3
実線
 72
    65
 73
     0
 40
0.0
  0
LTYPE
  2
CONTINUOUS
 70
    64
  3
実線
 72
    65
 73
     0
 40
0.0
  0
LTYPE
  2
CONTINUOUS
 70
    64
  3
実線
 72
    65
 73
     0
 40
0.0
  0
ENDTAB
  0
TABLE
  2
LAYER
 70
    49
  0
LAYER
  2
通り芯
 70
     0
 62
    15
  6
CONTINUOUS
  0
LAYER
  2
補助線
 70
     0
 62
    16
  6
DOT
  0
LAYER
  2
躯体
 70
     0
 62
    31
  6
CONTINUOUS
  0
LAYER
  2
型材
 70
     0
 62
    32
  6
CONTINUOUS
  0
LAYER
  2
型材断面
 70
     0
 62
    47
  6
CONTINUOUS
  0
LAYER
  2
ガラス
 70
     0
 62
    48
  6
CONTINUOUS
  0
LAYER
  2
ゴム等
 70
     0
 62
    63
  6
CONTINUOUS
  0
LAYER
  2
ボルト／ビス
 70
     0
 62
    64
  6
CONTINUOUS
  0
LAYER
  2
文字
 70
     0
 62
    79
  6
CONTINUOUS
  0
LAYER
  2
寸法
 70
     0
 62
    80
  6
CONTINUOUS
  0
LAYER
  2
ﾊｯﾁﾝｸﾞ
 70
     0
 62
    95
  6
CONTINUOUS
  0
LAYER
  2
別途部材
 70
     0
 62
    96
  6
CONTINUOUS
  0
LAYER
  2
曲げ物
 70
     0
 62
   111
  6
CONTINUOUS
  0
LAYER
  2
鉄骨等
 70
     0
 62
   112
  6
CONTINUOUS
  0
LAYER
  2
St
 70
     0
 62
   127
  6
CONTINUOUS
  0
LAYER
  2
その他部品等
 70
     0
 62
   128
  6
CONTINUOUS
  0
LAYER
  2
ｶﾞｽｹｯﾄ
 70
     0
 62
   143
  6
CONTINUOUS
  0
LAYER
  2
ｽｹｯﾁ
 70
     0
 62
    14
  6
CONTINUOUS
  0
LAYER
  2
0
 70
     0
 62
    17
  6
CONTINUOUS
  0
LAYER
  2
1
 70
     0
 62
    30
  6
CONTINUOUS
  0
LAYER
  2
4
 70
     0
 62
    33
  6
CONTINUOUS
  0
LAYER
  2
ﾚｲﾔ3
 70
     0
 62
    46
  6
CONTINUOUS
  0
LAYER
  2
外形線
 70
     0
 62
    49
  6
CONTINUOUS
  0
LAYER
  2
部品
 70
     0
 62
    14
  6
CONTINUOUS
  0
LAYER
  2
サッシ芯
 70
     0
 62
    17
  6
DASHDOTX2
  0
LAYER
  2
寸法線
 70
     0
 62
    62
  6
CONTINUOUS
  0
LAYER
  2
姿図外形線
 70
     0
 62
    65
  6
CONTINUOUS
  0
LAYER
  2
姿補助線
 70
     0
 62
    30
  6
CONTINUOUS
  0
LAYER
  2
透視線
 70
     0
 62
    78
  6
DOT
  0
LAYER
  2
用紙
 70
     0
 62
    81
  6
CONTINUOUS
  0
LAYER
  2
実線図枠
 70
     0
 62
    94
  6
CONTINUOUS
  0
LAYER
  2
補助図枠
 70
     0
 62
    97
  6
CONTINUOUS
  0
LAYER
  2
建具記号
 70
     0
 62
   110
  6
CONTINUOUS
  0
LAYER
  2
補助文字
 70
     0
 62
   113
  6
CONTINUOUS
  0
LAYER
  2
LAYER010
 70
     0
 62
    11
  6
CONTINUOUS
  0
LAYER
  2
03
 70
     0
 62
     3
  6
CONTINUOUS
  0
LAYER
  2
断面線01
 70
     0
 62
     1
  6
CONTINUOUS
  0
LAYER
  2
断面線08
 70
     0
 62
    14
  6
CONTINUOUS
  0
LAYER
  2
断面線02
 70
     0
 62
     2
  6
CONTINUOUS
  0
LAYER
  2
断面線03
 70
     0
 62
     3
  6
CONTINUOUS
  0
LAYER
  2
断面線04
 70
     0
 62
     4
  6
CONTINUOUS
  0
LAYER
  2
断面線05
 70
     0
 62
     5
  6
CONTINUOUS
  0
LAYER
  2
断面線07
 70
     0
 62
     7
  6
CONTINUOUS
  0
LAYER
  2
投影線01
 70
     0
 62
    13
  6
CONTINUOUS
  0
LAYER
  2
投影線02
 70
     0
 62
    12
  6
CONTINUOUS
  0
LAYER
  2
投影線03
 70
     0
 62
    11
  6
CONTINUOUS
  0
LAYER
  2
投影線06
 70
     0
 62
     8
  6
CONTINUOUS
  0
LAYER
  2
投影線07
 70
     0
 62
    17
  6
CONTINUOUS
  0
LAYER
  2
投影線08
 70
     0
 62
    18
  6
CONTINUOUS
  0
ENDTAB
  0
TABLE
  2
STYLE
 70
    10
  0
STYLE
  2
STANDARD
 70
     0
 40
1.0
 41
1.0
 42
1.0
 50
0.0
 71
     0
  3
TXT
  4
BIGFONT
  0
STYLE
  2
TATE
 70
     4
 40
1.0
 41
1.0
 42
1.0
 50
0.0
 71
     0
  3
TXT
  4
BIGFONT
  0
STYLE
  2
TextStyle03
 70
     0
 40
1.0
 41
1.0
 42
1.0
 50
0.0
 71
     0
  3
MONOTXT
  4
BIGFONT
  0
STYLE
  2
TextStyle04
 70
     0
 40
1.0
 41
1.0
 42
1.0
 50
0.0
 71
     0
  3
MONOTXT
  4
BIGFONT
  0
STYLE
  2
TextStyle05
 70
     0
 40
1.0
 41
1.0
 42
1.0
 50
0.0
 71
     0
  3
MONOTXT
  4
BIGFONT
  0
STYLE
  2
TextStyle06
 70
     0
 40
1.0
 41
1.0
 42
1.0
 50
0.0
 71
     0
  3
MONOTXT
  4
BIGFONT
  0
STYLE
  2
TextStyle07
 70
     0
 40
1.0
 41
1.0
 42
1.0
 50
0.0
 71
     0
  3
MONOTXT
  4
BIGFONT
  0
STYLE
  2
TextStyle08
 70
     0
 40
1.0
 41
1.0
 42
1.0
 50
0.0
 71
     0
  3
MONOTXT
  4
BIGFONT
  0
STYLE
  2
TextStyle09
 70
     0
 40
1.0
 41
1.0
 42
1.0
 50
0.0
 71
     0
  3
MONOTXT
  4
BIGFONT
  0
STYLE
  2
TextStyle10
 70
     0
 40
1.0
 41
1.0
 42
1.0
 50
0.0
 71
     0
  3
MONOTXT
  4
BIGFONT
  0
ENDTAB
  0
ENDSEC
  0
SECTION
  2
BLOCKS
  0
BLOCK
  2
*GRP_0001
 70
    65
 10
0.0
 20
0.0
  0
LINE
  8
型材断面
  6
CONTINUOUS
 10
195.0
 20
133.5
 11
195.0
 21
-133.5
  0
LINE
  8
型材断面
  6
CONTINUOUS
 10
195.0
 20
-133.5
 11
-185.0
 21
-133.5
  0
LINE
  8
型材断面
  6
CONTINUOUS
 10
-185.0
 20
-133.5
 11
-185.0
 21
133.5
  0
LINE
  8
型材断面
  6
CONTINUOUS
 10
195.0
 20
133.5
 11
-185.0
 21
133.5
  0
LINE
  8
型材断面
  6
CONTINUOUS
 10
145.0
 20
-133.5
 11
145.0
 21
-118.5
  0
LINE
  8
型材断面
  6
CONTINUOUS
 10
195.0
 20
-118.5
 11
145.0
 21
-118.5
  0
ENDBLK
  0
BLOCK
  2
*GRP_0002
 70
    65
 10
0.0
 20
0.0
  0
INSERT
  2
*GRP_0003
  8
文字
  6
CONTINUOUS
 10
0.0
 20
0.0
  0
LINE
  8
文字
  6
CONTINUOUS
 10
-3.994423
 20
26.182373
 11
-3.994423
 21
25.852503
  0
LINE
  8
文字
  6
CONTINUOUS
 10
-4.502293
 20
27.062027
 11
-4.502293
 21
25.852503
  0
LINE
  8
文字
  6
CONTINUOUS
 10
-5.010163
 20
27.941685
 11
-5.010163
 21
25.852503
  0
LINE
  8
文字
  6
CONTINUOUS
 10
-5.518033
 20
28.821342
 11
-5.518033
 21
25.852503
  0
LINE
  8
文字
  6
CONTINUOUS
 10
-6.025903
 20
29.700998
 11
-6.025903
 21
25.852503
  0
LINE
  8
文字
  6
CONTINUOUS
 10
-4.248358
 20
25.852503
 11
-4.248358
 21
26.622198
  0
LINE
  8
文字
  6
CONTINUOUS
 10
-4.756228
 20
25.852503
 11
-4.756228
 21
27.501855
  0
LINE
  8
文字
  6
CONTINUOUS
 10
-5.264098
 20
25.852503
 11
-5.264098
 21
28.381512
  0
LINE
  8
文字
  6
CONTINUOUS
 10
-5.771968
 20
25.852503
 11
-5.771968
 21
29.261168
  0
LINE
  8
文字
  6
CONTINUOUS
 10
-8.057383
 20
26.182373
 11
-8.057383
 21
25.852503
  0
LINE
  8
文字
  6
CONTINUOUS
 10
-7.549513
 20
27.062027
 11
-7.549513
 21
25.852503
  0
LINE
  8
文字
  6
CONTINUOUS
 10
-7.041643
 20
27.941685
 11
-7.041643
 21
25.852503
  0
LINE
  8
文字
  6
CONTINUOUS
 10
-6.533773
 20
28.821342
 11
-6.533773
 21
25.852503
  0
LINE
  8
文字
  6
CONTINUOUS
 10
-7.803448
 20
25.852503
 11
-7.803448
 21
26.622198
  0
LINE
  8
文字
  6
CONTINUOUS
 10
-7.295578
 20
25.852503
 11
-7.295578
 21
27.501855
  0
LINE
  8
文字
  6
CONTINUOUS
 10
-6.787708
 20
25.852503
 11
-6.787708
 21
28.381512
  0
LINE
  8
文字
  6
CONTINUOUS
 10
-6.279838
 20
25.852503
 11
-6.279838
 21
29.261168
  0
ENDBLK
  0
BLOCK
  2
*GRP_0003
 70
    65
 10
0.0
 20
0.0
  0
LINE
  8
文字
  6
CONTINUOUS
 10
-6.025903
 20
29.700998
 11
-8.24783
 21
25.852503
  0
LINE
  8
文字
  6
CONTINUOUS
 10
-8.24783
 20
25.852503
 11
-3.80397
 21
25.852503
  0
LINE
  8
文字
  6
CONTINUOUS
 10
-6.025903
 20
29.700998
 11
-3.80397
 21
25.852503
  0
ENDBLK
  0
BLOCK
  2
*DIM_0004
 70
    65
 10
0.0
 20
0.0
  0
LINE
  8
寸法
  6
CONTINUOUS
 10
-29.717058
 20
-85.106545
 11
-29.717058
 21
-56.358713
  0
LINE
  8
寸法
  6
CONTINUOUS
 10
-33.967058
 20
-56.358713
 11
-29.717058
 21
-56.358713
  0
POINT
  8
寸法
 10
-33.967058
 20
-56.358713
  0
POINT
  8
寸法
 10
-29.717058
 20
-56.358713
  0
TEXT
  7
TextStyle03
  8
寸法
  6
CONTINUOUS
 10
-33.44375
 20
-56.0
  1
85
 40
3.0
 72
     5
 11
-30.25625
 21
-56.0
  0
ENDBLK
  0
BLOCK
  2
*DIM_0005
 70
    65
 10
0.0
 20
0.0
  0
LINE
  8
寸法
  6
CONTINUOUS
 10
-24.817058
 20
-91.356545
 11
-12.164135
 21
-91.356545
  0
LINE
  8
寸法
  6
CONTINUOUS
 10
-26.467058
 20
-84.056362
 11
-12.164135
 21
-84.056362
  0
LINE
  8
寸法
  6
CONTINUOUS
 10
-12.164135
 20
-91.356545
 11
-12.164135
 21
-84.056362
  0
POINT
  8
寸法
 10
-12.164135
 20
-91.356545
  0
POINT
  8
寸法
 10
-12.164135
 20
-84.056362
  0
TEXT
  7
TextStyle03
  8
寸法
  6
CONTINUOUS
 10
-12.55
 20
-90.1625
  1
146
 40
3.0
 50
90.0
 72
     5
 11
-12.55
 21
-85.2875
  0
ENDBLK
  0
BLOCK
  2
*DIM_0006
 70
    65
 10
0.0
 20
0.0
  0
LINE
  8
寸法
  6
CONTINUOUS
 10
-103.217058
 20
-85.106545
 11
-103.217058
 21
-56.358713
  0
LINE
  8
寸法
  6
CONTINUOUS
 10
-98.967058
 20
-56.358713
 11
-103.217058
 21
-56.358713
  0
POINT
  8
寸法
 10
-98.967058
 20
-56.358713
  0
POINT
  8
寸法
 10
-103.217058
 20
-56.358713
  0
TEXT
  7
TextStyle03
  8
寸法
  6
CONTINUOUS
 10
-102.69375
 20
-56.0
  1
85
 40
3.0
 72
     5
 11
-99.50625
 21
-56.0
  0
ENDBLK
  0
BLOCK
  2
*DIM_0007
 70
    65
 10
0.0
 20
0.0
  0
LINE
  8
寸法
  6
CONTINUOUS
 10
-98.967058
 20
-56.358713
 11
-33.967058
 21
-56.358713
  0
POINT
  8
寸法
 10
-98.967058
 20
-56.358713
  0
POINT
  8
寸法
 10
-33.967058
 20
-56.358713
  0
TEXT
  7
TextStyle03
  8
寸法
  6
CONTINUOUS
 10
-79.88125
 20
-56.0
  1
呼称寸法　φ1300
 40
3.0
 72
     5
 11
-53.06875
 21
-56.0
  0
ENDBLK
  0
BLOCK
  2
*DIM_0008
 70
    65
 10
0.0
 20
0.0
  0
LINE
  8
寸法
  6
CONTINUOUS
 10
-29.717058
 20
-85.106545
 11
-29.717058
 21
-49.22389
  0
LINE
  8
寸法
  6
CONTINUOUS
 10
-103.217058
 20
-85.106545
 11
-103.217058
 21
-49.22389
  0
LINE
  8
寸法
  6
CONTINUOUS
 10
-29.717058
 20
-49.22389
 11
-103.217058
 21
-49.22389
  0
POINT
  8
寸法
 10
-29.717058
 20
-49.22389
  0
POINT
  8
寸法
 10
-103.217058
 20
-49.22389
  0
TEXT
  7
TextStyle03
  8
寸法
  6
CONTINUOUS
 10
-79.88125
 20
-48.85
  1
外形寸法　□1470
 40
3.0
 72
     5
 11
-53.06875
 21
-48.85
  0
ENDBLK
  0
BLOCK
  2
*GRP_0009
 70
    65
 10
0.0
 20
0.0
  0
INSERT
  2
*GRP_0010
  8
文字
  6
CONTINUOUS
 10
0.0
 20
0.0
  0
LINE
  8
文字
  6
CONTINUOUS
 10
-64.435577
 20
92.374625
 11
-64.435577
 21
92.704495
  0
LINE
  8
文字
  6
CONTINUOUS
 10
-64.943448
 20
91.49497
 11
-64.943448
 21
92.704495
  0
LINE
  8
文字
  6
CONTINUOUS
 10
-65.451318
 20
90.615313
 11
-65.451318
 21
92.704495
  0
LINE
  8
文字
  6
CONTINUOUS
 10
-65.959188
 20
89.735655
 11
-65.959188
 21
92.704495
  0
LINE
  8
文字
  6
CONTINUOUS
 10
-66.467058
 20
88.856
 11
-66.467058
 21
92.704495
  0
LINE
  8
文字
  6
CONTINUOUS
 10
-64.689513
 20
92.704495
 11
-64.689513
 21
91.9348
  0
LINE
  8
文字
  6
CONTINUOUS
 10
-65.197383
 20
92.704495
 11
-65.197383
 21
91.055142
  0
LINE
  8
文字
  6
CONTINUOUS
 10
-65.705253
 20
92.704495
 11
-65.705253
 21
90.175485
  0
LINE
  8
文字
  6
CONTINUOUS
 10
-66.213123
 20
92.704495
 11
-66.213123
 21
89.29583
  0
LINE
  8
文字
  6
CONTINUOUS
 10
-68.498538
 20
92.374625
 11
-68.498538
 21
92.704495
  0
LINE
  8
文字
  6
CONTINUOUS
 10
-67.990668
 20
91.49497
 11
-67.990668
 21
92.704495
  0
LINE
  8
文字
  6
CONTINUOUS
 10
-67.482798
 20
90.615313
 11
-67.482798
 21
92.704495
  0
LINE
  8
文字
  6
CONTINUOUS
 10
-66.974928
 20
89.735655
 11
-66.974928
 21
92.704495
  0
LINE
  8
文字
  6
CONTINUOUS
 10
-68.244603
 20
92.704495
 11
-68.244603
 21
91.9348
  0
LINE
  8
文字
  6
CONTINUOUS
 10
-67.736733
 20
92.704495
 11
-67.736733
 21
91.055142
  0
LINE
  8
文字
  6
CONTINUOUS
 10
-67.228863
 20
92.704495
 11
-67.228863
 21
90.175485
  0
LINE
  8
文字
  6
CONTINUOUS
 10
-66.720993
 20
92.704495
 11
-66.720993
 21
89.29583
  0
ENDBLK
  0
BLOCK
  2
*GRP_0010
 70
    65
 10
0.0
 20
0.0
  0
LINE
  8
文字
  6
CONTINUOUS
 10
-66.467058
 20
88.856
 11
-68.688985
 21
92.704495
  0
LINE
  8
文字
  6
CONTINUOUS
 10
-68.688985
 20
92.704495
 11
-64.245125
 21
92.704495
  0
LINE
  8
文字
  6
CONTINUOUS
 10
-66.467058
 20
88.856
 11
-64.245125
 21
92.704495
  0
ENDBLK
  0
BLOCK
  2
*GRP_0011
 70
    65
 10
0.0
 20
0.0
  0
INSERT
  2
*GRP_0012
  8
文字
  6
CONTINUOUS
 10
0.0
 20
0.0
  0
LINE
  8
文字
  6
CONTINUOUS
 10
-64.435577
 20
13.60703
 11
-64.435577
 21
13.27716
  0
LINE
  8
文字
  6
CONTINUOUS
 10
-64.943448
 20
14.486685
 11
-64.943448
 21
13.27716
  0
LINE
  8
文字
  6
CONTINUOUS
 10
-65.451318
 20
15.366343
 11
-65.451318
 21
13.27716
  0
LINE
  8
文字
  6
CONTINUOUS
 10
-65.959188
 20
16.246
 11
-65.959188
 21
13.27716
  0
LINE
  8
文字
  6
CONTINUOUS
 10
-66.467058
 20
17.125655
 11
-66.467058
 21
13.27716
  0
LINE
  8
文字
  6
CONTINUOUS
 10
-64.689513
 20
13.27716
 11
-64.689513
 21
14.046855
  0
LINE
  8
文字
  6
CONTINUOUS
 10
-65.197383
 20
13.27716
 11
-65.197383
 21
14.926512
  0
LINE
  8
文字
  6
CONTINUOUS
 10
-65.705253
 20
13.27716
 11
-65.705253
 21
15.80617
  0
LINE
  8
文字
  6
CONTINUOUS
 10
-66.213123
 20
13.27716
 11
-66.213123
 21
16.685825
  0
LINE
  8
文字
  6
CONTINUOUS
 10
-68.498538
 20
13.60703
 11
-68.498538
 21
13.27716
  0
LINE
  8
文字
  6
CONTINUOUS
 10
-67.990668
 20
14.486685
 11
-67.990668
 21
13.27716
  0
LINE
  8
文字
  6
CONTINUOUS
 10
-67.482798
 20
15.366343
 11
-67.482798
 21
13.27716
  0
LINE
  8
文字
  6
CONTINUOUS
 10
-66.974928
 20
16.246
 11
-66.974928
 21
13.27716
  0
LINE
  8
文字
  6
CONTINUOUS
 10
-68.244603
 20
13.27716
 11
-68.244603
 21
14.046855
  0
LINE
  8
文字
  6
CONTINUOUS
 10
-67.736733
 20
13.27716
 11
-67.736733
 21
14.926512
  0
LINE
  8
文字
  6
CONTINUOUS
 10
-67.228863
 20
13.27716
 11
-67.228863
 21
15.80617
  0
LINE
  8
文字
  6
CONTINUOUS
 10
-66.720993
 20
13.27716
 11
-66.720993
 21
16.685825
  0
ENDBLK
  0
BLOCK
  2
*GRP_0012
 70
    65
 10
0.0
 20
0.0
  0
LINE
  8
文字
  6
CONTINUOUS
 10
-66.467058
 20
17.125655
 11
-68.688985
 21
13.27716
  0
LINE
  8
文字
  6
CONTINUOUS
 10
-68.688985
 20
13.27716
 11
-64.245125
 21
13.27716
  0
LINE
  8
文字
  6
CONTINUOUS
 10
-66.467058
 20
17.125655
 11
-64.245125
 21
13.27716
  0
ENDBLK
  0
BLOCK
  2
*GRP_0013
 70
    65
 10
0.0
 20
0.0
  0
INSERT
  2
*GRP_0014
  8
文字
  6
CONTINUOUS
 10
0.0
 20
0.0
  0
LINE
  8
文字
  6
CONTINUOUS
 10
-27.08326
 20
50.959347
 11
-26.75339
 21
50.959347
  0
LINE
  8
文字
  6
CONTINUOUS
 10
-27.962915
 20
51.467217
 11
-26.75339
 21
51.467217
  0
LINE
  8
文字
  6
CONTINUOUS
 10
-28.842573
 20
51.975087
 11
-26.75339
 21
51.975087
  0
LINE
  8
文字
  6
CONTINUOUS
 10
-29.72223
 20
52.482957
 11
-26.75339
 21
52.482957
  0
LINE
  8
文字
  6
CONTINUOUS
 10
-30.601885
 20
52.990827
 11
-26.75339
 21
52.990827
  0
LINE
  8
文字
  6
CONTINUOUS
 10
-26.75339
 20
51.213283
 11
-27.523085
 21
51.213283
  0
LINE
  8
文字
  6
CONTINUOUS
 10
-26.75339
 20
51.721153
 11
-28.402743
 21
51.721153
  0
LINE
  8
文字
  6
CONTINUOUS
 10
-26.75339
 20
52.229023
 11
-29.2824
 21
52.229023
  0
LINE
  8
文字
  6
CONTINUOUS
 10
-26.75339
 20
52.736893
 11
-30.162055
 21
52.736893
  0
LINE
  8
文字
  6
CONTINUOUS
 10
-27.08326
 20
55.022307
 11
-26.75339
 21
55.022307
  0
LINE
  8
文字
  6
CONTINUOUS
 10
-27.962915
 20
54.514437
 11
-26.75339
 21
54.514437
  0
LINE
  8
文字
  6
CONTINUOUS
 10
-28.842573
 20
54.006567
 11
-26.75339
 21
54.006567
  0
LINE
  8
文字
  6
CONTINUOUS
 10
-29.72223
 20
53.498697
 11
-26.75339
 21
53.498697
  0
LINE
  8
文字
  6
CONTINUOUS
 10
-26.75339
 20
54.768373
 11
-27.523085
 21
54.768373
  0
LINE
  8
文字
  6
CONTINUOUS
 10
-26.75339
 20
54.260503
 11
-28.402743
 21
54.260503
  0
LINE
  8
文字
  6
CONTINUOUS
 10
-26.75339
 20
53.752633
 11
-29.2824
 21
53.752633
  0
LINE
  8
文字
  6
CONTINUOUS
 10
-26.75339
 20
53.244763
 11
-30.162055
 21
53.244763
  0
ENDBLK
  0
BLOCK
  2
*GRP_0014
 70
    65
 10
0.0
 20
0.0
  0
LINE
  8
文字
  6
CONTINUOUS
 10
-30.601885
 20
52.990827
 11
-26.75339
 21
55.212755
  0
LINE
  8
文字
  6
CONTINUOUS
 10
-26.75339
 20
55.212755
 11
-26.75339
 21
50.768895
  0
LINE
  8
文字
  6
CONTINUOUS
 10
-30.601885
 20
52.990827
 11
-26.75339
 21
50.768895
  0
ENDBLK
  0
BLOCK
  2
*GRP_0015
 70
    65
 10
0.0
 20
0.0
  0
INSERT
  2
*GRP_0016
  8
文字
  6
CONTINUOUS
 10
0.0
 20
0.0
  0
LINE
  8
文字
  6
CONTINUOUS
 10
-105.850855
 20
50.959347
 11
-106.180725
 21
50.959347
  0
LINE
  8
文字
  6
CONTINUOUS
 10
-104.9712
 20
51.467217
 11
-106.180725
 21
51.467217
  0
LINE
  8
文字
  6
CONTINUOUS
 10
-104.091543
 20
51.975087
 11
-106.180725
 21
51.975087
  0
LINE
  8
文字
  6
CONTINUOUS
 10
-103.211885
 20
52.482957
 11
-106.180725
 21
52.482957
  0
LINE
  8
文字
  6
CONTINUOUS
 10
-102.33223
 20
52.990827
 11
-106.180725
 21
52.990827
  0
LINE
  8
文字
  6
CONTINUOUS
 10
-106.180725
 20
51.213283
 11
-105.41103
 21
51.213283
  0
LINE
  8
文字
  6
CONTINUOUS
 10
-106.180725
 20
51.721153
 11
-104.531373
 21
51.721153
  0
LINE
  8
文字
  6
CONTINUOUS
 10
-106.180725
 20
52.229023
 11
-103.651715
 21
52.229023
  0
LINE
  8
文字
  6
CONTINUOUS
 10
-106.180725
 20
52.736893
 11
-102.77206
 21
52.736893
  0
LINE
  8
文字
  6
CONTINUOUS
 10
-105.850855
 20
55.022307
 11
-106.180725
 21
55.022307
  0
LINE
  8
文字
  6
CONTINUOUS
 10
-104.9712
 20
54.514437
 11
-106.180725
 21
54.514437
  0
LINE
  8
文字
  6
CONTINUOUS
 10
-104.091543
 20
54.006567
 11
-106.180725
 21
54.006567
  0
LINE
  8
文字
  6
CONTINUOUS
 10
-103.211885
 20
53.498697
 11
-106.180725
 21
53.498697
  0
LINE
  8
文字
  6
CONTINUOUS
 10
-106.180725
 20
54.768373
 11
-105.41103
 21
54.768373
  0
LINE
  8
文字
  6
CONTINUOUS
 10
-106.180725
 20
54.260503
 11
-104.531373
 21
54.260503
  0
LINE
  8
文字
  6
CONTINUOUS
 10
-106.180725
 20
53.752633
 11
-103.651715
 21
53.752633
  0
LINE
  8
文字
  6
CONTINUOUS
 10
-106.180725
 20
53.244763
 11
-102.77206
 21
53.244763
  0
ENDBLK
  0
BLOCK
  2
*GRP_0016
 70
    65
 10
0.0
 20
0.0
  0
LINE
  8
文字
  6
CONTINUOUS
 10
-102.33223
 20
52.990827
 11
-106.180725
 21
55.212755
  0
LINE
  8
文字
  6
CONTINUOUS
 10
-106.180725
 20
55.212755
 11
-106.180725
 21
50.768895
  0
LINE
  8
文字
  6
CONTINUOUS
 10
-102.33223
 20
52.990827
 11
-106.180725
 21
50.768895
  0
ENDBLK
  0
BLOCK
  2
*GRP_0017
 70
    65
 10
0.0
 20
0.0
  0
INSERT
  2
*GRP_0018
  8
文字
  6
CONTINUOUS
 10
0.0
 20
0.0
  0
LINE
  8
文字
  6
CONTINUOUS
 10
-40.05498
 20
82.27585
 11
-39.821727
 21
82.509102
  0
LINE
  8
文字
  6
CONTINUOUS
 10
-40.317872
 20
81.294722
 11
-39.462608
 21
82.149985
  0
LINE
  8
文字
  6
CONTINUOUS
 10
-40.580765
 20
80.313593
 11
-39.10349
 21
81.790868
  0
LINE
  8
文字
  6
CONTINUOUS
 10
-40.843657
 20
79.332462
 11
-38.744373
 21
81.431747
  0
LINE
  8
文字
  6
CONTINUOUS
 10
-41.10655
 20
78.351332
 11
-38.385253
 21
81.07263
  0
LINE
  8
文字
  6
CONTINUOUS
 10
-39.642167
 20
82.329545
 11
-40.186425
 21
81.785288
  0
LINE
  8
文字
  6
CONTINUOUS
 10
-39.28305
 20
81.970425
 11
-40.449317
 21
80.804157
  0
LINE
  8
文字
  6
CONTINUOUS
 10
-38.92393
 20
81.611307
 11
-40.71221
 21
79.823027
  0
LINE
  8
文字
  6
CONTINUOUS
 10
-38.564812
 20
81.25219
 11
-40.975102
 21
78.8419
  0
LINE
  8
文字
  6
CONTINUOUS
 10
-37.182032
 20
79.402902
 11
-36.94878
 21
79.636158
  0
LINE
  8
文字
  6
CONTINUOUS
 10
-38.163162
 20
79.140013
 11
-37.307898
 21
79.995275
  0
LINE
  8
文字
  6
CONTINUOUS
 10
-39.144293
 20
78.877117
 11
-37.667018
 21
80.354392
  0
LINE
  8
文字
  6
CONTINUOUS
 10
-40.125422
 20
78.614225
 11
-38.026135
 21
80.713513
  0
LINE
  8
文字
  6
CONTINUOUS
 10
-37.12834
 20
79.815715
 11
-37.672595
 21
79.27146
  0
LINE
  8
文字
  6
CONTINUOUS
 10
-37.487457
 20
80.174835
 11
-38.653725
 21
79.008565
  0
LINE
  8
文字
  6
CONTINUOUS
 10
-37.846575
 20
80.533952
 11
-39.634855
 21
78.745672
  0
LINE
  8
文字
  6
CONTINUOUS
 10
-38.205695
 20
80.89307
 11
-40.615985
 21
78.48278
  0
ENDBLK
  0
BLOCK
  2
*GRP_0018
 70
    65
 10
0.0
 20
0.0
  0
LINE
  8
文字
  6
CONTINUOUS
 10
-41.10655
 20
78.351332
 11
-36.814113
 21
79.50149
  0
LINE
  8
文字
  6
CONTINUOUS
 10
-36.814113
 20
79.50149
 11
-39.956398
 21
82.643775
  0
LINE
  8
文字
  6
CONTINUOUS
 10
-41.10655
 20
78.351332
 11
-39.956398
 21
82.643775
  0
ENDBLK
  0
BLOCK
  2
*GRP_0019
 70
    65
 10
0.0
 20
0.0
  0
INSERT
  2
*GRP_0020
  8
文字
  6
CONTINUOUS
 10
0.0
 20
0.0
  0
LINE
  8
文字
  6
CONTINUOUS
 10
-95.75208
 20
26.57875
 11
-95.985332
 21
26.345498
  0
LINE
  8
文字
  6
CONTINUOUS
 10
-94.770953
 20
26.841642
 11
-95.626215
 21
25.986377
  0
LINE
  8
文字
  6
CONTINUOUS
 10
-93.789822
 20
27.104535
 11
-95.267098
 21
25.62726
  0
LINE
  8
文字
  6
CONTINUOUS
 10
-92.808692
 20
27.367427
 11
-94.907978
 21
25.268143
  0
LINE
  8
文字
  6
CONTINUOUS
 10
-91.827563
 20
27.63032
 11
-94.54886
 21
24.909022
  0
LINE
  8
文字
  6
CONTINUOUS
 10
-95.805775
 20
26.165937
 11
-95.261517
 21
26.710195
  0
LINE
  8
文字
  6
CONTINUOUS
 10
-95.446655
 20
25.80682
 11
-94.280387
 21
26.973087
  0
LINE
  8
文字
  6
CONTINUOUS
 10
-95.087537
 20
25.4477
 11
-93.299258
 21
27.23598
  0
LINE
  8
文字
  6
CONTINUOUS
 10
-94.72842
 20
25.088582
 11
-92.31813
 21
27.498872
  0
LINE
  8
文字
  6
CONTINUOUS
 10
-92.879133
 20
23.705803
 11
-93.112388
 21
23.47255
  0
LINE
  8
文字
  6
CONTINUOUS
 10
-92.616243
 20
24.686932
 11
-93.471505
 21
23.831668
  0
LINE
  8
文字
  6
CONTINUOUS
 10
-92.353348
 20
25.668063
 11
-93.830623
 21
24.190788
  0
LINE
  8
文字
  6
CONTINUOUS
 10
-92.090455
 20
26.649193
 11
-94.189743
 21
24.549905
  0
LINE
  8
文字
  6
CONTINUOUS
 10
-93.291945
 20
23.65211
 11
-92.74769
 21
24.196365
  0
LINE
  8
文字
  6
CONTINUOUS
 10
-93.651065
 20
24.011227
 11
-92.484795
 21
25.177495
  0
LINE
  8
文字
  6
CONTINUOUS
 10
-94.010182
 20
24.370345
 11
-92.221903
 21
26.158625
  0
LINE
  8
文字
  6
CONTINUOUS
 10
-94.3693
 20
24.729465
 11
-91.95901
 21
27.139755
  0
ENDBLK
  0
BLOCK
  2
*GRP_0020
 70
    65
 10
0.0
 20
0.0
  0
LINE
  8
文字
  6
CONTINUOUS
 10
-91.827563
 20
27.63032
 11
-92.97772
 21
23.337882
  0
LINE
  8
文字
  6
CONTINUOUS
 10
-92.97772
 20
23.337882
 11
-96.120005
 21
26.480168
  0
LINE
  8
文字
  6
CONTINUOUS
 10
-91.827563
 20
27.63032
 11
-96.120005
 21
26.480168
  0
ENDBLK
  0
BLOCK
  2
*GRP_0021
 70
    65
 10
0.0
 20
0.0
  0
INSERT
  2
*GRP_0022
  8
文字
  6
CONTINUOUS
 10
0.0
 20
0.0
  0
LINE
  8
文字
  6
CONTINUOUS
 10
-37.182035
 20
26.57875
 11
-36.948783
 21
26.345498
  0
LINE
  8
文字
  6
CONTINUOUS
 10
-38.163162
 20
26.841642
 11
-37.3079
 21
25.986377
  0
LINE
  8
文字
  6
CONTINUOUS
 10
-39.144293
 20
27.104535
 11
-37.667018
 21
25.62726
  0
LINE
  8
文字
  6
CONTINUOUS
 10
-40.125422
 20
27.367427
 11
-38.026138
 21
25.268143
  0
LINE
  8
文字
  6
CONTINUOUS
 10
-41.106552
 20
27.63032
 11
-38.385255
 21
24.909022
  0
LINE
  8
文字
  6
CONTINUOUS
 10
-37.12834
 20
26.165937
 11
-37.672598
 21
26.710195
  0
LINE
  8
文字
  6
CONTINUOUS
 10
-37.48746
 20
25.80682
 11
-38.653727
 21
26.973087
  0
LINE
  8
文字
  6
CONTINUOUS
 10
-37.846577
 20
25.4477
 11
-39.634857
 21
27.23598
  0
LINE
  8
文字
  6
CONTINUOUS
 10
-38.205695
 20
25.088582
 11
-40.615985
 21
27.498872
  0
LINE
  8
文字
  6
CONTINUOUS
 10
-40.054983
 20
23.705803
 11
-39.821727
 21
23.47255
  0
LINE
  8
文字
  6
CONTINUOUS
 10
-40.317872
 20
24.686932
 11
-39.46261
 21
23.831668
  0
LINE
  8
文字
  6
CONTINUOUS
 10
-40.580768
 20
25.668063
 11
-39.103492
 21
24.190788
  0
LINE
  8
文字
  6
CONTINUOUS
 10
-40.84366
 20
26.649193
 11
-38.744373
 21
24.549905
  0
LINE
  8
文字
  6
CONTINUOUS
 10
-39.64217
 20
23.65211
 11
-40.186425
 21
24.196365
  0
LINE
  8
文字
  6
CONTINUOUS
 10
-39.28305
 20
24.011227
 11
-40.44932
 21
25.177495
  0
LINE
  8
文字
  6
CONTINUOUS
 10
-38.923932
 20
24.370345
 11
-40.712212
 21
26.158625
  0
LINE
  8
文字
  6
CONTINUOUS
 10
-38.564815
 20
24.729465
 11
-40.975105
 21
27.139755
  0
ENDBLK
  0
BLOCK
  2
*GRP_0022
 70
    65
 10
0.0
 20
0.0
  0
LINE
  8
文字
  6
CONTINUOUS
 10
-41.106552
 20
27.63032
 11
-39.956395
 21
23.337882
  0
LINE
  8
文字
  6
CONTINUOUS
 10
-39.956395
 20
23.337882
 11
-36.81411
 21
26.480168
  0
LINE
  8
文字
  6
CONTINUOUS
 10
-41.106552
 20
27.63032
 11
-36.81411
 21
26.480168
  0
ENDBLK
  0
BLOCK
  2
*GRP_0023
 70
    65
 10
0.0
 20
0.0
  0
INSERT
  2
*GRP_0024
  8
文字
  6
CONTINUOUS
 10
0.0
 20
0.0
  0
LINE
  8
文字
  6
CONTINUOUS
 10
-92.879135
 20
82.27585
 11
-93.112388
 21
82.509102
  0
LINE
  8
文字
  6
CONTINUOUS
 10
-92.616243
 20
81.294722
 11
-93.471508
 21
82.149985
  0
LINE
  8
文字
  6
CONTINUOUS
 10
-92.35335
 20
80.313593
 11
-93.830625
 21
81.790868
  0
LINE
  8
文字
  6
CONTINUOUS
 10
-92.090457
 20
79.332462
 11
-94.189743
 21
81.431747
  0
LINE
  8
文字
  6
CONTINUOUS
 10
-91.827565
 20
78.351332
 11
-94.548862
 21
81.07263
  0
LINE
  8
文字
  6
CONTINUOUS
 10
-93.291947
 20
82.329545
 11
-92.74769
 21
81.785288
  0
LINE
  8
文字
  6
CONTINUOUS
 10
-93.651065
 20
81.970425
 11
-92.484797
 21
80.804157
  0
LINE
  8
文字
  6
CONTINUOUS
 10
-94.010185
 20
81.611307
 11
-92.221905
 21
79.823027
  0
LINE
  8
文字
  6
CONTINUOUS
 10
-94.369302
 20
81.25219
 11
-91.959012
 21
78.8419
  0
LINE
  8
文字
  6
CONTINUOUS
 10
-95.752082
 20
79.402902
 11
-95.985335
 21
79.636158
  0
LINE
  8
文字
  6
CONTINUOUS
 10
-94.770953
 20
79.140013
 11
-95.626217
 21
79.995275
  0
LINE
  8
文字
  6
CONTINUOUS
 10
-93.789822
 20
78.877117
 11
-95.267098
 21
80.354392
  0
LINE
  8
文字
  6
CONTINUOUS
 10
-92.808692
 20
78.614225
 11
-94.90798
 21
80.713513
  0
LINE
  8
文字
  6
CONTINUOUS
 10
-95.805775
 20
79.815715
 11
-95.26152
 21
79.27146
  0
LINE
  8
文字
  6
CONTINUOUS
 10
-95.446658
 20
80.174835
 11
-94.28039
 21
79.008565
  0
LINE
  8
文字
  6
CONTINUOUS
 10
-95.08754
 20
80.533952
 11
-93.29926
 21
78.745672
  0
LINE
  8
文字
  6
CONTINUOUS
 10
-94.72842
 20
80.89307
 11
-92.31813
 21
78.48278
  0
ENDBLK
  0
BLOCK
  2
*GRP_0024
 70
    65
 10
0.0
 20
0.0
  0
LINE
  8
文字
  6
CONTINUOUS
 10
-91.827565
 20
78.351332
 11
-96.120003
 21
79.50149
  0
LINE
  8
文字
  6
CONTINUOUS
 10
-96.120003
 20
79.50149
 11
-92.977718
 21
82.643775
  0
LINE
  8
文字
  6
CONTINUOUS
 10
-91.827565
 20
78.351332
 11
-92.977718
 21
82.643775
  0
ENDBLK
  0
BLOCK
  2
*GRP_0025
 70
    65
 10
0.0
 20
0.0
  0
INSERT
  2
*GRP_0026
  8
補助線
  6
CONTINUOUS
 10
0.0
 20
0.0
  0
LINE
  8
ボルト／ビス
  6
CONTINUOUS
 10
-57.519247
 20
85.269153
 11
-57.723373
 21
85.06503
  0
LINE
  8
ボルト／ビス
  6
CONTINUOUS
 10
-57.519247
 20
85.269153
 11
-57.593962
 21
85.547992
  0
LINE
  8
ボルト／ビス
  6
CONTINUOUS
 10
-58.00221
 20
85.139745
 11
-58.076925
 21
85.418583
  0
LINE
  8
ボルト／ビス
  6
CONTINUOUS
 10
-57.8728
 20
85.622708
 11
-58.076925
 21
85.418583
  0
CIRCLE
  8
ボルト／ビス
  6
CONTINUOUS
 10
-57.798085
 20
85.343867
 40
0.25
  0
LINE
  8
ボルト／ビス
  6
CONTINUOUS
 10
-57.593962
 20
85.547992
 11
-57.8728
 21
85.622708
  0
LINE
  8
ボルト／ビス
  6
CONTINUOUS
 10
-58.00221
 20
85.139745
 11
-57.723373
 21
85.06503
  0
ENDBLK
  0
BLOCK
  2
*GRP_0026
 70
    65
 10
0.0
 20
0.0
  0
LINE
  8
補助線
  6
BYBLOCK
 62
     0
 10
-57.765735
 20
85.46461
 11
-57.830437
 21
85.223128
  0
LINE
  8
補助線
  6
BYBLOCK
 62
     0
 10
-57.677345
 20
85.311515
 11
-57.918828
 21
85.37622
  0
ENDBLK
  0
BLOCK
  2
*GRP_0027
 70
    65
 10
0.0
 20
0.0
  0
INSERT
  2
*GRP_0028
  8
補助線
  6
CONTINUOUS
 10
0.0
 20
0.0
  0
LINE
  8
ボルト／ビス
  6
CONTINUOUS
 10
-42.574855
 20
76.883033
 11
-42.50014
 21
76.604192
  0
LINE
  8
ボルト／ビス
  6
CONTINUOUS
 10
-42.574855
 20
76.883033
 11
-42.853695
 21
76.957745
  0
LINE
  8
ボルト／ビス
  6
CONTINUOUS
 10
-42.704265
 20
76.40007
 11
-42.983103
 21
76.474783
  0
LINE
  8
ボルト／ビス
  6
CONTINUOUS
 10
-43.057817
 20
76.753622
 11
-42.983103
 21
76.474783
  0
CIRCLE
  8
ボルト／ビス
  6
CONTINUOUS
 10
-42.77898
 20
76.678908
 40
0.25
  0
LINE
  8
ボルト／ビス
  6
CONTINUOUS
 10
-42.853695
 20
76.957745
 11
-43.057817
 21
76.753622
  0
LINE
  8
ボルト／ビス
  6
CONTINUOUS
 10
-42.704265
 20
76.40007
 11
-42.50014
 21
76.604192
  0
ENDBLK
  0
BLOCK
  2
*GRP_0028
 70
    65
 10
0.0
 20
0.0
  0
LINE
  8
補助線
  6
BYBLOCK
 62
     0
 10
-42.867368
 20
76.767295
 11
-42.69059
 21
76.59052
  0
LINE
  8
補助線
  6
BYBLOCK
 62
     0
 10
-42.69059
 20
76.767295
 11
-42.867368
 21
76.59052
  0
ENDBLK
  0
BLOCK
  2
*GRP_0029
 70
    65
 10
0.0
 20
0.0
  0
INSERT
  2
*GRP_0030
  8
補助線
  6
CONTINUOUS
 10
0.0
 20
0.0
  0
LINE
  8
ボルト／ビス
  6
CONTINUOUS
 10
-33.834575
 20
61.734672
 11
-33.90929
 21
61.455835
  0
LINE
  8
ボルト／ビス
  6
CONTINUOUS
 10
-33.834575
 20
61.734672
 11
-34.038698
 21
61.938797
  0
LINE
  8
ボルト／ビス
  6
CONTINUOUS
 10
-34.188127
 20
61.38112
 11
-34.392252
 21
61.585245
  0
LINE
  8
ボルト／ビス
  6
CONTINUOUS
 10
-34.317537
 20
61.864083
 11
-34.392252
 21
61.585245
  0
CIRCLE
  8
ボルト／ビス
  6
CONTINUOUS
 10
-34.113412
 20
61.65996
 40
0.25
  0
LINE
  8
ボルト／ビス
  6
CONTINUOUS
 10
-34.038698
 20
61.938797
 11
-34.317537
 21
61.864083
  0
LINE
  8
ボルト／ビス
  6
CONTINUOUS
 10
-34.188127
 20
61.38112
 11
-33.90929
 21
61.455835
  0
ENDBLK
  0
BLOCK
  2
*GRP_0030
 70
    65
 10
0.0
 20
0.0
  0
LINE
  8
補助線
  6
BYBLOCK
 62
     0
 10
-34.145765
 20
61.7807
 11
-34.08106
 21
61.539218
  0
LINE
  8
補助線
  6
BYBLOCK
 62
     0
 10
-33.992673
 20
61.692312
 11
-34.234155
 21
61.627607
  0
ENDBLK
  0
BLOCK
  2
*GRP_0031
 70
    65
 10
0.0
 20
0.0
  0
INSERT
  2
*GRP_0034
  8
補助線
  6
CONTINUOUS
 10
0.0
 20
0.0
  0
LINE
  8
ボルト／ビス
  6
CONTINUOUS
 10
-75.414868
 20
85.269153
 11
-75.210743
 21
85.06503
  0
LINE
  8
ボルト／ビス
  6
CONTINUOUS
 10
-75.414868
 20
85.269153
 11
-75.340153
 21
85.547992
  0
LINE
  8
ボルト／ビス
  6
CONTINUOUS
 10
-74.931905
 20
85.139745
 11
-74.85719
 21
85.418583
  0
LINE
  8
ボルト／ビス
  6
CONTINUOUS
 10
-75.061315
 20
85.622708
 11
-74.85719
 21
85.418583
  0
CIRCLE
  8
ボルト／ビス
  6
CONTINUOUS
 10
-75.13603
 20
85.343867
 40
0.25
  0
LINE
  8
ボルト／ビス
  6
CONTINUOUS
 10
-75.340153
 20
85.547992
 11
-75.061315
 21
85.622708
  0
LINE
  8
ボルト／ビス
  6
CONTINUOUS
 10
-74.931905
 20
85.139745
 11
-75.210743
 21
85.06503
  0
ENDBLK
  0
BLOCK
  2
*GRP_0032
 70
    65
 10
0.0
 20
0.0
  0
INSERT
  2
*GRP_0035
  8
補助線
  6
CONTINUOUS
 10
0.0
 20
0.0
  0
LINE
  8
ボルト／ビス
  6
CONTINUOUS
 10
-90.35926
 20
76.883033
 11
-90.433975
 21
76.604192
  0
LINE
  8
ボルト／ビス
  6
CONTINUOUS
 10
-90.35926
 20
76.883033
 11
-90.08042
 21
76.957745
  0
LINE
  8
ボルト／ビス
  6
CONTINUOUS
 10
-90.22985
 20
76.40007
 11
-89.951012
 21
76.474783
  0
LINE
  8
ボルト／ビス
  6
CONTINUOUS
 10
-89.876297
 20
76.753622
 11
-89.951012
 21
76.474783
  0
CIRCLE
  8
ボルト／ビス
  6
CONTINUOUS
 10
-90.155135
 20
76.678908
 40
0.25
  0
LINE
  8
ボルト／ビス
  6
CONTINUOUS
 10
-90.08042
 20
76.957745
 11
-89.876297
 21
76.753622
  0
LINE
  8
ボルト／ビス
  6
CONTINUOUS
 10
-90.22985
 20
76.40007
 11
-90.433975
 21
76.604192
  0
ENDBLK
  0
BLOCK
  2
*GRP_0033
 70
    65
 10
0.0
 20
0.0
  0
INSERT
  2
*GRP_0036
  8
補助線
  6
CONTINUOUS
 10
0.0
 20
0.0
  0
LINE
  8
ボルト／ビス
  6
CONTINUOUS
 10
-99.09954
 20
61.734672
 11
-99.024825
 21
61.455835
  0
LINE
  8
ボルト／ビス
  6
CONTINUOUS
 10
-99.09954
 20
61.734672
 11
-98.895417
 21
61.938797
  0
LINE
  8
ボルト／ビス
  6
CONTINUOUS
 10
-98.745987
 20
61.38112
 11
-98.541863
 21
61.585245
  0
LINE
  8
ボルト／ビス
  6
CONTINUOUS
 10
-98.616578
 20
61.864083
 11
-98.541863
 21
61.585245
  0
CIRCLE
  8
ボルト／ビス
  6
CONTINUOUS
 10
-98.820702
 20
61.65996
 40
0.25
  0
LINE
  8
ボルト／ビス
  6
CONTINUOUS
 10
-98.895417
 20
61.938797
 11
-98.616578
 21
61.864083
  0
LINE
  8
ボルト／ビス
  6
CONTINUOUS
 10
-98.745987
 20
61.38112
 11
-99.024825
 21
61.455835
  0
ENDBLK
  0
BLOCK
  2
*GRP_0034
 70
    65
 10
0.0
 20
0.0
  0
LINE
  8
補助線
  6
BYBLOCK
 62
     0
 10
-75.16838
 20
85.46461
 11
-75.103677
 21
85.223128
  0
LINE
  8
補助線
  6
BYBLOCK
 62
     0
 10
-75.25677
 20
85.311515
 11
-75.015287
 21
85.37622
  0
ENDBLK
  0
BLOCK
  2
*GRP_0035
 70
    65
 10
0.0
 20
0.0
  0
LINE
  8
補助線
  6
BYBLOCK
 62
     0
 10
-90.066748
 20
76.767295
 11
-90.243525
 21
76.59052
  0
LINE
  8
補助線
  6
BYBLOCK
 62
     0
 10
-90.243525
 20
76.767295
 11
-90.066748
 21
76.59052
  0
ENDBLK
  0
BLOCK
  2
*GRP_0036
 70
    65
 10
0.0
 20
0.0
  0
LINE
  8
補助線
  6
BYBLOCK
 62
     0
 10
-98.78835
 20
61.7807
 11
-98.853055
 21
61.539218
  0
LINE
  8
補助線
  6
BYBLOCK
 62
     0
 10
-98.941442
 20
61.692312
 11
-98.69996
 21
61.627607
  0
ENDBLK
  0
BLOCK
  2
*GRP_0037
 70
    65
 10
0.0
 20
0.0
  0
INSERT
  2
*GRP_0040
  8
補助線
  6
CONTINUOUS
 10
0.0
 20
0.0
  0
LINE
  8
ボルト／ビス
  6
CONTINUOUS
 10
-75.414868
 20
20.712502
 11
-75.210743
 21
20.916625
  0
LINE
  8
ボルト／ビス
  6
CONTINUOUS
 10
-75.414868
 20
20.712502
 11
-75.340153
 21
20.433662
  0
LINE
  8
ボルト／ビス
  6
CONTINUOUS
 10
-74.931905
 20
20.84191
 11
-74.85719
 21
20.563073
  0
LINE
  8
ボルト／ビス
  6
CONTINUOUS
 10
-75.061315
 20
20.358948
 11
-74.85719
 21
20.563073
  0
CIRCLE
  8
ボルト／ビス
  6
CONTINUOUS
 10
-75.13603
 20
20.637788
 40
0.25
  0
LINE
  8
ボルト／ビス
  6
CONTINUOUS
 10
-75.340153
 20
20.433662
 11
-75.061315
 21
20.358948
  0
LINE
  8
ボルト／ビス
  6
CONTINUOUS
 10
-74.931905
 20
20.84191
 11
-75.210743
 21
20.916625
  0
ENDBLK
  0
BLOCK
  2
*GRP_0038
 70
    65
 10
0.0
 20
0.0
  0
INSERT
  2
*GRP_0041
  8
補助線
  6
CONTINUOUS
 10
0.0
 20
0.0
  0
LINE
  8
ボルト／ビス
  6
CONTINUOUS
 10
-90.35926
 20
29.098623
 11
-90.433975
 21
29.377463
  0
LINE
  8
ボルト／ビス
  6
CONTINUOUS
 10
-90.35926
 20
29.098623
 11
-90.08042
 21
29.02391
  0
LINE
  8
ボルト／ビス
  6
CONTINUOUS
 10
-90.22985
 20
29.581585
 11
-89.951012
 21
29.506872
  0
LINE
  8
ボルト／ビス
  6
CONTINUOUS
 10
-89.876297
 20
29.228032
 11
-89.951012
 21
29.506872
  0
CIRCLE
  8
ボルト／ビス
  6
CONTINUOUS
 10
-90.155135
 20
29.302748
 40
0.25
  0
LINE
  8
ボルト／ビス
  6
CONTINUOUS
 10
-90.08042
 20
29.02391
 11
-89.876297
 21
29.228032
  0
LINE
  8
ボルト／ビス
  6
CONTINUOUS
 10
-90.22985
 20
29.581585
 11
-90.433975
 21
29.377463
  0
ENDBLK
  0
BLOCK
  2
*GRP_0039
 70
    65
 10
0.0
 20
0.0
  0
INSERT
  2
*GRP_0042
  8
補助線
  6
CONTINUOUS
 10
0.0
 20
0.0
  0
LINE
  8
ボルト／ビス
  6
CONTINUOUS
 10
-99.09954
 20
44.246983
 11
-99.024825
 21
44.52582
  0
LINE
  8
ボルト／ビス
  6
CONTINUOUS
 10
-99.09954
 20
44.246983
 11
-98.895417
 21
44.042857
  0
LINE
  8
ボルト／ビス
  6
CONTINUOUS
 10
-98.745987
 20
44.600535
 11
-98.541863
 21
44.39641
  0
LINE
  8
ボルト／ビス
  6
CONTINUOUS
 10
-98.616578
 20
44.117572
 11
-98.541863
 21
44.39641
  0
CIRCLE
  8
ボルト／ビス
  6
CONTINUOUS
 10
-98.820702
 20
44.321695
 40
0.25
  0
LINE
  8
ボルト／ビス
  6
CONTINUOUS
 10
-98.895417
 20
44.042857
 11
-98.616578
 21
44.117572
  0
LINE
  8
ボルト／ビス
  6
CONTINUOUS
 10
-98.745987
 20
44.600535
 11
-99.024825
 21
44.52582
  0
ENDBLK
  0
BLOCK
  2
*GRP_0040
 70
    65
 10
0.0
 20
0.0
  0
LINE
  8
補助線
  6
BYBLOCK
 62
     0
 10
-75.16838
 20
20.517045
 11
-75.103677
 21
20.758527
  0
LINE
  8
補助線
  6
BYBLOCK
 62
     0
 10
-75.25677
 20
20.67014
 11
-75.015287
 21
20.605435
  0
ENDBLK
  0
BLOCK
  2
*GRP_0041
 70
    65
 10
0.0
 20
0.0
  0
LINE
  8
補助線
  6
BYBLOCK
 62
     0
 10
-90.066748
 20
29.21436
 11
-90.243525
 21
29.391135
  0
LINE
  8
補助線
  6
BYBLOCK
 62
     0
 10
-90.243525
 20
29.21436
 11
-90.066748
 21
29.391135
  0
ENDBLK
  0
BLOCK
  2
*GRP_0042
 70
    65
 10
0.0
 20
0.0
  0
LINE
  8
補助線
  6
BYBLOCK
 62
     0
 10
-98.78835
 20
44.200955
 11
-98.853055
 21
44.442438
  0
LINE
  8
補助線
  6
BYBLOCK
 62
     0
 10
-98.941442
 20
44.289343
 11
-98.69996
 21
44.354047
  0
ENDBLK
  0
BLOCK
  2
*GRP_0043
 70
    65
 10
0.0
 20
0.0
  0
INSERT
  2
*GRP_0046
  8
補助線
  6
CONTINUOUS
 10
0.0
 20
0.0
  0
LINE
  8
ボルト／ビス
  6
CONTINUOUS
 10
-57.519247
 20
20.712502
 11
-57.723373
 21
20.916625
  0
LINE
  8
ボルト／ビス
  6
CONTINUOUS
 10
-57.519247
 20
20.712502
 11
-57.593962
 21
20.433662
  0
LINE
  8
ボルト／ビス
  6
CONTINUOUS
 10
-58.00221
 20
20.84191
 11
-58.076925
 21
20.563073
  0
LINE
  8
ボルト／ビス
  6
CONTINUOUS
 10
-57.8728
 20
20.358948
 11
-58.076925
 21
20.563073
  0
CIRCLE
  8
ボルト／ビス
  6
CONTINUOUS
 10
-57.798085
 20
20.637788
 40
0.25
  0
LINE
  8
ボルト／ビス
  6
CONTINUOUS
 10
-57.593962
 20
20.433662
 11
-57.8728
 21
20.358948
  0
LINE
  8
ボルト／ビス
  6
CONTINUOUS
 10
-58.00221
 20
20.84191
 11
-57.723373
 21
20.916625
  0
ENDBLK
  0
BLOCK
  2
*GRP_0044
 70
    65
 10
0.0
 20
0.0
  0
INSERT
  2
*GRP_0047
  8
補助線
  6
CONTINUOUS
 10
0.0
 20
0.0
  0
LINE
  8
ボルト／ビス
  6
CONTINUOUS
 10
-42.574855
 20
29.098623
 11
-42.50014
 21
29.377463
  0
LINE
  8
ボルト／ビス
  6
CONTINUOUS
 10
-42.574855
 20
29.098623
 11
-42.853695
 21
29.02391
  0
LINE
  8
ボルト／ビス
  6
CONTINUOUS
 10
-42.704265
 20
29.581585
 11
-42.983103
 21
29.506872
  0
LINE
  8
ボルト／ビス
  6
CONTINUOUS
 10
-43.057817
 20
29.228032
 11
-42.983103
 21
29.506872
  0
CIRCLE
  8
ボルト／ビス
  6
CONTINUOUS
 10
-42.77898
 20
29.302748
 40
0.25
  0
LINE
  8
ボルト／ビス
  6
CONTINUOUS
 10
-42.853695
 20
29.02391
 11
-43.057817
 21
29.228032
  0
LINE
  8
ボルト／ビス
  6
CONTINUOUS
 10
-42.704265
 20
29.581585
 11
-42.50014
 21
29.377463
  0
ENDBLK
  0
BLOCK
  2
*GRP_0045
 70
    65
 10
0.0
 20
0.0
  0
INSERT
  2
*GRP_0048
  8
補助線
  6
CONTINUOUS
 10
0.0
 20
0.0
  0
LINE
  8
ボルト／ビス
  6
CONTINUOUS
 10
-33.834575
 20
44.246983
 11
-33.90929
 21
44.52582
  0
LINE
  8
ボルト／ビス
  6
CONTINUOUS
 10
-33.834575
 20
44.246983
 11
-34.038698
 21
44.042857
  0
LINE
  8
ボルト／ビス
  6
CONTINUOUS
 10
-34.188127
 20
44.600535
 11
-34.392252
 21
44.39641
  0
LINE
  8
ボルト／ビス
  6
CONTINUOUS
 10
-34.317537
 20
44.117572
 11
-34.392252
 21
44.39641
  0
CIRCLE
  8
ボルト／ビス
  6
CONTINUOUS
 10
-34.113412
 20
44.321695
 40
0.25
  0
LINE
  8
ボルト／ビス
  6
CONTINUOUS
 10
-34.038698
 20
44.042857
 11
-34.317537
 21
44.117572
  0
LINE
  8
ボルト／ビス
  6
CONTINUOUS
 10
-34.188127
 20
44.600535
 11
-33.90929
 21
44.52582
  0
ENDBLK
  0
BLOCK
  2
*GRP_0046
 70
    65
 10
0.0
 20
0.0
  0
LINE
  8
補助線
  6
BYBLOCK
 62
     0
 10
-57.765735
 20
20.517045
 11
-57.830437
 21
20.758527
  0
LINE
  8
補助線
  6
BYBLOCK
 62
     0
 10
-57.677345
 20
20.67014
 11
-57.918828
 21
20.605435
  0
ENDBLK
  0
BLOCK
  2
*GRP_0047
 70
    65
 10
0.0
 20
0.0
  0
LINE
  8
補助線
  6
BYBLOCK
 62
     0
 10
-42.867368
 20
29.21436
 11
-42.69059
 21
29.391135
  0
LINE
  8
補助線
  6
BYBLOCK
 62
     0
 10
-42.69059
 20
29.21436
 11
-42.867368
 21
29.391135
  0
ENDBLK
  0
BLOCK
  2
*GRP_0048
 70
    65
 10
0.0
 20
0.0
  0
LINE
  8
補助線
  6
BYBLOCK
 62
     0
 10
-34.145765
 20
44.200955
 11
-34.08106
 21
44.442438
  0
LINE
  8
補助線
  6
BYBLOCK
 62
     0
 10
-33.992673
 20
44.289343
 11
-34.234155
 21
44.354047
  0
ENDBLK
  0
BLOCK
  2
*DIM_0049
 70
    65
 10
0.0
 20
0.0
  0
LINE
  8
寸法
  6
CONTINUOUS
 10
97.680137
 20
29.303522
 11
144.52596
 21
76.149345
  0
POINT
  8
寸法
 10
97.680137
 20
29.303522
  0
POINT
  8
寸法
 10
144.52596
 20
76.149345
  0
TEXT
  7
TextStyle03
  8
寸法
  6
CONTINUOUS
 10
124.247223
 20
56.475903
  1
φ1325
 40
3.0
 50
45.0
 72
     5
 11
131.274097
 21
63.502777
  0
ENDBLK
  0
BLOCK
  2
*GRP_0050
 70
    65
 10
0.0
 20
0.0
  0
LINE
  8
ボルト／ビス
  6
CONTINUOUS
 10
-99.96706
 20
-84.056362
 11
-99.96706
 21
-83.356362
  0
LINE
  8
ボルト／ビス
  6
CONTINUOUS
 10
-100.51706
 20
-84.056362
 11
-100.51706
 21
-83.956362
  0
LINE
  8
ボルト／ビス
  6
CONTINUOUS
 10
-100.51706
 20
-83.956362
 11
-99.41706
 21
-83.956362
  0
LINE
  8
ボルト／ビス
  6
CONTINUOUS
 10
-99.41706
 20
-83.956362
 11
-99.41706
 21
-84.056362
  0
LINE
  8
ボルト／ビス
  6
CONTINUOUS
 10
-100.51706
 20
-84.056362
 11
-99.41706
 21
-84.056362
  0
LINE
  8
ボルト／ビス
  6
CONTINUOUS
 10
-100.41706
 20
-83.906362
 11
-100.41706
 21
-83.956362
  0
LINE
  8
ボルト／ビス
  6
CONTINUOUS
 10
-100.41706
 20
-83.906362
 11
-99.51706
 21
-83.906362
  0
LINE
  8
ボルト／ビス
  6
CONTINUOUS
 10
-99.51706
 20
-83.906362
 11
-99.51706
 21
-83.956362
  0
LINE
  8
ボルト／ビス
  6
CONTINUOUS
 62
    64
 10
-100.207622
 20
-83.606362
 11
-100.255735
 21
-83.623875
  0
ARC
  8
ボルト／ビス
  6
CONTINUOUS
 62
    64
 10
-100.183564
 20
-83.763829
 40
0.157468
 50
62.721967
 51
90.0
  0
ARC
  8
ボルト／ビス
  6
CONTINUOUS
 62
    64
 10
-99.967058
 20
-84.209965
 40
0.603603
 50
76.165002
 51
103.834985
  0
LINE
  8
ボルト／ビス
  6
CONTINUOUS
 62
    64
 10
-99.726498
 20
-83.606362
 11
-99.678385
 21
-83.623875
  0
ARC
  8
ボルト／ビス
  6
CONTINUOUS
 62
    64
 10
-99.750551
 20
-83.763829
 40
0.157468
 50
90.0
 51
117.278033
  0
LINE
  8
ボルト／ビス
  6
CONTINUOUS
 62
    64
 10
-100.207622
 20
-83.606362
 11
-99.726498
 21
-83.606362
  0
LINE
  8
ボルト／ビス
  6
CONTINUOUS
 62
    64
 10
-99.678385
 20
-83.623875
 11
-99.678385
 21
-83.806362
  0
LINE
  8
ボルト／ビス
  6
CONTINUOUS
 62
    64
 10
-99.822722
 20
-83.623875
 11
-99.822722
 21
-83.806362
  0
LINE
  8
ボルト／ビス
  6
CONTINUOUS
 62
    64
 10
-100.255735
 20
-83.623875
 11
-100.255735
 21
-83.806362
  0
LINE
  8
ボルト／ビス
  6
CONTINUOUS
 62
    64
 10
-100.111398
 20
-83.623875
 11
-100.111398
 21
-83.806362
  0
LINE
  8
ボルト／ビス
  6
CONTINUOUS
 10
-100.255735
 20
-83.806362
 11
-99.678385
 21
-83.806362
  0
LINE
  8
ボルト／ビス
  6
CONTINUOUS
 10
-100.26706
 20
-83.806362
 11
-100.26706
 21
-83.906362
  0
LINE
  8
ボルト／ビス
  6
CONTINUOUS
 10
-100.26706
 20
-83.806362
 11
-99.66706
 21
-83.806362
  0
LINE
  8
ボルト／ビス
  6
CONTINUOUS
 10
-99.66706
 20
-83.806362
 11
-99.66706
 21
-83.906362
  0
ENDBLK
  0
BLOCK
  2
*GRP_0051
 70
    65
 10
0.0
 20
0.0
  0
LINE
  8
ボルト／ビス
  6
CONTINUOUS
 10
-32.967055
 20
-84.056362
 11
-32.967055
 21
-83.356362
  0
LINE
  8
ボルト／ビス
  6
CONTINUOUS
 10
-33.517055
 20
-84.056362
 11
-33.517055
 21
-83.956362
  0
LINE
  8
ボルト／ビス
  6
CONTINUOUS
 10
-33.517055
 20
-83.956362
 11
-32.417055
 21
-83.956362
  0
LINE
  8
ボルト／ビス
  6
CONTINUOUS
 10
-32.417055
 20
-83.956362
 11
-32.417055
 21
-84.056362
  0
LINE
  8
ボルト／ビス
  6
CONTINUOUS
 10
-33.517055
 20
-84.056362
 11
-32.417055
 21
-84.056362
  0
LINE
  8
ボルト／ビス
  6
CONTINUOUS
 10
-33.417055
 20
-83.906362
 11
-33.417055
 21
-83.956362
  0
LINE
  8
ボルト／ビス
  6
CONTINUOUS
 10
-33.417055
 20
-83.906362
 11
-32.517055
 21
-83.906362
  0
LINE
  8
ボルト／ビス
  6
CONTINUOUS
 10
-32.517055
 20
-83.906362
 11
-32.517055
 21
-83.956362
  0
LINE
  8
ボルト／ビス
  6
CONTINUOUS
 62
    64
 10
-33.207618
 20
-83.606362
 11
-33.25573
 21
-83.623875
  0
ARC
  8
ボルト／ビス
  6
CONTINUOUS
 62
    64
 10
-33.183559
 20
-83.763829
 40
0.157468
 50
62.721967
 51
90.0
  0
ARC
  8
ボルト／ビス
  6
CONTINUOUS
 62
    64
 10
-32.967053
 20
-84.209965
 40
0.603603
 50
76.165002
 51
103.834985
  0
LINE
  8
ボルト／ビス
  6
CONTINUOUS
 62
    64
 10
-32.726493
 20
-83.606362
 11
-32.67838
 21
-83.623875
  0
ARC
  8
ボルト／ビス
  6
CONTINUOUS
 62
    64
 10
-32.750546
 20
-83.763829
 40
0.157468
 50
90.0
 51
117.278033
  0
LINE
  8
ボルト／ビス
  6
CONTINUOUS
 62
    64
 10
-33.207618
 20
-83.606362
 11
-32.726493
 21
-83.606362
  0
LINE
  8
ボルト／ビス
  6
CONTINUOUS
 62
    64
 10
-32.67838
 20
-83.623875
 11
-32.67838
 21
-83.806362
  0
LINE
  8
ボルト／ビス
  6
CONTINUOUS
 62
    64
 10
-32.822717
 20
-83.623875
 11
-32.822717
 21
-83.806362
  0
LINE
  8
ボルト／ビス
  6
CONTINUOUS
 62
    64
 10
-33.25573
 20
-83.623875
 11
-33.25573
 21
-83.806362
  0
LINE
  8
ボルト／ビス
  6
CONTINUOUS
 62
    64
 10
-33.111392
 20
-83.623875
 11
-33.111392
 21
-83.806362
  0
LINE
  8
ボルト／ビス
  6
CONTINUOUS
 10
-33.25573
 20
-83.806362
 11
-32.67838
 21
-83.806362
  0
LINE
  8
ボルト／ビス
  6
CONTINUOUS
 10
-33.267055
 20
-83.806362
 11
-33.267055
 21
-83.906362
  0
LINE
  8
ボルト／ビス
  6
CONTINUOUS
 10
-33.267055
 20
-83.806362
 11
-32.667055
 21
-83.806362
  0
LINE
  8
ボルト／ビス
  6
CONTINUOUS
 10
-32.667055
 20
-83.806362
 11
-32.667055
 21
-83.906362
  0
ENDBLK
  0
ENDSEC
  0
SECTION
  2
ENTITIES
  0
POLYLINE
  8
通り芯
  6
CONTINUOUS
 66
     1
 70
     1
  0
VERTEX
  8
通り芯
 10
-210.0
 20
-148.5
  0
VERTEX
  8
通り芯
 10
210.0
 20
-148.5
  0
VERTEX
  8
通り芯
 10
210.0
 20
148.5
  0
VERTEX
  8
通り芯
 10
-210.0
 20
148.5
  0
SEQEND
  0
INSERT
  2
*GRP_0001
  8
型材断面
  6
CONTINUOUS
 10
0.0
 20
0.0
  0
LINE
  8
型材断面
  6
CONTINUOUS
 10
-6.047415
 20
36.097927
 11
-8.29086
 21
32.212168
  0
LINE
  8
型材断面
  6
CONTINUOUS
 10
-6.047415
 20
36.097927
 11
-3.80397
 21
32.212168
  0
LINE
  8
型材断面
  6
CONTINUOUS
 10
-3.80397
 20
32.212168
 11
-8.29086
 21
32.212168
  0
LINE
  8
型材断面
  6
CONTINUOUS
 10
-10.100105
 20
24.632985
 11
49.526465
 21
24.632985
  0
LINE
  8
型材断面
  6
CONTINUOUS
 10
-10.100105
 20
30.804275
 11
49.526465
 21
30.804275
  0
LINE
  8
型材断面
  6
CONTINUOUS
 10
-66.467058
 20
-87.056545
 11
-31.817058
 21
-87.056545
  0
LINE
  8
型材断面
  6
CONTINUOUS
 10
-66.467058
 20
-89.591543
 11
-30.717058
 21
-89.591543
  0
LINE
  8
型材断面
  6
CONTINUOUS
 10
-66.467058
 20
-88.991543
 11
-30.717058
 21
-88.991543
  0
LINE
  8
型材断面
  6
CONTINUOUS
 10
-66.467058
 20
-88.741543
 11
-32.492058
 21
-88.741543
  0
LINE
  8
型材断面
  6
DASHDOT
 10
-33.967058
 20
-95.20744
 11
-33.967058
 21
52.990827
  0
LINE
  8
型材断面
  6
CONTINUOUS
 10
-66.467058
 20
-87.056545
 11
-101.117058
 21
-87.056545
  0
LINE
  8
型材断面
  6
CONTINUOUS
 10
-66.467058
 20
-89.591543
 11
-102.217058
 21
-89.591543
  0
LINE
  8
型材断面
  6
CONTINUOUS
 10
-66.467058
 20
-88.991543
 11
-102.217058
 21
-88.991543
  0
LINE
  8
型材断面
  6
CONTINUOUS
 10
-66.467058
 20
-88.741543
 11
-100.442058
 21
-88.741543
  0
LINE
  8
型材断面
  6
DASHDOT
 10
-98.967058
 20
-95.20744
 11
-98.967058
 21
52.990827
  0
LINE
  8
型材断面
  6
DASHDOT
 10
-33.967058
 20
52.990827
 11
-98.967058
 21
52.990827
  0
CIRCLE
  8
型材断面
  6
DASHDOT
 10
-66.467058
 20
52.990827
 40
32.5
  0
LINE
  8
型材断面
  6
DASHDOT
 10
-66.467058
 20
-95.20744
 11
-66.467058
 21
85.490827
  0
LINE
  8
型材断面
  6
CONTINUOUS
 10
-66.467058
 20
92.704495
 11
-68.710502
 21
96.590255
  0
LINE
  8
型材断面
  6
CONTINUOUS
 10
-66.467058
 20
92.704495
 11
-64.223613
 21
96.590255
  0
LINE
  8
型材断面
  6
CONTINUOUS
 10
-64.223613
 20
96.590255
 11
-68.710502
 21
96.590255
  0
LINE
  8
型材断面
  6
CONTINUOUS
 10
-66.467058
 20
13.27716
 11
-68.710502
 21
9.3914
  0
LINE
  8
型材断面
  6
CONTINUOUS
 10
-66.467058
 20
13.27716
 11
-64.223613
 21
9.3914
  0
LINE
  8
型材断面
  6
CONTINUOUS
 10
-64.223613
 20
9.3914
 11
-68.710502
 21
9.3914
  0
LINE
  8
型材断面
  6
CONTINUOUS
 10
-26.75339
 20
52.990827
 11
-22.86763
 21
55.234273
  0
LINE
  8
型材断面
  6
CONTINUOUS
 10
-26.75339
 20
52.990827
 11
-22.86763
 21
50.747382
  0
LINE
  8
型材断面
  6
CONTINUOUS
 10
-22.86763
 20
50.747382
 11
-22.86763
 21
55.234273
  0
LINE
  8
型材断面
  6
CONTINUOUS
 10
-106.180725
 20
52.990827
 11
-110.066485
 21
55.234273
  0
LINE
  8
型材断面
  6
CONTINUOUS
 10
-106.180725
 20
52.990827
 11
-110.066485
 21
50.747382
  0
LINE
  8
型材断面
  6
CONTINUOUS
 10
-110.066485
 20
50.747382
 11
-110.066485
 21
55.234273
  0
LINE
  8
型材断面
  6
CONTINUOUS
 10
-38.385253
 20
81.07263
 11
-34.05125
 21
82.233922
  0
LINE
  8
型材断面
  6
CONTINUOUS
 10
-38.385253
 20
81.07263
 11
-37.22396
 21
85.406632
  0
LINE
  8
型材断面
  6
CONTINUOUS
 10
-37.22396
 20
85.406632
 11
-34.05125
 21
82.233922
  0
LINE
  8
型材断面
  6
CONTINUOUS
 10
-94.54886
 20
24.909022
 11
-95.710153
 21
20.57502
  0
LINE
  8
型材断面
  6
CONTINUOUS
 10
-94.54886
 20
24.909022
 11
-98.882863
 21
23.74773
  0
LINE
  8
型材断面
  6
CONTINUOUS
 10
-98.882863
 20
23.74773
 11
-95.710153
 21
20.57502
  0
LINE
  8
型材断面
  6
CONTINUOUS
 10
-38.385255
 20
24.909022
 11
-37.223963
 21
20.57502
  0
LINE
  8
型材断面
  6
CONTINUOUS
 10
-38.385255
 20
24.909022
 11
-34.051253
 21
23.74773
  0
LINE
  8
型材断面
  6
CONTINUOUS
 10
-34.051253
 20
23.74773
 11
-37.223963
 21
20.57502
  0
LINE
  8
型材断面
  6
CONTINUOUS
 10
-94.548862
 20
81.07263
 11
-98.882865
 21
82.233922
  0
LINE
  8
型材断面
  6
CONTINUOUS
 10
-94.548862
 20
81.07263
 11
-95.710155
 21
85.406632
  0
LINE
  8
型材断面
  6
CONTINUOUS
 10
-95.710155
 20
85.406632
 11
-98.882865
 21
82.233922
  0
LINE
  8
型材断面
  6
DASHDOT
 10
154.228047
 20
52.726433
 11
87.978047
 21
52.726433
  0
LINE
  8
型材断面
  6
DASHDOT
 10
121.103047
 20
85.851433
 11
121.103047
 21
19.601433
  0
CIRCLE
  8
ガラス
  6
CONTINUOUS
 10
-66.467058
 20
52.990827
 40
33.125
  0
CIRCLE
  8
ガラス
  6
CONTINUOUS
 10
121.103047
 20
52.726433
 40
33.125
  0
CIRCLE
  8
ボルト／ビス
  6
CONTINUOUS
 10
-57.798085
 20
85.343867
 40
0.288675
  0
CIRCLE
  8
ボルト／ビス
  6
CONTINUOUS
 10
-57.798085
 20
85.343867
 40
0.455885
  0
CIRCLE
  8
ボルト／ビス
  6
CONTINUOUS
 10
-42.77898
 20
76.678908
 40
0.288675
  0
CIRCLE
  8
ボルト／ビス
  6
CONTINUOUS
 10
-42.77898
 20
76.678908
 40
0.455885
  0
CIRCLE
  8
ボルト／ビス
  6
CONTINUOUS
 10
-34.113412
 20
61.65996
 40
0.288675
  0
CIRCLE
  8
ボルト／ビス
  6
CONTINUOUS
 10
-34.113412
 20
61.65996
 40
0.455885
  0
CIRCLE
  8
ボルト／ビス
  6
CONTINUOUS
 10
-75.13603
 20
85.343867
 40
0.288675
  0
CIRCLE
  8
ボルト／ビス
  6
CONTINUOUS
 10
-75.13603
 20
85.343867
 40
0.455885
  0
CIRCLE
  8
ボルト／ビス
  6
CONTINUOUS
 10
-90.155135
 20
76.678908
 40
0.288675
  0
CIRCLE
  8
ボルト／ビス
  6
CONTINUOUS
 10
-90.155135
 20
76.678908
 40
0.455885
  0
CIRCLE
  8
ボルト／ビス
  6
CONTINUOUS
 10
-98.820702
 20
61.65996
 40
0.288675
  0
CIRCLE
  8
ボルト／ビス
  6
CONTINUOUS
 10
-98.820702
 20
61.65996
 40
0.455885
  0
CIRCLE
  8
ボルト／ビス
  6
CONTINUOUS
 10
-75.13603
 20
20.637788
 40
0.288675
  0
CIRCLE
  8
ボルト／ビス
  6
CONTINUOUS
 10
-75.13603
 20
20.637788
 40
0.455885
  0
CIRCLE
  8
ボルト／ビス
  6
CONTINUOUS
 10
-90.155135
 20
29.302748
 40
0.288675
  0
CIRCLE
  8
ボルト／ビス
  6
CONTINUOUS
 10
-90.155135
 20
29.302748
 40
0.455885
  0
CIRCLE
  8
ボルト／ビス
  6
CONTINUOUS
 10
-98.820702
 20
44.321695
 40
0.288675
  0
CIRCLE
  8
ボルト／ビス
  6
CONTINUOUS
 10
-98.820702
 20
44.321695
 40
0.455885
  0
CIRCLE
  8
ボルト／ビス
  6
CONTINUOUS
 10
-57.798085
 20
20.637788
 40
0.288675
  0
CIRCLE
  8
ボルト／ビス
  6
CONTINUOUS
 10
-57.798085
 20
20.637788
 40
0.455885
  0
CIRCLE
  8
ボルト／ビス
  6
CONTINUOUS
 10
-42.77898
 20
29.302748
 40
0.288675
  0
CIRCLE
  8
ボルト／ビス
  6
CONTINUOUS
 10
-42.77898
 20
29.302748
 40
0.455885
  0
CIRCLE
  8
ボルト／ビス
  6
CONTINUOUS
 10
-34.113412
 20
44.321695
 40
0.288675
  0
CIRCLE
  8
ボルト／ビス
  6
CONTINUOUS
 10
-34.113412
 20
44.321695
 40
0.455885
  0
TEXT
  7
TextStyle03
  8
文字
  6
CONTINUOUS
 10
-1.775
 20
32.525
  1
は排水穴位置を示す
 40
3.0
 72
     5
 11
28.225
 21
32.525
  0
TEXT
  7
TextStyle03
  8
文字
  6
CONTINUOUS
 10
-1.475
 20
26.0
  1
はアンカー位置示す　数量８ヶ所
 40
3.0
 72
     5
 11
48.775
 21
26.0
  0
INSERT
  2
*GRP_0002
  8
文字
  6
CONTINUOUS
 10
0.0
 20
0.0
  0
TEXT
  7
TextStyle03
  8
文字
  6
CONTINUOUS
 10
92.975
 20
120.7
  1
シリーズ：ＴＤＲ２Ｋ
 40
5.0
 72
     5
 11
148.6
 21
120.7
  0
TEXT
  7
TextStyle03
  8
文字
  6
CONTINUOUS
 10
92.975
 20
115.075
  1
　　　　　（固定）φ1300タイプ
 40
5.0
 72
     5
 11
176.725
 21
115.075
  0
TEXT
  7
TextStyle03
  8
文字
  6
CONTINUOUS
 10
92.975
 20
109.45
  1
図面名　：外観姿図
 40
5.0
 72
     5
 11
142.975
 21
109.45
  0
TEXT
  7
TextStyle03
  8
文字
  6
CONTINUOUS
 10
92.975
 20
103.825
  1
　　　　　　
 40
5.0
 72
     5
 11
126.1
 21
103.825
  0
INSERT
  2
*GRP_0009
  8
文字
  6
CONTINUOUS
 10
0.0
 20
0.0
  0
INSERT
  2
*GRP_0011
  8
文字
  6
CONTINUOUS
 10
0.0
 20
0.0
  0
INSERT
  2
*GRP_0013
  8
文字
  6
CONTINUOUS
 10
0.0
 20
0.0
  0
INSERT
  2
*GRP_0015
  8
文字
  6
CONTINUOUS
 10
0.0
 20
0.0
  0
INSERT
  2
*GRP_0017
  8
文字
  6
CONTINUOUS
 10
0.0
 20
0.0
  0
INSERT
  2
*GRP_0019
  8
文字
  6
CONTINUOUS
 10
0.0
 20
0.0
  0
INSERT
  2
*GRP_0021
  8
文字
  6
CONTINUOUS
 10
0.0
 20
0.0
  0
INSERT
  2
*GRP_0023
  8
文字
  6
CONTINUOUS
 10
0.0
 20
0.0
  0
INSERT
  2
*GRP_0025
  8
文字
  6
CONTINUOUS
 10
0.0
 20
0.0
  0
INSERT
  2
*GRP_0027
  8
文字
  6
CONTINUOUS
 10
0.0
 20
0.0
  0
INSERT
  2
*GRP_0029
  8
文字
  6
CONTINUOUS
 10
0.0
 20
0.0
  0
INSERT
  2
*GRP_0031
  8
文字
  6
CONTINUOUS
 10
0.0
 20
0.0
  0
INSERT
  2
*GRP_0032
  8
文字
  6
CONTINUOUS
 10
0.0
 20
0.0
  0
INSERT
  2
*GRP_0033
  8
文字
  6
CONTINUOUS
 10
0.0
 20
0.0
  0
INSERT
  2
*GRP_0037
  8
文字
  6
CONTINUOUS
 10
0.0
 20
0.0
  0
INSERT
  2
*GRP_0038
  8
文字
  6
CONTINUOUS
 10
0.0
 20
0.0
  0
INSERT
  2
*GRP_0039
  8
文字
  6
CONTINUOUS
 10
0.0
 20
0.0
  0
INSERT
  2
*GRP_0043
  8
文字
  6
CONTINUOUS
 10
0.0
 20
0.0
  0
INSERT
  2
*GRP_0044
  8
文字
  6
CONTINUOUS
 10
0.0
 20
0.0
  0
INSERT
  2
*GRP_0045
  8
文字
  6
CONTINUOUS
 10
0.0
 20
0.0
  0
TEXT
  7
TextStyle03
  8
文字
  6
CONTINUOUS
 10
128.625
 20
38.875
  1
網入り6.8t
 40
3.0
 72
     5
 11
145.3125
 21
38.875
  0
TEXT
  7
TextStyle03
  8
文字
  6
CONTINUOUS
 10
135.25
 20
33.625
  1
×１枚
 40
3.0
 72
     5
 11
145.0
 21
33.625
  0
INSERT
  2
*DIM_0004
  8
寸法
  6
CONTINUOUS
 10
0.0
 20
0.0
  0
INSERT
  2
*DIM_0005
  8
寸法
  6
CONTINUOUS
 10
0.0
 20
0.0
  0
INSERT
  2
*DIM_0006
  8
寸法
  6
CONTINUOUS
 10
0.0
 20
0.0
  0
INSERT
  2
*DIM_0007
  8
寸法
  6
CONTINUOUS
 10
0.0
 20
0.0
  0
INSERT
  2
*DIM_0008
  8
寸法
  6
CONTINUOUS
 10
0.0
 20
0.0
  0
INSERT
  2
*DIM_0049
  8
寸法
  6
CONTINUOUS
 10
0.0
 20
0.0
  0
LINE
  8
別途部材
  6
CONTINUOUS
 62
    96
 10
-101.46706
 20
-84.05636
 11
-102.06706
 21
-85.55636
  0
LINE
  8
別途部材
  6
CONTINUOUS
 62
    96
 10
-101.46706
 20
-84.05636
 11
-66.467058
 21
-84.05636
  0
LINE
  8
別途部材
  6
CONTINUOUS
 10
-102.06706
 20
-85.55636
 11
-66.467058
 21
-85.55636
  0
LINE
  8
別途部材
  6
CONTINUOUS
 62
    96
 10
-31.467058
 20
-84.05636
 11
-30.867058
 21
-85.55636
  0
LINE
  8
別途部材
  6
CONTINUOUS
 62
    96
 10
-31.467058
 20
-84.05636
 11
-66.467058
 21
-84.05636
  0
LINE
  8
別途部材
  6
CONTINUOUS
 10
-30.867058
 20
-85.55636
 11
-66.467058
 21
-85.55636
  0
ARC
  8
別途部材
  6
CONTINUOUS
 10
-66.467057
 20
-105.484935
 40
38.928572
 50
33.39849
 51
146.60151
  0
CIRCLE
  8
別途部材
  6
CONTINUOUS
 10
-66.467058
 20
52.990827
 40
35.6
  0
CIRCLE
  8
別途部材
  6
CONTINUOUS
 10
-66.467058
 20
52.990827
 40
35.0
  0
INSERT
  2
*GRP_0050
  8
別途部材
  6
DOT
 10
0.0
 20
0.0
  0
INSERT
  2
*GRP_0051
  8
別途部材
  6
DOT
 10
0.0
 20
0.0
  0
LINE
  8
曲げ物
  6
CONTINUOUS
 62
   111
 10
-29.817058
 20
-91.356545
 11
-30.967058
 21
-91.356545
  0
LINE
  8
曲げ物
  6
CONTINUOUS
 62
   111
 10
-30.967058
 20
-91.356545
 11
-30.967058
 21
-92.006545
  0
LINE
  8
曲げ物
  6
CONTINUOUS
 62
   111
 10
-31.067058
 20
-92.006545
 11
-30.967058
 21
-92.006545
  0
LINE
  8
曲げ物
  6
CONTINUOUS
 62
   111
 10
-29.817058
 20
-90.106545
 11
-33.592058
 21
-90.106545
  0
LINE
  8
曲げ物
  6
CONTINUOUS
 10
-66.467058
 20
-90.106545
 11
-29.717058
 21
-90.106545
  0
LINE
  8
曲げ物
  6
CONTINUOUS
 62
   111
 10
-29.717058
 20
-90.106545
 11
-29.717058
 21
-91.356545
  0
LINE
  8
曲げ物
  6
CONTINUOUS
 10
-66.467058
 20
-91.356545
 11
-29.717058
 21
-91.356545
  0
LINE
  8
曲げ物
  6
CONTINUOUS
 10
-66.467058
 20
-92.006545
 11
-30.967058
 21
-92.006545
  0
LINE
  8
曲げ物
  6
CONTINUOUS
 62
   111
 10
-103.117058
 20
-91.356545
 11
-101.967058
 21
-91.356545
  0
LINE
  8
曲げ物
  6
CONTINUOUS
 62
   111
 10
-101.967058
 20
-91.356545
 11
-101.967058
 21
-92.006545
  0
LINE
  8
曲げ物
  6
CONTINUOUS
 62
   111
 10
-101.867058
 20
-92.006545
 11
-101.967058
 21
-92.006545
  0
LINE
  8
曲げ物
  6
CONTINUOUS
 62
   111
 10
-103.117058
 20
-90.106545
 11
-99.342058
 21
-90.106545
  0
LINE
  8
曲げ物
  6
CONTINUOUS
 10
-66.467058
 20
-90.106545
 11
-103.217058
 21
-90.106545
  0
LINE
  8
曲げ物
  6
CONTINUOUS
 62
   111
 10
-103.217058
 20
-90.106545
 11
-103.217058
 21
-91.356545
  0
LINE
  8
曲げ物
  6
CONTINUOUS
 10
-66.467058
 20
-91.356545
 11
-103.217058
 21
-91.356545
  0
LINE
  8
曲げ物
  6
CONTINUOUS
 10
-66.467058
 20
-92.006545
 11
-101.967058
 21
-92.006545
  0
LINE
  8
曲げ物
  6
CONTINUOUS
 10
-29.717058
 20
16.240827
 11
-103.217058
 21
16.240827
  0
LINE
  8
曲げ物
  6
CONTINUOUS
 10
-29.717058
 20
89.740827
 11
-103.217058
 21
89.740827
  0
LINE
  8
曲げ物
  6
CONTINUOUS
 10
-29.717058
 20
89.740827
 11
-29.717058
 21
16.240827
  0
LINE
  8
曲げ物
  6
CONTINUOUS
 10
-103.217058
 20
89.740827
 11
-103.217058
 21
16.240827
  0
LINE
  8
断面線01
  6
CONTINUOUS
 62
    47
 10
-30.717058
 20
-88.991543
 11
-30.717058
 21
-89.591543
  0
LINE
  8
断面線01
  6
CONTINUOUS
 62
    47
 10
-32.492058
 20
-88.741543
 11
-30.717058
 21
-88.991543
  0
LINE
  8
断面線01
  6
CONTINUOUS
 62
    47
 10
-30.717058
 20
-89.591543
 11
-31.467058
 21
-89.591543
  0
LINE
  8
断面線01
  6
CONTINUOUS
 62
    47
 10
-31.817058
 20
-87.056545
 11
-31.817058
 21
-85.556365
  0
LINE
  8
断面線01
  6
CONTINUOUS
 62
    47
 10
-32.492058
 20
-88.741543
 11
-32.492058
 21
-87.056545
  0
LINE
  8
断面線01
  6
CONTINUOUS
 62
    47
 10
-102.217058
 20
-88.991543
 11
-102.217058
 21
-89.591543
  0
LINE
  8
断面線01
  6
CONTINUOUS
 62
    47
 10
-100.442058
 20
-88.741543
 11
-102.217058
 21
-88.991543
  0
LINE
  8
断面線01
  6
CONTINUOUS
 62
    47
 10
-102.217058
 20
-89.591543
 11
-101.467058
 21
-89.591543
  0
LINE
  8
断面線01
  6
CONTINUOUS
 62
    47
 10
-101.117058
 20
-87.056545
 11
-101.117058
 21
-85.556365
  0
LINE
  8
断面線01
  6
CONTINUOUS
 62
    47
 10
-100.442058
 20
-88.741543
 11
-100.442058
 21
-87.056545
  0
LINE
  8
断面線08
  6
CONTINUOUS
 10
-30.717058
 20
-89.591543
 11
-30.717058
 21
-90.106545
  0
LINE
  8
断面線08
  6
CONTINUOUS
 10
-102.217058
 20
-89.591543
 11
-102.217058
 21
-90.106545
  0
ENDSEC
  0
EOF
